ISO-10303-21;
HEADER;
/* Generated by software containing ST-Developer
 * from STEP Tools, Inc. (www.steptools.com) 
 */
/* OPTION: using custom renumber hook */

FILE_DESCRIPTION(
/* description */ ('STEP AP214'),
/* implementation_level */ '2;1');

FILE_NAME(
/* name */ '092070',
/* time_stamp */ '2023-02-02T13:08:41+01:00',
/* author */ ('License CC BY-ND 4.0'),
/* organization */ ('CADENAS'),
/* preprocessor_version */ 'ST-DEVELOPER v18.102',
/* originating_system */ 'PARTsolutions',
/* authorisation */ '  ');

FILE_SCHEMA (('AUTOMOTIVE_DESIGN {1 0 10303 214 3 1 1}'));
ENDSEC;

DATA;
#10=PROPERTY_DEFINITION_REPRESENTATION(#14,#12);
#11=PROPERTY_DEFINITION_REPRESENTATION(#15,#13);
#12=REPRESENTATION('',(#16),#601);
#13=REPRESENTATION('',(#17),#601);
#14=PROPERTY_DEFINITION('pmi validation property','',#606);
#15=PROPERTY_DEFINITION('pmi validation property','',#606);
#16=VALUE_REPRESENTATION_ITEM('number of annotations',COUNT_MEASURE(0.));
#17=VALUE_REPRESENTATION_ITEM('number of views',COUNT_MEASURE(0.));
#18=SHAPE_REPRESENTATION_RELATIONSHIP('','',#355,#19);
#19=ADVANCED_BREP_SHAPE_REPRESENTATION('',(#353),#601);
#20=CIRCLE('',#359,0.199999999999999);
#21=CIRCLE('',#360,0.199999999999999);
#22=CIRCLE('',#363,7.2);
#23=CIRCLE('',#364,7.2);
#24=CIRCLE('',#366,0.276351228234254);
#25=CIRCLE('',#367,0.276351228234254);
#26=CIRCLE('',#369,6.64730000000002);
#27=CIRCLE('',#370,6.64730000000002);
#28=CIRCLE('',#373,6.6473);
#29=CIRCLE('',#374,6.6473);
#30=CIRCLE('',#376,0.276351228234236);
#31=CIRCLE('',#377,0.276351228234236);
#32=CIRCLE('',#379,7.19999999999999);
#33=CIRCLE('',#380,7.19999999999999);
#34=CIRCLE('',#383,0.2);
#35=CIRCLE('',#384,0.2);
#36=CIRCLE('',#387,0.2);
#37=CIRCLE('',#388,0.2);
#38=CIRCLE('',#391,0.2);
#39=CIRCLE('',#392,0.2);
#40=CYLINDRICAL_SURFACE('',#358,0.199999999999999);
#41=CYLINDRICAL_SURFACE('',#362,7.2);
#42=CYLINDRICAL_SURFACE('',#365,0.276351228234254);
#43=CYLINDRICAL_SURFACE('',#368,6.64730000000002);
#44=CYLINDRICAL_SURFACE('',#372,6.6473);
#45=CYLINDRICAL_SURFACE('',#375,0.276351228234236);
#46=CYLINDRICAL_SURFACE('',#378,7.19999999999999);
#47=CYLINDRICAL_SURFACE('',#382,0.2);
#48=CYLINDRICAL_SURFACE('',#386,0.2);
#49=CYLINDRICAL_SURFACE('',#390,0.2);
#50=ORIENTED_EDGE('',*,*,#146,.F.);
#51=ORIENTED_EDGE('',*,*,#147,.F.);
#52=ORIENTED_EDGE('',*,*,#148,.T.);
#53=ORIENTED_EDGE('',*,*,#149,.T.);
#54=ORIENTED_EDGE('',*,*,#150,.F.);
#55=ORIENTED_EDGE('',*,*,#149,.F.);
#56=ORIENTED_EDGE('',*,*,#151,.T.);
#57=ORIENTED_EDGE('',*,*,#152,.T.);
#58=ORIENTED_EDGE('',*,*,#153,.F.);
#59=ORIENTED_EDGE('',*,*,#152,.F.);
#60=ORIENTED_EDGE('',*,*,#154,.T.);
#61=ORIENTED_EDGE('',*,*,#155,.T.);
#62=ORIENTED_EDGE('',*,*,#156,.F.);
#63=ORIENTED_EDGE('',*,*,#155,.F.);
#64=ORIENTED_EDGE('',*,*,#157,.T.);
#65=ORIENTED_EDGE('',*,*,#158,.T.);
#66=ORIENTED_EDGE('',*,*,#159,.F.);
#67=ORIENTED_EDGE('',*,*,#158,.F.);
#68=ORIENTED_EDGE('',*,*,#160,.T.);
#69=ORIENTED_EDGE('',*,*,#161,.T.);
#70=ORIENTED_EDGE('',*,*,#162,.T.);
#71=ORIENTED_EDGE('',*,*,#161,.F.);
#72=ORIENTED_EDGE('',*,*,#163,.F.);
#73=ORIENTED_EDGE('',*,*,#164,.T.);
#74=ORIENTED_EDGE('',*,*,#165,.F.);
#75=ORIENTED_EDGE('',*,*,#164,.F.);
#76=ORIENTED_EDGE('',*,*,#166,.T.);
#77=ORIENTED_EDGE('',*,*,#167,.T.);
#78=ORIENTED_EDGE('',*,*,#168,.T.);
#79=ORIENTED_EDGE('',*,*,#167,.F.);
#80=ORIENTED_EDGE('',*,*,#169,.F.);
#81=ORIENTED_EDGE('',*,*,#170,.T.);
#82=ORIENTED_EDGE('',*,*,#171,.F.);
#83=ORIENTED_EDGE('',*,*,#170,.F.);
#84=ORIENTED_EDGE('',*,*,#172,.T.);
#85=ORIENTED_EDGE('',*,*,#173,.T.);
#86=ORIENTED_EDGE('',*,*,#174,.F.);
#87=ORIENTED_EDGE('',*,*,#173,.F.);
#88=ORIENTED_EDGE('',*,*,#175,.T.);
#89=ORIENTED_EDGE('',*,*,#176,.T.);
#90=ORIENTED_EDGE('',*,*,#177,.F.);
#91=ORIENTED_EDGE('',*,*,#176,.F.);
#92=ORIENTED_EDGE('',*,*,#178,.T.);
#93=ORIENTED_EDGE('',*,*,#179,.T.);
#94=ORIENTED_EDGE('',*,*,#180,.F.);
#95=ORIENTED_EDGE('',*,*,#179,.F.);
#96=ORIENTED_EDGE('',*,*,#181,.T.);
#97=ORIENTED_EDGE('',*,*,#182,.T.);
#98=ORIENTED_EDGE('',*,*,#183,.F.);
#99=ORIENTED_EDGE('',*,*,#182,.F.);
#100=ORIENTED_EDGE('',*,*,#184,.T.);
#101=ORIENTED_EDGE('',*,*,#185,.T.);
#102=ORIENTED_EDGE('',*,*,#186,.F.);
#103=ORIENTED_EDGE('',*,*,#185,.F.);
#104=ORIENTED_EDGE('',*,*,#187,.T.);
#105=ORIENTED_EDGE('',*,*,#188,.T.);
#106=ORIENTED_EDGE('',*,*,#189,.F.);
#107=ORIENTED_EDGE('',*,*,#188,.F.);
#108=ORIENTED_EDGE('',*,*,#190,.T.);
#109=ORIENTED_EDGE('',*,*,#191,.T.);
#110=ORIENTED_EDGE('',*,*,#192,.F.);
#111=ORIENTED_EDGE('',*,*,#191,.F.);
#112=ORIENTED_EDGE('',*,*,#193,.T.);
#113=ORIENTED_EDGE('',*,*,#147,.T.);
#114=ORIENTED_EDGE('',*,*,#148,.F.);
#115=ORIENTED_EDGE('',*,*,#193,.F.);
#116=ORIENTED_EDGE('',*,*,#190,.F.);
#117=ORIENTED_EDGE('',*,*,#187,.F.);
#118=ORIENTED_EDGE('',*,*,#184,.F.);
#119=ORIENTED_EDGE('',*,*,#181,.F.);
#120=ORIENTED_EDGE('',*,*,#178,.F.);
#121=ORIENTED_EDGE('',*,*,#175,.F.);
#122=ORIENTED_EDGE('',*,*,#172,.F.);
#123=ORIENTED_EDGE('',*,*,#169,.T.);
#124=ORIENTED_EDGE('',*,*,#166,.F.);
#125=ORIENTED_EDGE('',*,*,#163,.T.);
#126=ORIENTED_EDGE('',*,*,#160,.F.);
#127=ORIENTED_EDGE('',*,*,#157,.F.);
#128=ORIENTED_EDGE('',*,*,#154,.F.);
#129=ORIENTED_EDGE('',*,*,#151,.F.);
#130=ORIENTED_EDGE('',*,*,#146,.T.);
#131=ORIENTED_EDGE('',*,*,#150,.T.);
#132=ORIENTED_EDGE('',*,*,#153,.T.);
#133=ORIENTED_EDGE('',*,*,#156,.T.);
#134=ORIENTED_EDGE('',*,*,#159,.T.);
#135=ORIENTED_EDGE('',*,*,#162,.F.);
#136=ORIENTED_EDGE('',*,*,#165,.T.);
#137=ORIENTED_EDGE('',*,*,#168,.F.);
#138=ORIENTED_EDGE('',*,*,#171,.T.);
#139=ORIENTED_EDGE('',*,*,#174,.T.);
#140=ORIENTED_EDGE('',*,*,#177,.T.);
#141=ORIENTED_EDGE('',*,*,#180,.T.);
#142=ORIENTED_EDGE('',*,*,#183,.T.);
#143=ORIENTED_EDGE('',*,*,#186,.T.);
#144=ORIENTED_EDGE('',*,*,#189,.T.);
#145=ORIENTED_EDGE('',*,*,#192,.T.);
#146=EDGE_CURVE('',#194,#195,#226,.T.);
#147=EDGE_CURVE('',#196,#194,#227,.T.);
#148=EDGE_CURVE('',#196,#197,#228,.T.);
#149=EDGE_CURVE('',#197,#195,#229,.T.);
#150=EDGE_CURVE('',#195,#198,#20,.T.);
#151=EDGE_CURVE('',#197,#199,#21,.T.);
#152=EDGE_CURVE('',#199,#198,#230,.T.);
#153=EDGE_CURVE('',#198,#200,#231,.T.);
#154=EDGE_CURVE('',#199,#201,#232,.T.);
#155=EDGE_CURVE('',#201,#200,#233,.T.);
#156=EDGE_CURVE('',#200,#202,#22,.T.);
#157=EDGE_CURVE('',#201,#203,#23,.T.);
#158=EDGE_CURVE('',#203,#202,#234,.T.);
#159=EDGE_CURVE('',#202,#204,#24,.T.);
#160=EDGE_CURVE('',#203,#205,#25,.T.);
#161=EDGE_CURVE('',#205,#204,#235,.T.);
#162=EDGE_CURVE('',#206,#204,#26,.T.);
#163=EDGE_CURVE('',#207,#205,#27,.T.);
#164=EDGE_CURVE('',#207,#206,#236,.T.);
#165=EDGE_CURVE('',#206,#208,#237,.T.);
#166=EDGE_CURVE('',#207,#209,#238,.T.);
#167=EDGE_CURVE('',#209,#208,#239,.T.);
#168=EDGE_CURVE('',#210,#208,#28,.T.);
#169=EDGE_CURVE('',#211,#209,#29,.T.);
#170=EDGE_CURVE('',#211,#210,#240,.T.);
#171=EDGE_CURVE('',#210,#212,#30,.T.);
#172=EDGE_CURVE('',#211,#213,#31,.T.);
#173=EDGE_CURVE('',#213,#212,#241,.T.);
#174=EDGE_CURVE('',#212,#214,#32,.T.);
#175=EDGE_CURVE('',#213,#215,#33,.T.);
#176=EDGE_CURVE('',#215,#214,#242,.T.);
#177=EDGE_CURVE('',#214,#216,#243,.T.);
#178=EDGE_CURVE('',#215,#217,#244,.T.);
#179=EDGE_CURVE('',#217,#216,#245,.T.);
#180=EDGE_CURVE('',#216,#218,#34,.T.);
#181=EDGE_CURVE('',#217,#219,#35,.T.);
#182=EDGE_CURVE('',#219,#218,#246,.T.);
#183=EDGE_CURVE('',#218,#220,#247,.T.);
#184=EDGE_CURVE('',#219,#221,#248,.T.);
#185=EDGE_CURVE('',#221,#220,#249,.T.);
#186=EDGE_CURVE('',#220,#222,#36,.T.);
#187=EDGE_CURVE('',#221,#223,#37,.T.);
#188=EDGE_CURVE('',#223,#222,#250,.T.);
#189=EDGE_CURVE('',#222,#224,#251,.T.);
#190=EDGE_CURVE('',#223,#225,#252,.T.);
#191=EDGE_CURVE('',#225,#224,#253,.T.);
#192=EDGE_CURVE('',#224,#194,#38,.T.);
#193=EDGE_CURVE('',#225,#196,#39,.T.);
#194=VERTEX_POINT('',#504);
#195=VERTEX_POINT('',#505);
#196=VERTEX_POINT('',#507);
#197=VERTEX_POINT('',#509);
#198=VERTEX_POINT('',#513);
#199=VERTEX_POINT('',#515);
#200=VERTEX_POINT('',#519);
#201=VERTEX_POINT('',#521);
#202=VERTEX_POINT('',#525);
#203=VERTEX_POINT('',#527);
#204=VERTEX_POINT('',#531);
#205=VERTEX_POINT('',#533);
#206=VERTEX_POINT('',#537);
#207=VERTEX_POINT('',#539);
#208=VERTEX_POINT('',#543);
#209=VERTEX_POINT('',#545);
#210=VERTEX_POINT('',#549);
#211=VERTEX_POINT('',#551);
#212=VERTEX_POINT('',#555);
#213=VERTEX_POINT('',#557);
#214=VERTEX_POINT('',#561);
#215=VERTEX_POINT('',#563);
#216=VERTEX_POINT('',#567);
#217=VERTEX_POINT('',#569);
#218=VERTEX_POINT('',#573);
#219=VERTEX_POINT('',#575);
#220=VERTEX_POINT('',#579);
#221=VERTEX_POINT('',#581);
#222=VERTEX_POINT('',#585);
#223=VERTEX_POINT('',#587);
#224=VERTEX_POINT('',#591);
#225=VERTEX_POINT('',#593);
#226=LINE('',#503,#254);
#227=LINE('',#506,#255);
#228=LINE('',#508,#256);
#229=LINE('',#510,#257);
#230=LINE('',#516,#258);
#231=LINE('',#518,#259);
#232=LINE('',#520,#260);
#233=LINE('',#522,#261);
#234=LINE('',#528,#262);
#235=LINE('',#534,#263);
#236=LINE('',#540,#264);
#237=LINE('',#542,#265);
#238=LINE('',#544,#266);
#239=LINE('',#546,#267);
#240=LINE('',#552,#268);
#241=LINE('',#558,#269);
#242=LINE('',#564,#270);
#243=LINE('',#566,#271);
#244=LINE('',#568,#272);
#245=LINE('',#570,#273);
#246=LINE('',#576,#274);
#247=LINE('',#578,#275);
#248=LINE('',#580,#276);
#249=LINE('',#582,#277);
#250=LINE('',#588,#278);
#251=LINE('',#590,#279);
#252=LINE('',#592,#280);
#253=LINE('',#594,#281);
#254=VECTOR('',#399,1000.);
#255=VECTOR('',#400,1000.);
#256=VECTOR('',#401,1000.);
#257=VECTOR('',#402,1000.);
#258=VECTOR('',#409,1000.);
#259=VECTOR('',#412,1000.);
#260=VECTOR('',#413,1000.);
#261=VECTOR('',#414,1000.);
#262=VECTOR('',#421,1000.);
#263=VECTOR('',#428,1000.);
#264=VECTOR('',#435,1000.);
#265=VECTOR('',#438,1000.);
#266=VECTOR('',#439,1000.);
#267=VECTOR('',#440,1000.);
#268=VECTOR('',#447,1000.);
#269=VECTOR('',#454,1000.);
#270=VECTOR('',#461,1000.);
#271=VECTOR('',#464,1000.);
#272=VECTOR('',#465,1000.);
#273=VECTOR('',#466,1000.);
#274=VECTOR('',#473,1000.);
#275=VECTOR('',#476,1000.);
#276=VECTOR('',#477,1000.);
#277=VECTOR('',#478,1000.);
#278=VECTOR('',#485,1000.);
#279=VECTOR('',#488,1000.);
#280=VECTOR('',#489,1000.);
#281=VECTOR('',#490,1000.);
#282=EDGE_LOOP('',(#50,#51,#52,#53));
#283=EDGE_LOOP('',(#54,#55,#56,#57));
#284=EDGE_LOOP('',(#58,#59,#60,#61));
#285=EDGE_LOOP('',(#62,#63,#64,#65));
#286=EDGE_LOOP('',(#66,#67,#68,#69));
#287=EDGE_LOOP('',(#70,#71,#72,#73));
#288=EDGE_LOOP('',(#74,#75,#76,#77));
#289=EDGE_LOOP('',(#78,#79,#80,#81));
#290=EDGE_LOOP('',(#82,#83,#84,#85));
#291=EDGE_LOOP('',(#86,#87,#88,#89));
#292=EDGE_LOOP('',(#90,#91,#92,#93));
#293=EDGE_LOOP('',(#94,#95,#96,#97));
#294=EDGE_LOOP('',(#98,#99,#100,#101));
#295=EDGE_LOOP('',(#102,#103,#104,#105));
#296=EDGE_LOOP('',(#106,#107,#108,#109));
#297=EDGE_LOOP('',(#110,#111,#112,#113));
#298=EDGE_LOOP('',(#114,#115,#116,#117,#118,#119,#120,#121,#122,#123,#124,
#125,#126,#127,#128,#129));
#299=EDGE_LOOP('',(#130,#131,#132,#133,#134,#135,#136,#137,#138,#139,#140,
#141,#142,#143,#144,#145));
#300=FACE_BOUND('',#282,.T.);
#301=FACE_BOUND('',#283,.T.);
#302=FACE_BOUND('',#284,.T.);
#303=FACE_BOUND('',#285,.T.);
#304=FACE_BOUND('',#286,.T.);
#305=FACE_BOUND('',#287,.T.);
#306=FACE_BOUND('',#288,.T.);
#307=FACE_BOUND('',#289,.T.);
#308=FACE_BOUND('',#290,.T.);
#309=FACE_BOUND('',#291,.T.);
#310=FACE_BOUND('',#292,.T.);
#311=FACE_BOUND('',#293,.T.);
#312=FACE_BOUND('',#294,.T.);
#313=FACE_BOUND('',#295,.T.);
#314=FACE_BOUND('',#296,.T.);
#315=FACE_BOUND('',#297,.T.);
#316=FACE_BOUND('',#298,.T.);
#317=FACE_BOUND('',#299,.T.);
#318=PLANE('',#357);
#319=PLANE('',#361);
#320=PLANE('',#371);
#321=PLANE('',#381);
#322=PLANE('',#385);
#323=PLANE('',#389);
#324=PLANE('',#393);
#325=PLANE('',#394);
#326=ADVANCED_FACE('',(#300),#318,.T.);
#327=ADVANCED_FACE('',(#301),#40,.T.);
#328=ADVANCED_FACE('',(#302),#319,.T.);
#329=ADVANCED_FACE('',(#303),#41,.T.);
#330=ADVANCED_FACE('',(#304),#42,.T.);
#331=ADVANCED_FACE('',(#305),#43,.F.);
#332=ADVANCED_FACE('',(#306),#320,.T.);
#333=ADVANCED_FACE('',(#307),#44,.F.);
#334=ADVANCED_FACE('',(#308),#45,.T.);
#335=ADVANCED_FACE('',(#309),#46,.T.);
#336=ADVANCED_FACE('',(#310),#321,.T.);
#337=ADVANCED_FACE('',(#311),#47,.T.);
#338=ADVANCED_FACE('',(#312),#322,.T.);
#339=ADVANCED_FACE('',(#313),#48,.T.);
#340=ADVANCED_FACE('',(#314),#323,.T.);
#341=ADVANCED_FACE('',(#315),#49,.T.);
#342=ADVANCED_FACE('',(#316),#324,.F.);
#343=ADVANCED_FACE('',(#317),#325,.T.);
#344=CLOSED_SHELL('',(#326,#327,#328,#329,#330,#331,#332,#333,#334,#335,
#336,#337,#338,#339,#340,#341,#342,#343));
#345=STYLED_ITEM('',(#346),#353);
#346=PRESENTATION_STYLE_ASSIGNMENT((#347));
#347=SURFACE_STYLE_USAGE(.BOTH.,#348);
#348=SURFACE_SIDE_STYLE('',(#349));
#349=SURFACE_STYLE_FILL_AREA(#350);
#350=FILL_AREA_STYLE('',(#351));
#351=FILL_AREA_STYLE_COLOUR('',#352);
#352=COLOUR_RGB('',0.792156875133514,0.792156875133514,0.792156875133514);
#353=MANIFOLD_SOLID_BREP('092070',#344);
#354=SHAPE_DEFINITION_REPRESENTATION(#606,#355);
#355=SHAPE_REPRESENTATION('092070',(#356),#601);
#356=AXIS2_PLACEMENT_3D('',#501,#395,#396);
#357=AXIS2_PLACEMENT_3D('',#502,#397,#398);
#358=AXIS2_PLACEMENT_3D('',#511,#403,#404);
#359=AXIS2_PLACEMENT_3D('',#512,#405,#406);
#360=AXIS2_PLACEMENT_3D('',#514,#407,#408);
#361=AXIS2_PLACEMENT_3D('',#517,#410,#411);
#362=AXIS2_PLACEMENT_3D('',#523,#415,#416);
#363=AXIS2_PLACEMENT_3D('',#524,#417,#418);
#364=AXIS2_PLACEMENT_3D('',#526,#419,#420);
#365=AXIS2_PLACEMENT_3D('',#529,#422,#423);
#366=AXIS2_PLACEMENT_3D('',#530,#424,#425);
#367=AXIS2_PLACEMENT_3D('',#532,#426,#427);
#368=AXIS2_PLACEMENT_3D('',#535,#429,#430);
#369=AXIS2_PLACEMENT_3D('',#536,#431,#432);
#370=AXIS2_PLACEMENT_3D('',#538,#433,#434);
#371=AXIS2_PLACEMENT_3D('',#541,#436,#437);
#372=AXIS2_PLACEMENT_3D('',#547,#441,#442);
#373=AXIS2_PLACEMENT_3D('',#548,#443,#444);
#374=AXIS2_PLACEMENT_3D('',#550,#445,#446);
#375=AXIS2_PLACEMENT_3D('',#553,#448,#449);
#376=AXIS2_PLACEMENT_3D('',#554,#450,#451);
#377=AXIS2_PLACEMENT_3D('',#556,#452,#453);
#378=AXIS2_PLACEMENT_3D('',#559,#455,#456);
#379=AXIS2_PLACEMENT_3D('',#560,#457,#458);
#380=AXIS2_PLACEMENT_3D('',#562,#459,#460);
#381=AXIS2_PLACEMENT_3D('',#565,#462,#463);
#382=AXIS2_PLACEMENT_3D('',#571,#467,#468);
#383=AXIS2_PLACEMENT_3D('',#572,#469,#470);
#384=AXIS2_PLACEMENT_3D('',#574,#471,#472);
#385=AXIS2_PLACEMENT_3D('',#577,#474,#475);
#386=AXIS2_PLACEMENT_3D('',#583,#479,#480);
#387=AXIS2_PLACEMENT_3D('',#584,#481,#482);
#388=AXIS2_PLACEMENT_3D('',#586,#483,#484);
#389=AXIS2_PLACEMENT_3D('',#589,#486,#487);
#390=AXIS2_PLACEMENT_3D('',#595,#491,#492);
#391=AXIS2_PLACEMENT_3D('',#596,#493,#494);
#392=AXIS2_PLACEMENT_3D('',#597,#495,#496);
#393=AXIS2_PLACEMENT_3D('',#598,#497,#498);
#394=AXIS2_PLACEMENT_3D('',#599,#499,#500);
#395=DIRECTION('',(0.,0.,1.));
#396=DIRECTION('',(1.,0.,0.));
#397=DIRECTION('',(-1.,0.,0.));
#398=DIRECTION('',(0.,0.,1.));
#399=DIRECTION('',(0.,-1.,0.));
#400=DIRECTION('',(0.,0.,1.));
#401=DIRECTION('',(0.,-1.,0.));
#402=DIRECTION('',(0.,0.,1.));
#403=DIRECTION('',(0.,0.,1.));
#404=DIRECTION('',(1.,0.,0.));
#405=DIRECTION('',(0.,0.,1.));
#406=DIRECTION('',(1.,0.,0.));
#407=DIRECTION('',(0.,0.,1.));
#408=DIRECTION('',(1.,0.,0.));
#409=DIRECTION('',(0.,0.,1.));
#410=DIRECTION('',(-1.61696734010722E-15,-1.,0.));
#411=DIRECTION('',(1.,-1.61696734010722E-15,0.));
#412=DIRECTION('',(1.,-1.61696734010722E-15,0.));
#413=DIRECTION('',(1.,-1.61696734010722E-15,0.));
#414=DIRECTION('',(0.,0.,1.));
#415=DIRECTION('',(0.,0.,1.));
#416=DIRECTION('',(1.,0.,0.));
#417=DIRECTION('',(0.,0.,1.));
#418=DIRECTION('',(1.,0.,0.));
#419=DIRECTION('',(0.,0.,1.));
#420=DIRECTION('',(1.,0.,0.));
#421=DIRECTION('',(0.,0.,1.));
#422=DIRECTION('',(0.,0.,1.));
#423=DIRECTION('',(1.,0.,0.));
#424=DIRECTION('',(0.,0.,1.));
#425=DIRECTION('',(1.,0.,0.));
#426=DIRECTION('',(0.,0.,1.));
#427=DIRECTION('',(1.,0.,0.));
#428=DIRECTION('',(0.,0.,1.));
#429=DIRECTION('',(0.,0.,1.));
#430=DIRECTION('',(1.,0.,0.));
#431=DIRECTION('',(0.,0.,1.));
#432=DIRECTION('',(1.,0.,0.));
#433=DIRECTION('',(0.,0.,1.));
#434=DIRECTION('',(1.,0.,0.));
#435=DIRECTION('',(0.,0.,1.));
#436=DIRECTION('',(-1.55824634900633E-16,-1.,0.));
#437=DIRECTION('',(1.,-1.55824634900633E-16,0.));
#438=DIRECTION('',(1.,-1.55824634900633E-16,0.));
#439=DIRECTION('',(1.,-1.55824634900633E-16,0.));
#440=DIRECTION('',(0.,0.,1.));
#441=DIRECTION('',(0.,0.,1.));
#442=DIRECTION('',(1.,0.,0.));
#443=DIRECTION('',(0.,0.,1.));
#444=DIRECTION('',(1.,0.,0.));
#445=DIRECTION('',(0.,0.,1.));
#446=DIRECTION('',(1.,0.,0.));
#447=DIRECTION('',(0.,0.,1.));
#448=DIRECTION('',(0.,0.,1.));
#449=DIRECTION('',(1.,0.,0.));
#450=DIRECTION('',(0.,0.,1.));
#451=DIRECTION('',(1.,0.,0.));
#452=DIRECTION('',(0.,0.,1.));
#453=DIRECTION('',(1.,0.,0.));
#454=DIRECTION('',(0.,0.,1.));
#455=DIRECTION('',(0.,0.,1.));
#456=DIRECTION('',(1.,0.,0.));
#457=DIRECTION('',(0.,0.,1.));
#458=DIRECTION('',(1.,0.,0.));
#459=DIRECTION('',(0.,0.,1.));
#460=DIRECTION('',(1.,0.,0.));
#461=DIRECTION('',(0.,0.,1.));
#462=DIRECTION('',(-1.94036080812868E-15,-1.,0.));
#463=DIRECTION('',(1.,-1.94036080812868E-15,0.));
#464=DIRECTION('',(1.,-1.94036080812868E-15,0.));
#465=DIRECTION('',(1.,-1.94036080812868E-15,0.));
#466=DIRECTION('',(0.,0.,1.));
#467=DIRECTION('',(0.,0.,1.));
#468=DIRECTION('',(1.,0.,0.));
#469=DIRECTION('',(0.,0.,1.));
#470=DIRECTION('',(1.,0.,0.));
#471=DIRECTION('',(0.,0.,1.));
#472=DIRECTION('',(1.,0.,0.));
#473=DIRECTION('',(0.,0.,1.));
#474=DIRECTION('',(1.,0.,0.));
#475=DIRECTION('',(0.,0.,-1.));
#476=DIRECTION('',(0.,1.,0.));
#477=DIRECTION('',(0.,1.,0.));
#478=DIRECTION('',(0.,0.,1.));
#479=DIRECTION('',(0.,0.,1.));
#480=DIRECTION('',(1.,0.,0.));
#481=DIRECTION('',(0.,0.,1.));
#482=DIRECTION('',(1.,0.,0.));
#483=DIRECTION('',(0.,0.,1.));
#484=DIRECTION('',(1.,0.,0.));
#485=DIRECTION('',(0.,0.,1.));
#486=DIRECTION('',(-4.77446828250497E-16,1.,0.));
#487=DIRECTION('',(-1.,-4.77446828250497E-16,0.));
#488=DIRECTION('',(-1.,-4.77446828250497E-16,0.));
#489=DIRECTION('',(-1.,-4.77446828250497E-16,0.));
#490=DIRECTION('',(0.,0.,1.));
#491=DIRECTION('',(0.,0.,1.));
#492=DIRECTION('',(1.,0.,0.));
#493=DIRECTION('',(0.,0.,1.));
#494=DIRECTION('',(1.,0.,0.));
#495=DIRECTION('',(0.,0.,1.));
#496=DIRECTION('',(1.,0.,0.));
#497=DIRECTION('',(0.,0.,1.));
#498=DIRECTION('',(1.,0.,0.));
#499=DIRECTION('',(0.,0.,1.));
#500=DIRECTION('',(1.,0.,0.));
#501=CARTESIAN_POINT('',(0.,0.,0.));
#502=CARTESIAN_POINT('',(-5.65,3.1,-100.));
#503=CARTESIAN_POINT('',(-5.65,3.1,0.));
#504=CARTESIAN_POINT('',(-5.65,3.1,0.));
#505=CARTESIAN_POINT('',(-5.65,2.15,0.));
#506=CARTESIAN_POINT('',(-5.65,3.1,-100.));
#507=CARTESIAN_POINT('',(-5.65,3.1,-100.));
#508=CARTESIAN_POINT('',(-5.65,3.1,-100.));
#509=CARTESIAN_POINT('',(-5.65,2.15,-100.));
#510=CARTESIAN_POINT('',(-5.65,2.15,-100.));
#511=CARTESIAN_POINT('',(-5.45,2.15000000000001,-100.));
#512=CARTESIAN_POINT('',(-5.45,2.15000000000001,0.));
#513=CARTESIAN_POINT('',(-5.45,1.95000000000001,0.));
#514=CARTESIAN_POINT('',(-5.45,2.15000000000001,-100.));
#515=CARTESIAN_POINT('',(-5.45,1.95000000000001,-100.));
#516=CARTESIAN_POINT('',(-5.45,1.95000000000001,-100.));
#517=CARTESIAN_POINT('',(-5.45,1.95000000000001,-100.));
#518=CARTESIAN_POINT('',(-5.45,1.95000000000001,0.));
#519=CARTESIAN_POINT('',(-4.77948418586265,1.95,0.));
#520=CARTESIAN_POINT('',(-5.45,1.95000000000001,-100.));
#521=CARTESIAN_POINT('',(-4.77948418586265,1.95,-100.));
#522=CARTESIAN_POINT('',(-4.77948418586265,1.95,-100.));
#523=CARTESIAN_POINT('',(1.85030326316036,-0.858187739588842,-100.));
#524=CARTESIAN_POINT('',(1.85030326316036,-0.858187739588842,0.));
#525=CARTESIAN_POINT('',(-4.98850320899468,-3.11001500570196,0.));
#526=CARTESIAN_POINT('',(1.85030326316036,-0.858187739588842,-100.));
#527=CARTESIAN_POINT('',(-4.98850320899468,-3.11001500570196,-100.));
#528=CARTESIAN_POINT('',(-4.98850320899468,-3.11001500570196,-100.));
#529=CARTESIAN_POINT('',(-4.72602045231954,-3.02356962528864,-100.));
#530=CARTESIAN_POINT('',(-4.72602045231954,-3.02356962528864,0.));
#531=CARTESIAN_POINT('',(-4.46328269793587,-2.93790239836956,0.));
#532=CARTESIAN_POINT('',(-4.72602045231954,-3.02356962528864,-100.));
#533=CARTESIAN_POINT('',(-4.46328269793587,-2.93790239836956,-100.));
#534=CARTESIAN_POINT('',(-4.46328269793587,-2.93790239836956,-100.));
#535=CARTESIAN_POINT('',(1.85030400000002,-0.858186000000006,-100.));
#536=CARTESIAN_POINT('',(1.85030400000002,-0.858186000000006,0.));
#537=CARTESIAN_POINT('',(-4.17470128459552,1.95,0.));
#538=CARTESIAN_POINT('',(1.85030400000002,-0.858186000000006,-100.));
#539=CARTESIAN_POINT('',(-4.17470128459552,1.95,-100.));
#540=CARTESIAN_POINT('',(-4.17470128459552,1.95,-100.));
#541=CARTESIAN_POINT('',(-4.17470128459552,1.95,-100.));
#542=CARTESIAN_POINT('',(-4.17470128459552,1.95,0.));
#543=CARTESIAN_POINT('',(4.17470128459552,1.95,0.));
#544=CARTESIAN_POINT('',(-4.17470128459552,1.95,-100.));
#545=CARTESIAN_POINT('',(4.17470128459552,1.95,-100.));
#546=CARTESIAN_POINT('',(4.17470128459552,1.95,-100.));
#547=CARTESIAN_POINT('',(-1.850304,-0.858185999999999,-100.));
#548=CARTESIAN_POINT('',(-1.850304,-0.858185999999999,0.));
#549=CARTESIAN_POINT('',(4.46328269793952,-2.93790239835848,0.));
#550=CARTESIAN_POINT('',(-1.850304,-0.858185999999999,-100.));
#551=CARTESIAN_POINT('',(4.46328269793952,-2.93790239835848,-100.));
#552=CARTESIAN_POINT('',(4.46328269793952,-2.93790239835848,-100.));
#553=CARTESIAN_POINT('',(4.72602045231955,-3.02356962528866,-100.));
#554=CARTESIAN_POINT('',(4.72602045231955,-3.02356962528866,0.));
#555=CARTESIAN_POINT('',(4.98850320899467,-3.11001500570196,0.));
#556=CARTESIAN_POINT('',(4.72602045231955,-3.02356962528866,-100.));
#557=CARTESIAN_POINT('',(4.98850320899467,-3.11001500570196,-100.));
#558=CARTESIAN_POINT('',(4.98850320899467,-3.11001500570196,-100.));
#559=CARTESIAN_POINT('',(-1.85030326316034,-0.858187739588831,-100.));
#560=CARTESIAN_POINT('',(-1.85030326316034,-0.858187739588831,0.));
#561=CARTESIAN_POINT('',(4.77948418586265,1.95,0.));
#562=CARTESIAN_POINT('',(-1.85030326316034,-0.858187739588831,-100.));
#563=CARTESIAN_POINT('',(4.77948418586265,1.95,-100.));
#564=CARTESIAN_POINT('',(4.77948418586265,1.95,-100.));
#565=CARTESIAN_POINT('',(4.77948418586265,1.95,-100.));
#566=CARTESIAN_POINT('',(4.77948418586265,1.95,0.));
#567=CARTESIAN_POINT('',(5.45,1.95,0.));
#568=CARTESIAN_POINT('',(4.77948418586265,1.95,-100.));
#569=CARTESIAN_POINT('',(5.45,1.95,-100.));
#570=CARTESIAN_POINT('',(5.45,1.95,-100.));
#571=CARTESIAN_POINT('',(5.45,2.15,-100.));
#572=CARTESIAN_POINT('',(5.45,2.15,0.));
#573=CARTESIAN_POINT('',(5.65,2.15,0.));
#574=CARTESIAN_POINT('',(5.45,2.15,-100.));
#575=CARTESIAN_POINT('',(5.65,2.15,-100.));
#576=CARTESIAN_POINT('',(5.65,2.15,-100.));
#577=CARTESIAN_POINT('',(5.65,2.15,-100.));
#578=CARTESIAN_POINT('',(5.65,2.15,0.));
#579=CARTESIAN_POINT('',(5.65,3.1,0.));
#580=CARTESIAN_POINT('',(5.65,2.15,-100.));
#581=CARTESIAN_POINT('',(5.65,3.1,-100.));
#582=CARTESIAN_POINT('',(5.65,3.1,-100.));
#583=CARTESIAN_POINT('',(5.45,3.1,-100.));
#584=CARTESIAN_POINT('',(5.45,3.1,0.));
#585=CARTESIAN_POINT('',(5.45,3.3,0.));
#586=CARTESIAN_POINT('',(5.45,3.1,-100.));
#587=CARTESIAN_POINT('',(5.45,3.3,-100.));
#588=CARTESIAN_POINT('',(5.45,3.3,-100.));
#589=CARTESIAN_POINT('',(5.45,3.3,-100.));
#590=CARTESIAN_POINT('',(5.45,3.3,0.));
#591=CARTESIAN_POINT('',(-5.45,3.29999999999999,0.));
#592=CARTESIAN_POINT('',(5.45,3.3,-100.));
#593=CARTESIAN_POINT('',(-5.45,3.29999999999999,-100.));
#594=CARTESIAN_POINT('',(-5.45,3.29999999999999,-100.));
#595=CARTESIAN_POINT('',(-5.45,3.09999999999999,-100.));
#596=CARTESIAN_POINT('',(-5.45,3.09999999999999,0.));
#597=CARTESIAN_POINT('',(-5.45,3.09999999999999,-100.));
#598=CARTESIAN_POINT('',(-5.45,2.15000000000001,-100.));
#599=CARTESIAN_POINT('',(-5.45,2.15000000000001,0.));
#600=MECHANICAL_DESIGN_GEOMETRIC_PRESENTATION_REPRESENTATION('',(#345),
#601);
#601=(
GEOMETRIC_REPRESENTATION_CONTEXT(3)
GLOBAL_UNCERTAINTY_ASSIGNED_CONTEXT((#602))
GLOBAL_UNIT_ASSIGNED_CONTEXT((#605,#604,#603))
REPRESENTATION_CONTEXT('092070','TOP_LEVEL_ASSEMBLY_PART')
);
#602=UNCERTAINTY_MEASURE_WITH_UNIT(LENGTH_MEASURE(0.005),#605,
'DISTANCE_ACCURACY_VALUE','Maximum Tolerance applied to model');
#603=(
NAMED_UNIT(*)
SI_UNIT($,.STERADIAN.)
SOLID_ANGLE_UNIT()
);
#604=(
NAMED_UNIT(*)
PLANE_ANGLE_UNIT()
SI_UNIT($,.RADIAN.)
);
#605=(
LENGTH_UNIT()
NAMED_UNIT(*)
SI_UNIT(.MILLI.,.METRE.)
);
#606=PRODUCT_DEFINITION_SHAPE('','',#607);
#607=PRODUCT_DEFINITION('','',#609,#608);
#608=PRODUCT_DEFINITION_CONTEXT('',#615,'design');
#609=PRODUCT_DEFINITION_FORMATION_WITH_SPECIFIED_SOURCE('','',#611,
 .NOT_KNOWN.);
#610=PRODUCT_RELATED_PRODUCT_CATEGORY('','',(#611));
#611=PRODUCT('092070','092070','092070',(#613));
#612=PRODUCT_CATEGORY('','');
#613=PRODUCT_CONTEXT('',#615,'mechanical');
#614=APPLICATION_PROTOCOL_DEFINITION('international standard',
'automotive_design',2010,#615);
#615=APPLICATION_CONTEXT(
'core data for automotive mechanical design processes');
ENDSEC;
END-ISO-10303-21;
