ISO-10303-21;
HEADER;
/* Generated by software containing ST-Developer
 * from STEP Tools, Inc. (www.steptools.com) 
 */
/* OPTION: using custom renumber hook */

FILE_DESCRIPTION(
/* description */ ('STEP AP214'),
/* implementation_level */ '2;1');

FILE_NAME(
/* name */ '4DIN6923M06M',
/* time_stamp */ '2022-09-01T16:31:30+02:00',
/* author */ ('License CC BY-ND 4.0'),
/* organization */ ('CADENAS'),
/* preprocessor_version */ 'ST-DEVELOPER v18.102',
/* originating_system */ 'PARTsolutions',
/* authorisation */ '  ');

FILE_SCHEMA (('AUTOMOTIVE_DESIGN {1 0 10303 214 3 1 1}'));
ENDSEC;

DATA;
#10=PROPERTY_DEFINITION_REPRESENTATION(#14,#12);
#11=PROPERTY_DEFINITION_REPRESENTATION(#15,#13);
#12=REPRESENTATION('',(#16),#587);
#13=REPRESENTATION('',(#17),#587);
#14=PROPERTY_DEFINITION('pmi validation property','',#592);
#15=PROPERTY_DEFINITION('pmi validation property','',#592);
#16=VALUE_REPRESENTATION_ITEM('number of annotations',COUNT_MEASURE(0.));
#17=VALUE_REPRESENTATION_ITEM('number of views',COUNT_MEASURE(0.));
#18=SHAPE_REPRESENTATION_RELATIONSHIP('','',#331,#19);
#19=ADVANCED_BREP_SHAPE_REPRESENTATION('',(#329),#587);
#20=TOROIDAL_SURFACE('',#368,6.433,0.567);
#21=TOROIDAL_SURFACE('',#369,6.433,0.567);
#22=CYLINDRICAL_SURFACE('',#361,7.);
#23=CYLINDRICAL_SURFACE('',#367,2.4585);
#24=SPHERICAL_SURFACE('',#359,41.4441882066026);
#25=CONICAL_SURFACE('',#353,5.001,0.911365193087328);
#26=CONICAL_SURFACE('',#354,5.001,0.911365193087328);
#27=CONICAL_SURFACE('',#355,5.001,0.911365193087328);
#28=CONICAL_SURFACE('',#356,5.001,0.911365193087328);
#29=CONICAL_SURFACE('',#357,5.001,0.911365193087328);
#30=CONICAL_SURFACE('',#358,5.001,0.911365193087328);
#31=B_SPLINE_CURVE_WITH_KNOTS('',3,(#465,#466,#467,#468),.UNSPECIFIED.,
 .F.,.F.,(4,4),(8.57906254409146E-7,0.00285216188245504),.UNSPECIFIED.);
#32=B_SPLINE_CURVE_WITH_KNOTS('',3,(#472,#473,#474,#475),.UNSPECIFIED.,
 .F.,.F.,(4,4),(0.00305062626281643,0.00590777195194887),.UNSPECIFIED.);
#33=B_SPLINE_CURVE_WITH_KNOTS('',3,(#483,#484,#485,#486),.UNSPECIFIED.,
 .F.,.F.,(4,4),(7.42966504827956E-7,0.00285204645905376),.UNSPECIFIED.);
#34=B_SPLINE_CURVE_WITH_KNOTS('',3,(#490,#491,#492,#493),.UNSPECIFIED.,
 .F.,.F.,(4,4),(0.00305051041888878,0.00590765440502214),.UNSPECIFIED.);
#35=B_SPLINE_CURVE_WITH_KNOTS('',3,(#497,#498,#499,#500),.UNSPECIFIED.,
 .F.,.F.,(4,4),(8.57906254408146E-7,0.00285216188245508),.UNSPECIFIED.);
#36=B_SPLINE_CURVE_WITH_KNOTS('',3,(#504,#505,#506,#507),.UNSPECIFIED.,
 .F.,.F.,(4,4),(0.00305062626281643,0.00590777195194887),.UNSPECIFIED.);
#37=B_SPLINE_CURVE_WITH_KNOTS('',3,(#513,#514,#515,#516),.UNSPECIFIED.,
 .F.,.F.,(4,4),(8.57906254409146E-7,0.00285216188245504),.UNSPECIFIED.);
#38=B_SPLINE_CURVE_WITH_KNOTS('',3,(#520,#521,#522,#523),.UNSPECIFIED.,
 .F.,.F.,(4,4),(0.00305062626281643,0.00590777195194887),.UNSPECIFIED.);
#39=B_SPLINE_CURVE_WITH_KNOTS('',3,(#529,#530,#531,#532),.UNSPECIFIED.,
 .F.,.F.,(4,4),(7.42966504827956E-7,0.00285204645905375),.UNSPECIFIED.);
#40=B_SPLINE_CURVE_WITH_KNOTS('',3,(#536,#537,#538,#539),.UNSPECIFIED.,
 .F.,.F.,(4,4),(0.00305051041888877,0.00590765440502214),.UNSPECIFIED.);
#41=B_SPLINE_CURVE_WITH_KNOTS('',3,(#544,#545,#546,#547),.UNSPECIFIED.,
 .F.,.F.,(4,4),(8.57906254408146E-7,0.00285216188245508),.UNSPECIFIED.);
#42=B_SPLINE_CURVE_WITH_KNOTS('',3,(#551,#552,#553,#554),.UNSPECIFIED.,
 .F.,.F.,(4,4),(0.00305062626281643,0.00590777195194887),.UNSPECIFIED.);
#43=LINE('',#463,#55);
#44=LINE('',#470,#56);
#45=LINE('',#477,#57);
#46=LINE('',#479,#58);
#47=LINE('',#488,#59);
#48=LINE('',#502,#60);
#49=LINE('',#509,#61);
#50=LINE('',#518,#62);
#51=LINE('',#525,#63);
#52=LINE('',#534,#64);
#53=LINE('',#541,#65);
#54=LINE('',#549,#66);
#55=VECTOR('',#376,1000.);
#56=VECTOR('',#377,1000.);
#57=VECTOR('',#378,1000.);
#58=VECTOR('',#381,1000.);
#59=VECTOR('',#384,1000.);
#60=VECTOR('',#389,1000.);
#61=VECTOR('',#390,1000.);
#62=VECTOR('',#395,1000.);
#63=VECTOR('',#396,1000.);
#64=VECTOR('',#401,1000.);
#65=VECTOR('',#402,1000.);
#66=VECTOR('',#407,1000.);
#67=ORIENTED_EDGE('',*,*,#151,.F.);
#68=ORIENTED_EDGE('',*,*,#152,.T.);
#69=ORIENTED_EDGE('',*,*,#153,.T.);
#70=ORIENTED_EDGE('',*,*,#154,.F.);
#71=ORIENTED_EDGE('',*,*,#155,.T.);
#72=ORIENTED_EDGE('',*,*,#156,.F.);
#73=ORIENTED_EDGE('',*,*,#157,.F.);
#74=ORIENTED_EDGE('',*,*,#158,.F.);
#75=ORIENTED_EDGE('',*,*,#156,.T.);
#76=ORIENTED_EDGE('',*,*,#159,.T.);
#77=ORIENTED_EDGE('',*,*,#160,.F.);
#78=ORIENTED_EDGE('',*,*,#161,.T.);
#79=ORIENTED_EDGE('',*,*,#162,.F.);
#80=ORIENTED_EDGE('',*,*,#157,.T.);
#81=ORIENTED_EDGE('',*,*,#163,.T.);
#82=ORIENTED_EDGE('',*,*,#164,.F.);
#83=ORIENTED_EDGE('',*,*,#165,.T.);
#84=ORIENTED_EDGE('',*,*,#166,.F.);
#85=ORIENTED_EDGE('',*,*,#167,.F.);
#86=ORIENTED_EDGE('',*,*,#166,.T.);
#87=ORIENTED_EDGE('',*,*,#168,.T.);
#88=ORIENTED_EDGE('',*,*,#169,.F.);
#89=ORIENTED_EDGE('',*,*,#170,.T.);
#90=ORIENTED_EDGE('',*,*,#171,.F.);
#91=ORIENTED_EDGE('',*,*,#172,.F.);
#92=ORIENTED_EDGE('',*,*,#171,.T.);
#93=ORIENTED_EDGE('',*,*,#173,.T.);
#94=ORIENTED_EDGE('',*,*,#174,.F.);
#95=ORIENTED_EDGE('',*,*,#175,.T.);
#96=ORIENTED_EDGE('',*,*,#176,.F.);
#97=ORIENTED_EDGE('',*,*,#177,.F.);
#98=ORIENTED_EDGE('',*,*,#176,.T.);
#99=ORIENTED_EDGE('',*,*,#178,.T.);
#100=ORIENTED_EDGE('',*,*,#179,.F.);
#101=ORIENTED_EDGE('',*,*,#180,.T.);
#102=ORIENTED_EDGE('',*,*,#152,.F.);
#103=ORIENTED_EDGE('',*,*,#160,.T.);
#104=ORIENTED_EDGE('',*,*,#181,.F.);
#105=ORIENTED_EDGE('',*,*,#154,.T.);
#106=ORIENTED_EDGE('',*,*,#182,.F.);
#107=ORIENTED_EDGE('',*,*,#179,.T.);
#108=ORIENTED_EDGE('',*,*,#183,.F.);
#109=ORIENTED_EDGE('',*,*,#174,.T.);
#110=ORIENTED_EDGE('',*,*,#184,.F.);
#111=ORIENTED_EDGE('',*,*,#169,.T.);
#112=ORIENTED_EDGE('',*,*,#185,.F.);
#113=ORIENTED_EDGE('',*,*,#164,.T.);
#114=ORIENTED_EDGE('',*,*,#186,.F.);
#115=ORIENTED_EDGE('',*,*,#187,.T.);
#116=ORIENTED_EDGE('',*,*,#155,.F.);
#117=ORIENTED_EDGE('',*,*,#181,.T.);
#118=ORIENTED_EDGE('',*,*,#159,.F.);
#119=ORIENTED_EDGE('',*,*,#161,.F.);
#120=ORIENTED_EDGE('',*,*,#186,.T.);
#121=ORIENTED_EDGE('',*,*,#163,.F.);
#122=ORIENTED_EDGE('',*,*,#165,.F.);
#123=ORIENTED_EDGE('',*,*,#185,.T.);
#124=ORIENTED_EDGE('',*,*,#168,.F.);
#125=ORIENTED_EDGE('',*,*,#170,.F.);
#126=ORIENTED_EDGE('',*,*,#184,.T.);
#127=ORIENTED_EDGE('',*,*,#173,.F.);
#128=ORIENTED_EDGE('',*,*,#175,.F.);
#129=ORIENTED_EDGE('',*,*,#183,.T.);
#130=ORIENTED_EDGE('',*,*,#178,.F.);
#131=ORIENTED_EDGE('',*,*,#153,.F.);
#132=ORIENTED_EDGE('',*,*,#180,.F.);
#133=ORIENTED_EDGE('',*,*,#182,.T.);
#134=ORIENTED_EDGE('',*,*,#188,.T.);
#135=ORIENTED_EDGE('',*,*,#158,.T.);
#136=ORIENTED_EDGE('',*,*,#162,.T.);
#137=ORIENTED_EDGE('',*,*,#167,.T.);
#138=ORIENTED_EDGE('',*,*,#172,.T.);
#139=ORIENTED_EDGE('',*,*,#177,.T.);
#140=ORIENTED_EDGE('',*,*,#151,.T.);
#141=ORIENTED_EDGE('',*,*,#189,.T.);
#142=ORIENTED_EDGE('',*,*,#190,.T.);
#143=ORIENTED_EDGE('',*,*,#191,.T.);
#144=ORIENTED_EDGE('',*,*,#192,.F.);
#145=ORIENTED_EDGE('',*,*,#192,.T.);
#146=ORIENTED_EDGE('',*,*,#187,.F.);
#147=ORIENTED_EDGE('',*,*,#188,.F.);
#148=ORIENTED_EDGE('',*,*,#189,.F.);
#149=ORIENTED_EDGE('',*,*,#190,.F.);
#150=ORIENTED_EDGE('',*,*,#191,.F.);
#151=EDGE_CURVE('',#193,#194,#223,.T.);
#152=EDGE_CURVE('',#193,#195,#43,.T.);
#153=EDGE_CURVE('',#195,#196,#31,.T.);
#154=EDGE_CURVE('',#197,#196,#44,.F.);
#155=EDGE_CURVE('',#197,#198,#32,.T.);
#156=EDGE_CURVE('',#194,#198,#45,.T.);
#157=EDGE_CURVE('',#199,#200,#46,.T.);
#158=EDGE_CURVE('',#194,#199,#224,.T.);
#159=EDGE_CURVE('',#198,#201,#33,.T.);
#160=EDGE_CURVE('',#202,#201,#47,.T.);
#161=EDGE_CURVE('',#202,#200,#34,.T.);
#162=EDGE_CURVE('',#199,#203,#225,.T.);
#163=EDGE_CURVE('',#200,#204,#35,.T.);
#164=EDGE_CURVE('',#205,#204,#48,.F.);
#165=EDGE_CURVE('',#205,#206,#36,.T.);
#166=EDGE_CURVE('',#203,#206,#49,.T.);
#167=EDGE_CURVE('',#203,#207,#226,.T.);
#168=EDGE_CURVE('',#206,#208,#37,.T.);
#169=EDGE_CURVE('',#209,#208,#50,.F.);
#170=EDGE_CURVE('',#209,#210,#38,.T.);
#171=EDGE_CURVE('',#207,#210,#51,.T.);
#172=EDGE_CURVE('',#207,#211,#227,.T.);
#173=EDGE_CURVE('',#210,#212,#39,.T.);
#174=EDGE_CURVE('',#213,#212,#52,.F.);
#175=EDGE_CURVE('',#213,#214,#40,.T.);
#176=EDGE_CURVE('',#211,#214,#53,.T.);
#177=EDGE_CURVE('',#211,#193,#228,.T.);
#178=EDGE_CURVE('',#214,#215,#41,.T.);
#179=EDGE_CURVE('',#216,#215,#54,.F.);
#180=EDGE_CURVE('',#216,#195,#42,.T.);
#181=EDGE_CURVE('',#197,#201,#229,.T.);
#182=EDGE_CURVE('',#216,#196,#230,.T.);
#183=EDGE_CURVE('',#213,#215,#231,.T.);
#184=EDGE_CURVE('',#209,#212,#232,.T.);
#185=EDGE_CURVE('',#205,#208,#233,.T.);
#186=EDGE_CURVE('',#202,#204,#234,.T.);
#187=EDGE_CURVE('',#217,#217,#235,.T.);
#188=EDGE_CURVE('',#218,#218,#236,.F.);
#189=EDGE_CURVE('',#219,#219,#237,.T.);
#190=EDGE_CURVE('',#220,#220,#238,.T.);
#191=EDGE_CURVE('',#221,#221,#239,.F.);
#192=EDGE_CURVE('',#222,#222,#240,.T.);
#193=VERTEX_POINT('',#461);
#194=VERTEX_POINT('',#462);
#195=VERTEX_POINT('',#464);
#196=VERTEX_POINT('',#469);
#197=VERTEX_POINT('',#471);
#198=VERTEX_POINT('',#476);
#199=VERTEX_POINT('',#480);
#200=VERTEX_POINT('',#481);
#201=VERTEX_POINT('',#487);
#202=VERTEX_POINT('',#489);
#203=VERTEX_POINT('',#496);
#204=VERTEX_POINT('',#501);
#205=VERTEX_POINT('',#503);
#206=VERTEX_POINT('',#508);
#207=VERTEX_POINT('',#512);
#208=VERTEX_POINT('',#517);
#209=VERTEX_POINT('',#519);
#210=VERTEX_POINT('',#524);
#211=VERTEX_POINT('',#528);
#212=VERTEX_POINT('',#533);
#213=VERTEX_POINT('',#535);
#214=VERTEX_POINT('',#540);
#215=VERTEX_POINT('',#548);
#216=VERTEX_POINT('',#550);
#217=VERTEX_POINT('',#563);
#218=VERTEX_POINT('',#572);
#219=VERTEX_POINT('',#575);
#220=VERTEX_POINT('',#577);
#221=VERTEX_POINT('',#580);
#222=VERTEX_POINT('',#582);
#223=CIRCLE('',#334,41.1414722160535);
#224=CIRCLE('',#336,41.1414722160535);
#225=CIRCLE('',#338,41.1414722160535);
#226=CIRCLE('',#340,41.1414722160535);
#227=CIRCLE('',#342,41.1414722160535);
#228=CIRCLE('',#344,41.1414722160535);
#229=CIRCLE('',#346,5.001);
#230=CIRCLE('',#347,5.001);
#231=CIRCLE('',#348,5.001);
#232=CIRCLE('',#349,5.001);
#233=CIRCLE('',#350,5.001);
#234=CIRCLE('',#351,5.001);
#235=CIRCLE('',#352,2.4585);
#236=CIRCLE('',#360,6.52223096621922);
#237=CIRCLE('',#362,7.);
#238=CIRCLE('',#363,7.);
#239=CIRCLE('',#365,6.433);
#240=CIRCLE('',#366,2.4585);
#241=EDGE_LOOP('',(#67,#68,#69,#70,#71,#72));
#242=EDGE_LOOP('',(#73,#74,#75,#76,#77,#78));
#243=EDGE_LOOP('',(#79,#80,#81,#82,#83,#84));
#244=EDGE_LOOP('',(#85,#86,#87,#88,#89,#90));
#245=EDGE_LOOP('',(#91,#92,#93,#94,#95,#96));
#246=EDGE_LOOP('',(#97,#98,#99,#100,#101,#102));
#247=EDGE_LOOP('',(#103,#104,#105,#106,#107,#108,#109,#110,#111,#112,#113,
#114));
#248=EDGE_LOOP('',(#115));
#249=EDGE_LOOP('',(#116,#117,#118));
#250=EDGE_LOOP('',(#119,#120,#121));
#251=EDGE_LOOP('',(#122,#123,#124));
#252=EDGE_LOOP('',(#125,#126,#127));
#253=EDGE_LOOP('',(#128,#129,#130));
#254=EDGE_LOOP('',(#131,#132,#133));
#255=EDGE_LOOP('',(#134));
#256=EDGE_LOOP('',(#135,#136,#137,#138,#139,#140));
#257=EDGE_LOOP('',(#141));
#258=EDGE_LOOP('',(#142));
#259=EDGE_LOOP('',(#143));
#260=EDGE_LOOP('',(#144));
#261=EDGE_LOOP('',(#145));
#262=EDGE_LOOP('',(#146));
#263=EDGE_LOOP('',(#147));
#264=EDGE_LOOP('',(#148));
#265=EDGE_LOOP('',(#149));
#266=EDGE_LOOP('',(#150));
#267=FACE_BOUND('',#241,.T.);
#268=FACE_BOUND('',#242,.T.);
#269=FACE_BOUND('',#243,.T.);
#270=FACE_BOUND('',#244,.T.);
#271=FACE_BOUND('',#245,.T.);
#272=FACE_BOUND('',#246,.T.);
#273=FACE_BOUND('',#247,.T.);
#274=FACE_BOUND('',#248,.T.);
#275=FACE_BOUND('',#249,.T.);
#276=FACE_BOUND('',#250,.T.);
#277=FACE_BOUND('',#251,.T.);
#278=FACE_BOUND('',#252,.T.);
#279=FACE_BOUND('',#253,.T.);
#280=FACE_BOUND('',#254,.T.);
#281=FACE_BOUND('',#255,.T.);
#282=FACE_BOUND('',#256,.T.);
#283=FACE_BOUND('',#257,.T.);
#284=FACE_BOUND('',#258,.T.);
#285=FACE_BOUND('',#259,.T.);
#286=FACE_BOUND('',#260,.T.);
#287=FACE_BOUND('',#261,.T.);
#288=FACE_BOUND('',#262,.T.);
#289=FACE_BOUND('',#263,.T.);
#290=FACE_BOUND('',#264,.T.);
#291=FACE_BOUND('',#265,.T.);
#292=FACE_BOUND('',#266,.T.);
#293=PLANE('',#333);
#294=PLANE('',#335);
#295=PLANE('',#337);
#296=PLANE('',#339);
#297=PLANE('',#341);
#298=PLANE('',#343);
#299=PLANE('',#345);
#300=PLANE('',#364);
#301=ADVANCED_FACE('',(#267),#293,.T.);
#302=ADVANCED_FACE('',(#268),#294,.T.);
#303=ADVANCED_FACE('',(#269),#295,.T.);
#304=ADVANCED_FACE('',(#270),#296,.T.);
#305=ADVANCED_FACE('',(#271),#297,.T.);
#306=ADVANCED_FACE('',(#272),#298,.T.);
#307=ADVANCED_FACE('',(#273,#274),#299,.F.);
#308=ADVANCED_FACE('',(#275),#25,.T.);
#309=ADVANCED_FACE('',(#276),#26,.T.);
#310=ADVANCED_FACE('',(#277),#27,.T.);
#311=ADVANCED_FACE('',(#278),#28,.T.);
#312=ADVANCED_FACE('',(#279),#29,.T.);
#313=ADVANCED_FACE('',(#280),#30,.T.);
#314=ADVANCED_FACE('',(#281,#282),#24,.T.);
#315=ADVANCED_FACE('',(#283,#284),#22,.T.);
#316=ADVANCED_FACE('',(#285,#286),#300,.F.);
#317=ADVANCED_FACE('',(#287,#288),#23,.F.);
#318=ADVANCED_FACE('',(#289,#290),#20,.T.);
#319=ADVANCED_FACE('',(#291,#292),#21,.T.);
#320=CLOSED_SHELL('',(#301,#302,#303,#304,#305,#306,#307,#308,#309,#310,
#311,#312,#313,#314,#315,#316,#317,#318,#319));
#321=STYLED_ITEM('',(#322),#329);
#322=PRESENTATION_STYLE_ASSIGNMENT((#323));
#323=SURFACE_STYLE_USAGE(.BOTH.,#324);
#324=SURFACE_SIDE_STYLE('',(#325));
#325=SURFACE_STYLE_FILL_AREA(#326);
#326=FILL_AREA_STYLE('',(#327));
#327=FILL_AREA_STYLE_COLOUR('',#328);
#328=COLOUR_RGB('',0.7294117808342,0.76862746477127,0.7843137383461);
#329=MANIFOLD_SOLID_BREP('4DIN6923M06M',#320);
#330=SHAPE_DEFINITION_REPRESENTATION(#592,#331);
#331=SHAPE_REPRESENTATION('4DIN6923M06M',(#332),#587);
#332=AXIS2_PLACEMENT_3D('',#458,#370,#371);
#333=AXIS2_PLACEMENT_3D('',#459,#372,#373);
#334=AXIS2_PLACEMENT_3D('',#460,#374,#375);
#335=AXIS2_PLACEMENT_3D('',#478,#379,#380);
#336=AXIS2_PLACEMENT_3D('',#482,#382,#383);
#337=AXIS2_PLACEMENT_3D('',#494,#385,#386);
#338=AXIS2_PLACEMENT_3D('',#495,#387,#388);
#339=AXIS2_PLACEMENT_3D('',#510,#391,#392);
#340=AXIS2_PLACEMENT_3D('',#511,#393,#394);
#341=AXIS2_PLACEMENT_3D('',#526,#397,#398);
#342=AXIS2_PLACEMENT_3D('',#527,#399,#400);
#343=AXIS2_PLACEMENT_3D('',#542,#403,#404);
#344=AXIS2_PLACEMENT_3D('',#543,#405,#406);
#345=AXIS2_PLACEMENT_3D('',#555,#408,#409);
#346=AXIS2_PLACEMENT_3D('',#556,#410,#411);
#347=AXIS2_PLACEMENT_3D('',#557,#412,#413);
#348=AXIS2_PLACEMENT_3D('',#558,#414,#415);
#349=AXIS2_PLACEMENT_3D('',#559,#416,#417);
#350=AXIS2_PLACEMENT_3D('',#560,#418,#419);
#351=AXIS2_PLACEMENT_3D('',#561,#420,#421);
#352=AXIS2_PLACEMENT_3D('',#562,#422,#423);
#353=AXIS2_PLACEMENT_3D('',#564,#424,#425);
#354=AXIS2_PLACEMENT_3D('',#565,#426,#427);
#355=AXIS2_PLACEMENT_3D('',#566,#428,#429);
#356=AXIS2_PLACEMENT_3D('',#567,#430,#431);
#357=AXIS2_PLACEMENT_3D('',#568,#432,#433);
#358=AXIS2_PLACEMENT_3D('',#569,#434,#435);
#359=AXIS2_PLACEMENT_3D('',#570,#436,#437);
#360=AXIS2_PLACEMENT_3D('',#571,#438,#439);
#361=AXIS2_PLACEMENT_3D('',#573,#440,#441);
#362=AXIS2_PLACEMENT_3D('',#574,#442,#443);
#363=AXIS2_PLACEMENT_3D('',#576,#444,#445);
#364=AXIS2_PLACEMENT_3D('',#578,#446,#447);
#365=AXIS2_PLACEMENT_3D('',#579,#448,#449);
#366=AXIS2_PLACEMENT_3D('',#581,#450,#451);
#367=AXIS2_PLACEMENT_3D('',#583,#452,#453);
#368=AXIS2_PLACEMENT_3D('',#584,#454,#455);
#369=AXIS2_PLACEMENT_3D('',#585,#456,#457);
#370=DIRECTION('',(0.,0.,1.));
#371=DIRECTION('',(1.,0.,0.));
#372=DIRECTION('',(-0.866025403784439,0.5,0.));
#373=DIRECTION('',(-0.5,-0.866025403784439,0.));
#374=DIRECTION('',(-0.866025403784439,0.5,0.));
#375=DIRECTION('',(-0.5,-0.866025403784439,0.));
#376=DIRECTION('',(0.,0.,1.));
#377=DIRECTION('',(0.5,0.866025403784439,0.));
#378=DIRECTION('',(0.,0.,1.));
#379=DIRECTION('',(0.,1.,0.));
#380=DIRECTION('',(0.,0.,1.));
#381=DIRECTION('',(0.,0.,1.));
#382=DIRECTION('',(0.,1.,0.));
#383=DIRECTION('',(0.,0.,1.));
#384=DIRECTION('',(-1.,0.,0.));
#385=DIRECTION('',(0.866025403784439,0.5,0.));
#386=DIRECTION('',(-0.5,0.866025403784439,0.));
#387=DIRECTION('',(0.866025403784439,0.5,0.));
#388=DIRECTION('',(-0.5,0.866025403784439,0.));
#389=DIRECTION('',(0.499999999999997,-0.86602540378444,0.));
#390=DIRECTION('',(0.,0.,1.));
#391=DIRECTION('',(0.866025403784439,-0.5,0.));
#392=DIRECTION('',(0.5,0.866025403784439,0.));
#393=DIRECTION('',(0.866025403784439,-0.5,0.));
#394=DIRECTION('',(0.5,0.866025403784439,0.));
#395=DIRECTION('',(-0.5,-0.866025403784439,0.));
#396=DIRECTION('',(0.,0.,1.));
#397=DIRECTION('',(0.,-1.,0.));
#398=DIRECTION('',(0.,0.,-1.));
#399=DIRECTION('',(0.,-1.,0.));
#400=DIRECTION('',(0.,0.,-1.));
#401=DIRECTION('',(-1.,0.,0.));
#402=DIRECTION('',(0.,0.,1.));
#403=DIRECTION('',(-0.866025403784439,-0.5,0.));
#404=DIRECTION('',(0.5,-0.866025403784439,0.));
#405=DIRECTION('',(-0.866025403784439,-0.5,0.));
#406=DIRECTION('',(0.5,-0.866025403784439,0.));
#407=DIRECTION('',(-0.499999999999997,0.86602540378444,0.));
#408=DIRECTION('',(0.,0.,-1.));
#409=DIRECTION('',(-1.,0.,0.));
#410=DIRECTION('',(0.,0.,-1.));
#411=DIRECTION('',(-1.,0.,0.));
#412=DIRECTION('',(0.,0.,-1.));
#413=DIRECTION('',(-1.,0.,0.));
#414=DIRECTION('',(0.,0.,-1.));
#415=DIRECTION('',(-1.,0.,0.));
#416=DIRECTION('',(0.,0.,-1.));
#417=DIRECTION('',(-1.,0.,0.));
#418=DIRECTION('',(0.,0.,-1.));
#419=DIRECTION('',(-1.,0.,0.));
#420=DIRECTION('',(0.,0.,-1.));
#421=DIRECTION('',(-1.,0.,0.));
#422=DIRECTION('',(0.,0.,-1.));
#423=DIRECTION('',(-1.,0.,0.));
#424=DIRECTION('',(0.,0.,-1.));
#425=DIRECTION('',(-1.,0.,0.));
#426=DIRECTION('',(0.,0.,-1.));
#427=DIRECTION('',(-1.,0.,0.));
#428=DIRECTION('',(0.,0.,-1.));
#429=DIRECTION('',(-1.,0.,0.));
#430=DIRECTION('',(0.,0.,-1.));
#431=DIRECTION('',(-1.,0.,0.));
#432=DIRECTION('',(0.,0.,-1.));
#433=DIRECTION('',(-1.,0.,0.));
#434=DIRECTION('',(0.,0.,-1.));
#435=DIRECTION('',(-1.,0.,0.));
#436=DIRECTION('',(0.,0.,-1.));
#437=DIRECTION('',(0.,1.,0.));
#438=DIRECTION('',(0.,0.,-1.));
#439=DIRECTION('',(-1.,0.,0.));
#440=DIRECTION('',(0.,0.,-1.));
#441=DIRECTION('',(-1.,0.,0.));
#442=DIRECTION('',(0.,0.,-1.));
#443=DIRECTION('',(-1.,0.,0.));
#444=DIRECTION('',(0.,0.,1.));
#445=DIRECTION('',(1.,0.,0.));
#446=DIRECTION('',(0.,0.,1.));
#447=DIRECTION('',(1.,0.,0.));
#448=DIRECTION('',(0.,0.,1.));
#449=DIRECTION('',(1.,0.,0.));
#450=DIRECTION('',(0.,0.,-1.));
#451=DIRECTION('',(-1.,0.,0.));
#452=DIRECTION('',(0.,0.,-1.));
#453=DIRECTION('',(-1.,0.,0.));
#454=DIRECTION('',(0.,0.,-1.));
#455=DIRECTION('',(-1.,0.,0.));
#456=DIRECTION('',(0.,0.,1.));
#457=DIRECTION('',(1.,0.,0.));
#458=CARTESIAN_POINT('',(0.,0.,0.));
#459=CARTESIAN_POINT('',(-2.88675134594813,5.,0.));
#460=CARTESIAN_POINT('',(-4.33012701892222,2.49999999999996,-39.7487544008908));
#461=CARTESIAN_POINT('',(-5.77350269189626,4.33680868994202E-16,1.29131629557563));
#462=CARTESIAN_POINT('',(-2.88675134594813,5.,1.29131629557563));
#463=CARTESIAN_POINT('',(-5.77350269189626,0.,0.));
#464=CARTESIAN_POINT('',(-5.77350269189626,0.,5.40116070395639));
#465=CARTESIAN_POINT('',(-5.77350269189626,-4.48822541994668E-16,5.40116070395639));
#466=CARTESIAN_POINT('',(-5.32576508902641,0.775504276629676,5.74824411703379));
#467=CARTESIAN_POINT('',(-4.86016022355214,1.58195555988237,5.98511755925941));
#468=CARTESIAN_POINT('',(-4.3801295188597,2.41339312960278,6.00000000000003));
#469=CARTESIAN_POINT('',(-4.3801295188597,2.41339312960278,6.00000000000002));
#470=CARTESIAN_POINT('',(-4.3801295188597,2.41339312960278,6.));
#471=CARTESIAN_POINT('',(-4.28012451898469,2.58660687039722,6.00000000000006));
#472=CARTESIAN_POINT('',(-4.28012451898469,2.58660687039721,6.));
#473=CARTESIAN_POINT('',(-3.80133460467809,3.4158953281278,5.98515602760986));
#474=CARTESIAN_POINT('',(-3.33565051958733,4.22248382378123,5.74914455949067));
#475=CARTESIAN_POINT('',(-2.88675134594813,5.,5.4011607039564));
#476=CARTESIAN_POINT('',(-2.88675134594813,5.,5.40116070395639));
#477=CARTESIAN_POINT('',(-2.88675134594813,5.,0.));
#478=CARTESIAN_POINT('',(2.88675134594813,5.,0.));
#479=CARTESIAN_POINT('',(2.88675134594813,5.,0.));
#480=CARTESIAN_POINT('',(2.88675134594813,5.,1.29131629557563));
#481=CARTESIAN_POINT('',(2.88675134594813,5.,5.40116070395639));
#482=CARTESIAN_POINT('',(0.,5.,-39.7487544008908));
#483=CARTESIAN_POINT('',(-2.88675134594813,5.,5.40116070395639));
#484=CARTESIAN_POINT('',(-1.9912747839147,5.,5.74824464272904));
#485=CARTESIAN_POINT('',(-1.06006840510882,5.,5.98511752832067));
#486=CARTESIAN_POINT('',(-0.100004999874955,5.,6.00000000000003));
#487=CARTESIAN_POINT('',(-0.10000499987496,5.,6.));
#488=CARTESIAN_POINT('',(2.88675134594813,5.,6.));
#489=CARTESIAN_POINT('',(0.10000499987496,5.,6.));
#490=CARTESIAN_POINT('',(0.100004999874961,5.,6.));
#491=CARTESIAN_POINT('',(1.0575861632179,5.,5.98515600691949));
#492=CARTESIAN_POINT('',(1.98895315123633,5.,5.74914450035632));
#493=CARTESIAN_POINT('',(2.88675134594813,5.,5.4011607039564));
#494=CARTESIAN_POINT('',(5.77350269189626,0.,0.));
#495=CARTESIAN_POINT('',(4.33012701892222,2.49999999999996,-39.7487544008908));
#496=CARTESIAN_POINT('',(5.77350269189626,-4.33680868994202E-16,1.29131629557563));
#497=CARTESIAN_POINT('',(2.88675134594813,5.,5.40116070395639));
#498=CARTESIAN_POINT('',(3.33448894881798,4.22449572337031,5.7482441170338));
#499=CARTESIAN_POINT('',(3.80009381429225,3.41804444011761,5.98511755925942));
#500=CARTESIAN_POINT('',(4.28012451898471,2.58660687039719,6.00000000000003));
#501=CARTESIAN_POINT('',(4.28012451898471,2.58660687039719,6.00000000000002));
#502=CARTESIAN_POINT('',(4.28012451898471,2.58660687039717,6.));
#503=CARTESIAN_POINT('',(4.3801295188597,2.41339312960277,6.00000000000006));
#504=CARTESIAN_POINT('',(4.3801295188597,2.41339312960278,6.));
#505=CARTESIAN_POINT('',(4.8589194331663,1.5841046718722,5.98515602760986));
#506=CARTESIAN_POINT('',(5.32460351825706,0.777516176218771,5.74914455949067));
#507=CARTESIAN_POINT('',(5.77350269189626,-4.44792825602327E-15,5.4011607039564));
#508=CARTESIAN_POINT('',(5.77350269189626,0.,5.40116070395639));
#509=CARTESIAN_POINT('',(5.77350269189626,0.,0.));
#510=CARTESIAN_POINT('',(2.88675134594813,-5.,0.));
#511=CARTESIAN_POINT('',(4.33012701892217,-2.50000000000004,-39.7487544008908));
#512=CARTESIAN_POINT('',(2.88675134594813,-5.,1.29131629557564));
#513=CARTESIAN_POINT('',(5.77350269189626,4.48822541994668E-16,5.40116070395639));
#514=CARTESIAN_POINT('',(5.32576508902641,-0.775504276629676,5.74824411703379));
#515=CARTESIAN_POINT('',(4.86016022355214,-1.58195555988237,5.98511755925941));
#516=CARTESIAN_POINT('',(4.3801295188597,-2.41339312960278,6.00000000000003));
#517=CARTESIAN_POINT('',(4.3801295188597,-2.41339312960278,6.00000000000002));
#518=CARTESIAN_POINT('',(4.3801295188597,-2.41339312960278,6.));
#519=CARTESIAN_POINT('',(4.28012451898469,-2.58660687039722,6.00000000000006));
#520=CARTESIAN_POINT('',(4.28012451898469,-2.58660687039721,6.));
#521=CARTESIAN_POINT('',(3.80133460467809,-3.4158953281278,5.98515602760986));
#522=CARTESIAN_POINT('',(3.33565051958733,-4.22248382378123,5.74914455949067));
#523=CARTESIAN_POINT('',(2.88675134594813,-5.,5.4011607039564));
#524=CARTESIAN_POINT('',(2.88675134594813,-5.,5.40116070395639));
#525=CARTESIAN_POINT('',(2.88675134594813,-5.,0.));
#526=CARTESIAN_POINT('',(-2.88675134594813,-5.,0.));
#527=CARTESIAN_POINT('',(0.,-5.,-39.7487544008908));
#528=CARTESIAN_POINT('',(-2.88675134594813,-5.,1.29131629557564));
#529=CARTESIAN_POINT('',(2.88675134594813,-5.,5.40116070395639));
#530=CARTESIAN_POINT('',(1.9912747839147,-5.,5.74824464272904));
#531=CARTESIAN_POINT('',(1.06006840510882,-5.,5.98511752832067));
#532=CARTESIAN_POINT('',(0.100004999874956,-5.,6.00000000000003));
#533=CARTESIAN_POINT('',(0.10000499987496,-5.,6.));
#534=CARTESIAN_POINT('',(0.,-5.,6.));
#535=CARTESIAN_POINT('',(-0.10000499987496,-5.,6.00000000000006));
#536=CARTESIAN_POINT('',(-0.100004999874952,-5.,6.));
#537=CARTESIAN_POINT('',(-1.0575861632179,-5.,5.98515600691949));
#538=CARTESIAN_POINT('',(-1.98895315123632,-5.,5.74914450035633));
#539=CARTESIAN_POINT('',(-2.88675134594813,-5.,5.4011607039564));
#540=CARTESIAN_POINT('',(-2.88675134594813,-5.,5.40116070395639));
#541=CARTESIAN_POINT('',(-2.88675134594813,-5.,0.));
#542=CARTESIAN_POINT('',(-5.77350269189626,0.,0.));
#543=CARTESIAN_POINT('',(-4.33012701892217,-2.50000000000004,-39.7487544008908));
#544=CARTESIAN_POINT('',(-2.88675134594813,-5.,5.40116070395639));
#545=CARTESIAN_POINT('',(-3.33448894881798,-4.22449572337031,5.7482441170338));
#546=CARTESIAN_POINT('',(-3.80009381429225,-3.41804444011761,5.98511755925942));
#547=CARTESIAN_POINT('',(-4.28012451898471,-2.58660687039719,6.00000000000003));
#548=CARTESIAN_POINT('',(-4.28012451898471,-2.58660687039719,6.00000000000002));
#549=CARTESIAN_POINT('',(-4.28012451898471,-2.58660687039717,6.));
#550=CARTESIAN_POINT('',(-4.3801295188597,-2.41339312960277,6.00000000000006));
#551=CARTESIAN_POINT('',(-4.3801295188597,-2.41339312960278,6.));
#552=CARTESIAN_POINT('',(-4.8589194331663,-1.5841046718722,5.98515602760986));
#553=CARTESIAN_POINT('',(-5.32460351825706,-0.777516176218771,5.74914455949067));
#554=CARTESIAN_POINT('',(-5.77350269189626,4.44792825602327E-15,5.4011607039564));
#555=CARTESIAN_POINT('',(0.,0.,6.));
#556=CARTESIAN_POINT('',(0.,0.,6.));
#557=CARTESIAN_POINT('',(0.,0.,6.));
#558=CARTESIAN_POINT('',(0.,0.,6.));
#559=CARTESIAN_POINT('',(0.,0.,6.));
#560=CARTESIAN_POINT('',(0.,0.,6.));
#561=CARTESIAN_POINT('',(0.,0.,6.));
#562=CARTESIAN_POINT('',(0.,0.,6.));
#563=CARTESIAN_POINT('',(-2.4585,0.,6.));
#564=CARTESIAN_POINT('',(0.,0.,6.));
#565=CARTESIAN_POINT('',(0.,0.,6.));
#566=CARTESIAN_POINT('',(0.,0.,6.));
#567=CARTESIAN_POINT('',(0.,0.,6.));
#568=CARTESIAN_POINT('',(0.,0.,6.));
#569=CARTESIAN_POINT('',(0.,0.,6.));
#570=CARTESIAN_POINT('',(0.,-5.48606299277665E-14,-39.7487544008908));
#571=CARTESIAN_POINT('',(0.,-5.48606299277665E-14,1.17900194278858));
#572=CARTESIAN_POINT('',(-6.52223096621922,-5.48606299277665E-14,1.17900194278858));
#573=CARTESIAN_POINT('',(0.,0.,0.));
#574=CARTESIAN_POINT('',(0.,0.,0.619067272788959));
#575=CARTESIAN_POINT('',(-7.,0.,0.619067272788959));
#576=CARTESIAN_POINT('',(0.,0.,0.567));
#577=CARTESIAN_POINT('',(7.,0.,0.567));
#578=CARTESIAN_POINT('',(0.,7.,0.));
#579=CARTESIAN_POINT('',(0.,0.,0.));
#580=CARTESIAN_POINT('',(6.433,0.,0.));
#581=CARTESIAN_POINT('',(0.,0.,0.));
#582=CARTESIAN_POINT('',(-2.4585,0.,0.));
#583=CARTESIAN_POINT('',(0.,0.,0.));
#584=CARTESIAN_POINT('',(0.,0.,0.619067272788959));
#585=CARTESIAN_POINT('',(0.,0.,0.567));
#586=MECHANICAL_DESIGN_GEOMETRIC_PRESENTATION_REPRESENTATION('',(#321),
#587);
#587=(
GEOMETRIC_REPRESENTATION_CONTEXT(3)
GLOBAL_UNCERTAINTY_ASSIGNED_CONTEXT((#588))
GLOBAL_UNIT_ASSIGNED_CONTEXT((#591,#590,#589))
REPRESENTATION_CONTEXT('4DIN6923M06M','TOP_LEVEL_ASSEMBLY_PART')
);
#588=UNCERTAINTY_MEASURE_WITH_UNIT(LENGTH_MEASURE(0.005),#591,
'DISTANCE_ACCURACY_VALUE','Maximum Tolerance applied to model');
#589=(
NAMED_UNIT(*)
SI_UNIT($,.STERADIAN.)
SOLID_ANGLE_UNIT()
);
#590=(
NAMED_UNIT(*)
PLANE_ANGLE_UNIT()
SI_UNIT($,.RADIAN.)
);
#591=(
LENGTH_UNIT()
NAMED_UNIT(*)
SI_UNIT(.MILLI.,.METRE.)
);
#592=PRODUCT_DEFINITION_SHAPE('','',#593);
#593=PRODUCT_DEFINITION('','',#595,#594);
#594=PRODUCT_DEFINITION_CONTEXT('',#601,'design');
#595=PRODUCT_DEFINITION_FORMATION_WITH_SPECIFIED_SOURCE('','',#597,
 .NOT_KNOWN.);
#596=PRODUCT_RELATED_PRODUCT_CATEGORY('','',(#597));
#597=PRODUCT('4DIN6923M06M','4DIN6923M06M','4DIN6923M06M',(#599));
#598=PRODUCT_CATEGORY('','');
#599=PRODUCT_CONTEXT('',#601,'mechanical');
#600=APPLICATION_PROTOCOL_DEFINITION('international standard',
'automotive_design',2010,#601);
#601=APPLICATION_CONTEXT(
'core data for automotive mechanical design processes');
ENDSEC;
END-ISO-10303-21;
