ISO-10303-21;
HEADER;
/* Generated by software containing ST-Developer
 * from STEP Tools, Inc. (www.steptools.com) 
 */
/* OPTION: using custom renumber hook */

FILE_DESCRIPTION(
/* description */ ('STEP AP214'),
/* implementation_level */ '2;1');

FILE_NAME(
/* name */ '096166',
/* time_stamp */ '2022-09-01T14:43:25+02:00',
/* author */ ('License CC BY-ND 4.0'),
/* organization */ ('CADENAS'),
/* preprocessor_version */ 'ST-DEVELOPER v18.102',
/* originating_system */ 'PARTsolutions',
/* authorisation */ '  ');

FILE_SCHEMA (('AUTOMOTIVE_DESIGN {1 0 10303 214 3 1 1}'));
ENDSEC;

DATA;
#10=PROPERTY_DEFINITION_REPRESENTATION(#14,#12);
#11=PROPERTY_DEFINITION_REPRESENTATION(#15,#13);
#12=REPRESENTATION('',(#16),#631);
#13=REPRESENTATION('',(#17),#631);
#14=PROPERTY_DEFINITION('pmi validation property','',#636);
#15=PROPERTY_DEFINITION('pmi validation property','',#636);
#16=VALUE_REPRESENTATION_ITEM('number of annotations',COUNT_MEASURE(0.));
#17=VALUE_REPRESENTATION_ITEM('number of views',COUNT_MEASURE(0.));
#18=SHAPE_REPRESENTATION_RELATIONSHIP('','',#379,#19);
#19=ADVANCED_BREP_SHAPE_REPRESENTATION('',(#377),#631);
#20=CYLINDRICAL_SURFACE('',#383,0.200000000000001);
#21=CYLINDRICAL_SURFACE('',#387,0.200000000000001);
#22=CYLINDRICAL_SURFACE('',#391,0.3);
#23=CYLINDRICAL_SURFACE('',#395,4.00000000000001);
#24=CYLINDRICAL_SURFACE('',#400,4.00000000000002);
#25=CYLINDRICAL_SURFACE('',#404,0.3);
#26=CYLINDRICAL_SURFACE('',#408,0.200000000000001);
#27=CYLINDRICAL_SURFACE('',#412,0.200000000000001);
#28=CYLINDRICAL_SURFACE('',#417,2.4585);
#29=LINE('',#530,#61);
#30=LINE('',#533,#62);
#31=LINE('',#535,#63);
#32=LINE('',#537,#64);
#33=LINE('',#541,#65);
#34=LINE('',#545,#66);
#35=LINE('',#547,#67);
#36=LINE('',#549,#68);
#37=LINE('',#553,#69);
#38=LINE('',#557,#70);
#39=LINE('',#559,#71);
#40=LINE('',#561,#72);
#41=LINE('',#565,#73);
#42=LINE('',#569,#74);
#43=LINE('',#571,#75);
#44=LINE('',#573,#76);
#45=LINE('',#577,#77);
#46=LINE('',#583,#78);
#47=LINE('',#585,#79);
#48=LINE('',#587,#80);
#49=LINE('',#591,#81);
#50=LINE('',#595,#82);
#51=LINE('',#597,#83);
#52=LINE('',#599,#84);
#53=LINE('',#603,#85);
#54=LINE('',#607,#86);
#55=LINE('',#609,#87);
#56=LINE('',#611,#88);
#57=LINE('',#615,#89);
#58=LINE('',#619,#90);
#59=LINE('',#621,#91);
#60=LINE('',#623,#92);
#61=VECTOR('',#424,1000.);
#62=VECTOR('',#425,1000.);
#63=VECTOR('',#426,1000.);
#64=VECTOR('',#427,1000.);
#65=VECTOR('',#432,1000.);
#66=VECTOR('',#437,1000.);
#67=VECTOR('',#438,1000.);
#68=VECTOR('',#439,1000.);
#69=VECTOR('',#444,1000.);
#70=VECTOR('',#449,1000.);
#71=VECTOR('',#450,1000.);
#72=VECTOR('',#451,1000.);
#73=VECTOR('',#456,1000.);
#74=VECTOR('',#461,1000.);
#75=VECTOR('',#462,1000.);
#76=VECTOR('',#463,1000.);
#77=VECTOR('',#468,1000.);
#78=VECTOR('',#475,1000.);
#79=VECTOR('',#476,1000.);
#80=VECTOR('',#477,1000.);
#81=VECTOR('',#482,1000.);
#82=VECTOR('',#487,1000.);
#83=VECTOR('',#488,1000.);
#84=VECTOR('',#489,1000.);
#85=VECTOR('',#494,1000.);
#86=VECTOR('',#499,1000.);
#87=VECTOR('',#500,1000.);
#88=VECTOR('',#501,1000.);
#89=VECTOR('',#506,1000.);
#90=VECTOR('',#511,1000.);
#91=VECTOR('',#512,1000.);
#92=VECTOR('',#513,1000.);
#93=ORIENTED_EDGE('',*,*,#193,.F.);
#94=ORIENTED_EDGE('',*,*,#194,.T.);
#95=ORIENTED_EDGE('',*,*,#195,.F.);
#96=ORIENTED_EDGE('',*,*,#196,.F.);
#97=ORIENTED_EDGE('',*,*,#197,.T.);
#98=ORIENTED_EDGE('',*,*,#198,.T.);
#99=ORIENTED_EDGE('',*,*,#199,.F.);
#100=ORIENTED_EDGE('',*,*,#200,.F.);
#101=ORIENTED_EDGE('',*,*,#195,.T.);
#102=ORIENTED_EDGE('',*,*,#201,.T.);
#103=ORIENTED_EDGE('',*,*,#202,.F.);
#104=ORIENTED_EDGE('',*,*,#203,.F.);
#105=ORIENTED_EDGE('',*,*,#199,.T.);
#106=ORIENTED_EDGE('',*,*,#204,.F.);
#107=ORIENTED_EDGE('',*,*,#205,.F.);
#108=ORIENTED_EDGE('',*,*,#206,.T.);
#109=ORIENTED_EDGE('',*,*,#202,.T.);
#110=ORIENTED_EDGE('',*,*,#207,.T.);
#111=ORIENTED_EDGE('',*,*,#208,.F.);
#112=ORIENTED_EDGE('',*,*,#209,.F.);
#113=ORIENTED_EDGE('',*,*,#205,.T.);
#114=ORIENTED_EDGE('',*,*,#210,.T.);
#115=ORIENTED_EDGE('',*,*,#211,.F.);
#116=ORIENTED_EDGE('',*,*,#212,.F.);
#117=ORIENTED_EDGE('',*,*,#208,.T.);
#118=ORIENTED_EDGE('',*,*,#213,.T.);
#119=ORIENTED_EDGE('',*,*,#214,.F.);
#120=ORIENTED_EDGE('',*,*,#215,.F.);
#121=ORIENTED_EDGE('',*,*,#211,.T.);
#122=ORIENTED_EDGE('',*,*,#216,.T.);
#123=ORIENTED_EDGE('',*,*,#217,.F.);
#124=ORIENTED_EDGE('',*,*,#218,.F.);
#125=ORIENTED_EDGE('',*,*,#214,.T.);
#126=ORIENTED_EDGE('',*,*,#219,.T.);
#127=ORIENTED_EDGE('',*,*,#220,.T.);
#128=ORIENTED_EDGE('',*,*,#221,.F.);
#129=ORIENTED_EDGE('',*,*,#222,.F.);
#130=ORIENTED_EDGE('',*,*,#217,.T.);
#131=ORIENTED_EDGE('',*,*,#223,.T.);
#132=ORIENTED_EDGE('',*,*,#224,.F.);
#133=ORIENTED_EDGE('',*,*,#225,.F.);
#134=ORIENTED_EDGE('',*,*,#221,.T.);
#135=ORIENTED_EDGE('',*,*,#226,.T.);
#136=ORIENTED_EDGE('',*,*,#227,.F.);
#137=ORIENTED_EDGE('',*,*,#228,.F.);
#138=ORIENTED_EDGE('',*,*,#224,.T.);
#139=ORIENTED_EDGE('',*,*,#229,.T.);
#140=ORIENTED_EDGE('',*,*,#230,.F.);
#141=ORIENTED_EDGE('',*,*,#231,.F.);
#142=ORIENTED_EDGE('',*,*,#227,.T.);
#143=ORIENTED_EDGE('',*,*,#232,.T.);
#144=ORIENTED_EDGE('',*,*,#233,.F.);
#145=ORIENTED_EDGE('',*,*,#234,.F.);
#146=ORIENTED_EDGE('',*,*,#230,.T.);
#147=ORIENTED_EDGE('',*,*,#235,.F.);
#148=ORIENTED_EDGE('',*,*,#236,.F.);
#149=ORIENTED_EDGE('',*,*,#237,.T.);
#150=ORIENTED_EDGE('',*,*,#233,.T.);
#151=ORIENTED_EDGE('',*,*,#238,.T.);
#152=ORIENTED_EDGE('',*,*,#239,.F.);
#153=ORIENTED_EDGE('',*,*,#240,.F.);
#154=ORIENTED_EDGE('',*,*,#236,.T.);
#155=ORIENTED_EDGE('',*,*,#241,.T.);
#156=ORIENTED_EDGE('',*,*,#197,.F.);
#157=ORIENTED_EDGE('',*,*,#242,.F.);
#158=ORIENTED_EDGE('',*,*,#239,.T.);
#159=ORIENTED_EDGE('',*,*,#196,.T.);
#160=ORIENTED_EDGE('',*,*,#200,.T.);
#161=ORIENTED_EDGE('',*,*,#203,.T.);
#162=ORIENTED_EDGE('',*,*,#206,.F.);
#163=ORIENTED_EDGE('',*,*,#209,.T.);
#164=ORIENTED_EDGE('',*,*,#212,.T.);
#165=ORIENTED_EDGE('',*,*,#215,.T.);
#166=ORIENTED_EDGE('',*,*,#218,.T.);
#167=ORIENTED_EDGE('',*,*,#222,.T.);
#168=ORIENTED_EDGE('',*,*,#225,.T.);
#169=ORIENTED_EDGE('',*,*,#228,.T.);
#170=ORIENTED_EDGE('',*,*,#231,.T.);
#171=ORIENTED_EDGE('',*,*,#234,.T.);
#172=ORIENTED_EDGE('',*,*,#237,.F.);
#173=ORIENTED_EDGE('',*,*,#240,.T.);
#174=ORIENTED_EDGE('',*,*,#242,.T.);
#175=ORIENTED_EDGE('',*,*,#194,.F.);
#176=ORIENTED_EDGE('',*,*,#241,.F.);
#177=ORIENTED_EDGE('',*,*,#238,.F.);
#178=ORIENTED_EDGE('',*,*,#235,.T.);
#179=ORIENTED_EDGE('',*,*,#232,.F.);
#180=ORIENTED_EDGE('',*,*,#229,.F.);
#181=ORIENTED_EDGE('',*,*,#226,.F.);
#182=ORIENTED_EDGE('',*,*,#223,.F.);
#183=ORIENTED_EDGE('',*,*,#220,.F.);
#184=ORIENTED_EDGE('',*,*,#216,.F.);
#185=ORIENTED_EDGE('',*,*,#213,.F.);
#186=ORIENTED_EDGE('',*,*,#210,.F.);
#187=ORIENTED_EDGE('',*,*,#207,.F.);
#188=ORIENTED_EDGE('',*,*,#204,.T.);
#189=ORIENTED_EDGE('',*,*,#201,.F.);
#190=ORIENTED_EDGE('',*,*,#198,.F.);
#191=ORIENTED_EDGE('',*,*,#193,.T.);
#192=ORIENTED_EDGE('',*,*,#219,.F.);
#193=EDGE_CURVE('',#243,#243,#277,.T.);
#194=EDGE_CURVE('',#244,#245,#29,.T.);
#195=EDGE_CURVE('',#246,#245,#30,.T.);
#196=EDGE_CURVE('',#247,#246,#31,.T.);
#197=EDGE_CURVE('',#247,#244,#32,.T.);
#198=EDGE_CURVE('',#245,#248,#278,.T.);
#199=EDGE_CURVE('',#249,#248,#33,.T.);
#200=EDGE_CURVE('',#246,#249,#279,.T.);
#201=EDGE_CURVE('',#248,#250,#34,.T.);
#202=EDGE_CURVE('',#251,#250,#35,.T.);
#203=EDGE_CURVE('',#249,#251,#36,.T.);
#204=EDGE_CURVE('',#252,#250,#280,.T.);
#205=EDGE_CURVE('',#253,#252,#37,.T.);
#206=EDGE_CURVE('',#253,#251,#281,.T.);
#207=EDGE_CURVE('',#252,#254,#38,.T.);
#208=EDGE_CURVE('',#255,#254,#39,.T.);
#209=EDGE_CURVE('',#253,#255,#40,.T.);
#210=EDGE_CURVE('',#254,#256,#282,.T.);
#211=EDGE_CURVE('',#257,#256,#41,.T.);
#212=EDGE_CURVE('',#255,#257,#283,.T.);
#213=EDGE_CURVE('',#256,#258,#42,.T.);
#214=EDGE_CURVE('',#259,#258,#43,.T.);
#215=EDGE_CURVE('',#257,#259,#44,.T.);
#216=EDGE_CURVE('',#258,#260,#284,.T.);
#217=EDGE_CURVE('',#261,#260,#45,.T.);
#218=EDGE_CURVE('',#259,#261,#285,.T.);
#219=EDGE_CURVE('',#262,#262,#286,.T.);
#220=EDGE_CURVE('',#260,#263,#46,.T.);
#221=EDGE_CURVE('',#264,#263,#47,.T.);
#222=EDGE_CURVE('',#261,#264,#48,.T.);
#223=EDGE_CURVE('',#263,#265,#287,.T.);
#224=EDGE_CURVE('',#266,#265,#49,.T.);
#225=EDGE_CURVE('',#264,#266,#288,.T.);
#226=EDGE_CURVE('',#265,#267,#50,.T.);
#227=EDGE_CURVE('',#268,#267,#51,.T.);
#228=EDGE_CURVE('',#266,#268,#52,.T.);
#229=EDGE_CURVE('',#267,#269,#289,.T.);
#230=EDGE_CURVE('',#270,#269,#53,.T.);
#231=EDGE_CURVE('',#268,#270,#290,.T.);
#232=EDGE_CURVE('',#269,#271,#54,.T.);
#233=EDGE_CURVE('',#272,#271,#55,.T.);
#234=EDGE_CURVE('',#270,#272,#56,.T.);
#235=EDGE_CURVE('',#273,#271,#291,.T.);
#236=EDGE_CURVE('',#274,#273,#57,.T.);
#237=EDGE_CURVE('',#274,#272,#292,.T.);
#238=EDGE_CURVE('',#273,#275,#58,.T.);
#239=EDGE_CURVE('',#276,#275,#59,.T.);
#240=EDGE_CURVE('',#274,#276,#60,.T.);
#241=EDGE_CURVE('',#275,#244,#293,.T.);
#242=EDGE_CURVE('',#276,#247,#294,.T.);
#243=VERTEX_POINT('',#529);
#244=VERTEX_POINT('',#531);
#245=VERTEX_POINT('',#532);
#246=VERTEX_POINT('',#534);
#247=VERTEX_POINT('',#536);
#248=VERTEX_POINT('',#540);
#249=VERTEX_POINT('',#542);
#250=VERTEX_POINT('',#546);
#251=VERTEX_POINT('',#548);
#252=VERTEX_POINT('',#552);
#253=VERTEX_POINT('',#554);
#254=VERTEX_POINT('',#558);
#255=VERTEX_POINT('',#560);
#256=VERTEX_POINT('',#564);
#257=VERTEX_POINT('',#566);
#258=VERTEX_POINT('',#570);
#259=VERTEX_POINT('',#572);
#260=VERTEX_POINT('',#576);
#261=VERTEX_POINT('',#578);
#262=VERTEX_POINT('',#582);
#263=VERTEX_POINT('',#584);
#264=VERTEX_POINT('',#586);
#265=VERTEX_POINT('',#590);
#266=VERTEX_POINT('',#592);
#267=VERTEX_POINT('',#596);
#268=VERTEX_POINT('',#598);
#269=VERTEX_POINT('',#602);
#270=VERTEX_POINT('',#604);
#271=VERTEX_POINT('',#608);
#272=VERTEX_POINT('',#610);
#273=VERTEX_POINT('',#614);
#274=VERTEX_POINT('',#616);
#275=VERTEX_POINT('',#620);
#276=VERTEX_POINT('',#622);
#277=CIRCLE('',#382,2.4585);
#278=CIRCLE('',#384,0.200000000000001);
#279=CIRCLE('',#385,0.200000000000001);
#280=CIRCLE('',#388,0.200000000000001);
#281=CIRCLE('',#389,0.200000000000001);
#282=CIRCLE('',#392,0.3);
#283=CIRCLE('',#393,0.3);
#284=CIRCLE('',#396,4.00000000000001);
#285=CIRCLE('',#397,4.00000000000001);
#286=CIRCLE('',#399,2.4585);
#287=CIRCLE('',#401,4.00000000000002);
#288=CIRCLE('',#402,4.00000000000002);
#289=CIRCLE('',#405,0.3);
#290=CIRCLE('',#406,0.3);
#291=CIRCLE('',#409,0.200000000000001);
#292=CIRCLE('',#410,0.200000000000001);
#293=CIRCLE('',#413,0.200000000000001);
#294=CIRCLE('',#414,0.200000000000001);
#295=EDGE_LOOP('',(#93));
#296=EDGE_LOOP('',(#94,#95,#96,#97));
#297=EDGE_LOOP('',(#98,#99,#100,#101));
#298=EDGE_LOOP('',(#102,#103,#104,#105));
#299=EDGE_LOOP('',(#106,#107,#108,#109));
#300=EDGE_LOOP('',(#110,#111,#112,#113));
#301=EDGE_LOOP('',(#114,#115,#116,#117));
#302=EDGE_LOOP('',(#118,#119,#120,#121));
#303=EDGE_LOOP('',(#122,#123,#124,#125));
#304=EDGE_LOOP('',(#126));
#305=EDGE_LOOP('',(#127,#128,#129,#130));
#306=EDGE_LOOP('',(#131,#132,#133,#134));
#307=EDGE_LOOP('',(#135,#136,#137,#138));
#308=EDGE_LOOP('',(#139,#140,#141,#142));
#309=EDGE_LOOP('',(#143,#144,#145,#146));
#310=EDGE_LOOP('',(#147,#148,#149,#150));
#311=EDGE_LOOP('',(#151,#152,#153,#154));
#312=EDGE_LOOP('',(#155,#156,#157,#158));
#313=EDGE_LOOP('',(#159,#160,#161,#162,#163,#164,#165,#166,#167,#168,#169,
#170,#171,#172,#173,#174));
#314=EDGE_LOOP('',(#175,#176,#177,#178,#179,#180,#181,#182,#183,#184,#185,
#186,#187,#188,#189,#190));
#315=EDGE_LOOP('',(#191));
#316=EDGE_LOOP('',(#192));
#317=FACE_BOUND('',#295,.T.);
#318=FACE_BOUND('',#296,.T.);
#319=FACE_BOUND('',#297,.T.);
#320=FACE_BOUND('',#298,.T.);
#321=FACE_BOUND('',#299,.T.);
#322=FACE_BOUND('',#300,.T.);
#323=FACE_BOUND('',#301,.T.);
#324=FACE_BOUND('',#302,.T.);
#325=FACE_BOUND('',#303,.T.);
#326=FACE_BOUND('',#304,.T.);
#327=FACE_BOUND('',#305,.T.);
#328=FACE_BOUND('',#306,.T.);
#329=FACE_BOUND('',#307,.T.);
#330=FACE_BOUND('',#308,.T.);
#331=FACE_BOUND('',#309,.T.);
#332=FACE_BOUND('',#310,.T.);
#333=FACE_BOUND('',#311,.T.);
#334=FACE_BOUND('',#312,.T.);
#335=FACE_BOUND('',#313,.T.);
#336=FACE_BOUND('',#314,.T.);
#337=FACE_BOUND('',#315,.T.);
#338=FACE_BOUND('',#316,.T.);
#339=PLANE('',#381);
#340=PLANE('',#386);
#341=PLANE('',#390);
#342=PLANE('',#394);
#343=PLANE('',#398);
#344=PLANE('',#403);
#345=PLANE('',#407);
#346=PLANE('',#411);
#347=PLANE('',#415);
#348=PLANE('',#416);
#349=ADVANCED_FACE('',(#317,#318),#339,.F.);
#350=ADVANCED_FACE('',(#319),#20,.T.);
#351=ADVANCED_FACE('',(#320),#340,.F.);
#352=ADVANCED_FACE('',(#321),#21,.F.);
#353=ADVANCED_FACE('',(#322),#341,.F.);
#354=ADVANCED_FACE('',(#323),#22,.T.);
#355=ADVANCED_FACE('',(#324),#342,.F.);
#356=ADVANCED_FACE('',(#325),#23,.T.);
#357=ADVANCED_FACE('',(#326,#327),#343,.F.);
#358=ADVANCED_FACE('',(#328),#24,.T.);
#359=ADVANCED_FACE('',(#329),#344,.F.);
#360=ADVANCED_FACE('',(#330),#25,.T.);
#361=ADVANCED_FACE('',(#331),#345,.F.);
#362=ADVANCED_FACE('',(#332),#26,.F.);
#363=ADVANCED_FACE('',(#333),#346,.F.);
#364=ADVANCED_FACE('',(#334),#27,.T.);
#365=ADVANCED_FACE('',(#335),#347,.T.);
#366=ADVANCED_FACE('',(#336),#348,.F.);
#367=ADVANCED_FACE('',(#337,#338),#28,.F.);
#368=CLOSED_SHELL('',(#349,#350,#351,#352,#353,#354,#355,#356,#357,#358,
#359,#360,#361,#362,#363,#364,#365,#366,#367));
#369=STYLED_ITEM('',(#370),#377);
#370=PRESENTATION_STYLE_ASSIGNMENT((#371));
#371=SURFACE_STYLE_USAGE(.BOTH.,#372);
#372=SURFACE_SIDE_STYLE('',(#373));
#373=SURFACE_STYLE_FILL_AREA(#374);
#374=FILL_AREA_STYLE('',(#375));
#375=FILL_AREA_STYLE_COLOUR('',#376);
#376=COLOUR_RGB('',0.7294117808342,0.76862746477127,0.7843137383461);
#377=MANIFOLD_SOLID_BREP('096166',#368);
#378=SHAPE_DEFINITION_REPRESENTATION(#636,#379);
#379=SHAPE_REPRESENTATION('096166',(#380),#631);
#380=AXIS2_PLACEMENT_3D('',#526,#418,#419);
#381=AXIS2_PLACEMENT_3D('',#527,#420,#421);
#382=AXIS2_PLACEMENT_3D('',#528,#422,#423);
#383=AXIS2_PLACEMENT_3D('',#538,#428,#429);
#384=AXIS2_PLACEMENT_3D('',#539,#430,#431);
#385=AXIS2_PLACEMENT_3D('',#543,#433,#434);
#386=AXIS2_PLACEMENT_3D('',#544,#435,#436);
#387=AXIS2_PLACEMENT_3D('',#550,#440,#441);
#388=AXIS2_PLACEMENT_3D('',#551,#442,#443);
#389=AXIS2_PLACEMENT_3D('',#555,#445,#446);
#390=AXIS2_PLACEMENT_3D('',#556,#447,#448);
#391=AXIS2_PLACEMENT_3D('',#562,#452,#453);
#392=AXIS2_PLACEMENT_3D('',#563,#454,#455);
#393=AXIS2_PLACEMENT_3D('',#567,#457,#458);
#394=AXIS2_PLACEMENT_3D('',#568,#459,#460);
#395=AXIS2_PLACEMENT_3D('',#574,#464,#465);
#396=AXIS2_PLACEMENT_3D('',#575,#466,#467);
#397=AXIS2_PLACEMENT_3D('',#579,#469,#470);
#398=AXIS2_PLACEMENT_3D('',#580,#471,#472);
#399=AXIS2_PLACEMENT_3D('',#581,#473,#474);
#400=AXIS2_PLACEMENT_3D('',#588,#478,#479);
#401=AXIS2_PLACEMENT_3D('',#589,#480,#481);
#402=AXIS2_PLACEMENT_3D('',#593,#483,#484);
#403=AXIS2_PLACEMENT_3D('',#594,#485,#486);
#404=AXIS2_PLACEMENT_3D('',#600,#490,#491);
#405=AXIS2_PLACEMENT_3D('',#601,#492,#493);
#406=AXIS2_PLACEMENT_3D('',#605,#495,#496);
#407=AXIS2_PLACEMENT_3D('',#606,#497,#498);
#408=AXIS2_PLACEMENT_3D('',#612,#502,#503);
#409=AXIS2_PLACEMENT_3D('',#613,#504,#505);
#410=AXIS2_PLACEMENT_3D('',#617,#507,#508);
#411=AXIS2_PLACEMENT_3D('',#618,#509,#510);
#412=AXIS2_PLACEMENT_3D('',#624,#514,#515);
#413=AXIS2_PLACEMENT_3D('',#625,#516,#517);
#414=AXIS2_PLACEMENT_3D('',#626,#518,#519);
#415=AXIS2_PLACEMENT_3D('',#627,#520,#521);
#416=AXIS2_PLACEMENT_3D('',#628,#522,#523);
#417=AXIS2_PLACEMENT_3D('',#629,#524,#525);
#418=DIRECTION('',(0.,0.,1.));
#419=DIRECTION('',(1.,0.,0.));
#420=DIRECTION('',(0.,0.,-1.));
#421=DIRECTION('',(-1.,0.,0.));
#422=DIRECTION('',(0.,0.,1.));
#423=DIRECTION('',(1.,0.,0.));
#424=DIRECTION('',(0.,-1.,0.));
#425=DIRECTION('',(-1.,0.,0.));
#426=DIRECTION('',(0.,-1.,0.));
#427=DIRECTION('',(-1.,0.,0.));
#428=DIRECTION('',(-1.,0.,0.));
#429=DIRECTION('',(0.,0.,1.));
#430=DIRECTION('',(1.,0.,0.));
#431=DIRECTION('',(0.,0.,-1.));
#432=DIRECTION('',(-1.,0.,0.));
#433=DIRECTION('',(1.,0.,0.));
#434=DIRECTION('',(0.,0.,-1.));
#435=DIRECTION('',(0.,1.,0.));
#436=DIRECTION('',(0.,0.,1.));
#437=DIRECTION('',(0.,0.,-1.));
#438=DIRECTION('',(-1.,0.,0.));
#439=DIRECTION('',(0.,0.,-1.));
#440=DIRECTION('',(-1.,0.,0.));
#441=DIRECTION('',(0.,0.,1.));
#442=DIRECTION('',(1.,0.,0.));
#443=DIRECTION('',(0.,0.,-1.));
#444=DIRECTION('',(-1.,0.,0.));
#445=DIRECTION('',(1.,0.,0.));
#446=DIRECTION('',(0.,0.,-1.));
#447=DIRECTION('',(0.,0.,-1.));
#448=DIRECTION('',(-1.,0.,0.));
#449=DIRECTION('',(0.,-1.,0.));
#450=DIRECTION('',(-1.,0.,0.));
#451=DIRECTION('',(0.,-1.,0.));
#452=DIRECTION('',(-1.,0.,0.));
#453=DIRECTION('',(0.,0.,1.));
#454=DIRECTION('',(1.,0.,0.));
#455=DIRECTION('',(0.,0.,-1.));
#456=DIRECTION('',(-1.,0.,0.));
#457=DIRECTION('',(1.,0.,0.));
#458=DIRECTION('',(0.,0.,-1.));
#459=DIRECTION('',(0.,0.865219791475298,0.501392772623861));
#460=DIRECTION('',(0.,-0.501392772623861,0.865219791475298));
#461=DIRECTION('',(0.,0.501392772623861,-0.865219791475298));
#462=DIRECTION('',(-1.,0.,0.));
#463=DIRECTION('',(0.,0.501392772623861,-0.865219791475298));
#464=DIRECTION('',(-1.,0.,0.));
#465=DIRECTION('',(0.,0.,1.));
#466=DIRECTION('',(1.,0.,0.));
#467=DIRECTION('',(0.,0.,-1.));
#468=DIRECTION('',(-1.,0.,0.));
#469=DIRECTION('',(1.,0.,0.));
#470=DIRECTION('',(0.,0.,-1.));
#471=DIRECTION('',(0.,-2.94020928131662E-16,1.));
#472=DIRECTION('',(0.,-1.,-2.94020928131662E-16));
#473=DIRECTION('',(0.,0.,1.));
#474=DIRECTION('',(1.,0.,0.));
#475=DIRECTION('',(0.,1.,2.94020928131662E-16));
#476=DIRECTION('',(-1.,0.,0.));
#477=DIRECTION('',(0.,1.,2.94020928131662E-16));
#478=DIRECTION('',(-1.,0.,0.));
#479=DIRECTION('',(0.,0.,1.));
#480=DIRECTION('',(1.,0.,0.));
#481=DIRECTION('',(0.,0.,-1.));
#482=DIRECTION('',(-1.,0.,0.));
#483=DIRECTION('',(1.,0.,0.));
#484=DIRECTION('',(0.,0.,-1.));
#485=DIRECTION('',(0.,-0.865219791475298,0.501392772623861));
#486=DIRECTION('',(0.,-0.501392772623861,-0.865219791475298));
#487=DIRECTION('',(0.,0.501392772623861,0.865219791475298));
#488=DIRECTION('',(-1.,0.,0.));
#489=DIRECTION('',(0.,0.501392772623861,0.865219791475298));
#490=DIRECTION('',(-1.,0.,0.));
#491=DIRECTION('',(0.,0.,1.));
#492=DIRECTION('',(1.,0.,0.));
#493=DIRECTION('',(0.,0.,-1.));
#494=DIRECTION('',(-1.,0.,0.));
#495=DIRECTION('',(1.,0.,0.));
#496=DIRECTION('',(0.,0.,-1.));
#497=DIRECTION('',(0.,0.,-1.));
#498=DIRECTION('',(-1.,0.,0.));
#499=DIRECTION('',(0.,-1.,0.));
#500=DIRECTION('',(-1.,0.,0.));
#501=DIRECTION('',(0.,-1.,0.));
#502=DIRECTION('',(-1.,0.,0.));
#503=DIRECTION('',(0.,0.,1.));
#504=DIRECTION('',(1.,0.,0.));
#505=DIRECTION('',(0.,0.,-1.));
#506=DIRECTION('',(-1.,0.,0.));
#507=DIRECTION('',(1.,0.,0.));
#508=DIRECTION('',(0.,0.,-1.));
#509=DIRECTION('',(0.,-1.,0.));
#510=DIRECTION('',(0.,0.,-1.));
#511=DIRECTION('',(0.,0.,1.));
#512=DIRECTION('',(-1.,0.,0.));
#513=DIRECTION('',(0.,0.,1.));
#514=DIRECTION('',(-1.,0.,0.));
#515=DIRECTION('',(0.,0.,1.));
#516=DIRECTION('',(1.,0.,0.));
#517=DIRECTION('',(0.,0.,-1.));
#518=DIRECTION('',(1.,0.,0.));
#519=DIRECTION('',(0.,0.,-1.));
#520=DIRECTION('',(1.,0.,0.));
#521=DIRECTION('',(0.,0.,-1.));
#522=DIRECTION('',(1.,0.,0.));
#523=DIRECTION('',(0.,0.,-1.));
#524=DIRECTION('',(0.,0.,1.));
#525=DIRECTION('',(1.,0.,0.));
#526=CARTESIAN_POINT('',(0.,0.,0.));
#527=CARTESIAN_POINT('',(9.5,4.75,0.));
#528=CARTESIAN_POINT('',(0.,0.,0.));
#529=CARTESIAN_POINT('',(2.4585,0.,0.));
#530=CARTESIAN_POINT('',(-9.5,4.75,0.));
#531=CARTESIAN_POINT('',(-9.5,4.75,7.58941520739853E-16));
#532=CARTESIAN_POINT('',(-9.5,-4.75,0.));
#533=CARTESIAN_POINT('',(9.5,-4.75,0.));
#534=CARTESIAN_POINT('',(9.5,-4.75,0.));
#535=CARTESIAN_POINT('',(9.5,4.75,0.));
#536=CARTESIAN_POINT('',(9.5,4.75,7.58941520739853E-16));
#537=CARTESIAN_POINT('',(9.5,4.75,7.58941520739853E-16));
#538=CARTESIAN_POINT('',(9.5,-4.75,-0.200000000000001));
#539=CARTESIAN_POINT('',(-9.5,-4.75,-0.200000000000001));
#540=CARTESIAN_POINT('',(-9.5,-4.95,-0.2));
#541=CARTESIAN_POINT('',(9.5,-4.95,-0.2));
#542=CARTESIAN_POINT('',(9.5,-4.95,-0.2));
#543=CARTESIAN_POINT('',(9.5,-4.75,-0.200000000000001));
#544=CARTESIAN_POINT('',(9.5,-4.95,-0.2));
#545=CARTESIAN_POINT('',(-9.5,-4.95,-0.2));
#546=CARTESIAN_POINT('',(-9.5,-4.95,-1.3));
#547=CARTESIAN_POINT('',(9.5,-4.95,-1.3));
#548=CARTESIAN_POINT('',(9.5,-4.95,-1.3));
#549=CARTESIAN_POINT('',(9.5,-4.95,-0.2));
#550=CARTESIAN_POINT('',(9.5,-5.15,-1.3));
#551=CARTESIAN_POINT('',(-9.5,-5.15,-1.3));
#552=CARTESIAN_POINT('',(-9.5,-5.15,-1.5));
#553=CARTESIAN_POINT('',(9.5,-5.15,-1.5));
#554=CARTESIAN_POINT('',(9.5,-5.15,-1.5));
#555=CARTESIAN_POINT('',(9.5,-5.15,-1.3));
#556=CARTESIAN_POINT('',(9.5,-5.15,-1.5));
#557=CARTESIAN_POINT('',(-9.5,-5.15,-1.5));
#558=CARTESIAN_POINT('',(-9.5,-6.70041802045565,-1.5));
#559=CARTESIAN_POINT('',(9.5,-6.70041802045565,-1.5));
#560=CARTESIAN_POINT('',(9.5,-6.70041802045565,-1.5));
#561=CARTESIAN_POINT('',(9.5,-5.15,-1.5));
#562=CARTESIAN_POINT('',(9.5,-6.70041802045565,-1.8));
#563=CARTESIAN_POINT('',(-9.5,-6.70041802045565,-1.8));
#564=CARTESIAN_POINT('',(-9.5,-6.95998395789824,-1.95041783178716));
#565=CARTESIAN_POINT('',(9.5,-6.95998395789824,-1.95041783178716));
#566=CARTESIAN_POINT('',(9.5,-6.95998395789824,-1.95041783178716));
#567=CARTESIAN_POINT('',(9.5,-6.70041802045565,-1.8));
#568=CARTESIAN_POINT('',(9.5,-6.95998395789824,-1.95041783178716));
#569=CARTESIAN_POINT('',(-9.5,-6.95998395789824,-1.95041783178716));
#570=CARTESIAN_POINT('',(-9.5,-5.7258962516636,-4.08));
#571=CARTESIAN_POINT('',(9.5,-5.7258962516636,-4.08));
#572=CARTESIAN_POINT('',(9.5,-5.7258962516636,-4.08));
#573=CARTESIAN_POINT('',(9.5,-6.95998395789824,-1.95041783178716));
#574=CARTESIAN_POINT('',(9.5,-2.94999999999999,-1.19999999999999));
#575=CARTESIAN_POINT('',(-9.5,-2.94999999999999,-1.19999999999999));
#576=CARTESIAN_POINT('',(-9.5,-2.95,-5.2));
#577=CARTESIAN_POINT('',(9.5,-2.95,-5.2));
#578=CARTESIAN_POINT('',(9.5,-2.95,-5.2));
#579=CARTESIAN_POINT('',(9.5,-2.94999999999999,-1.19999999999999));
#580=CARTESIAN_POINT('',(9.5,-2.95,-5.2));
#581=CARTESIAN_POINT('',(0.,0.,-5.2));
#582=CARTESIAN_POINT('',(2.4585,0.,-5.2));
#583=CARTESIAN_POINT('',(-9.5,-2.95,-5.2));
#584=CARTESIAN_POINT('',(-9.5,2.95,-5.2));
#585=CARTESIAN_POINT('',(9.5,2.95,-5.2));
#586=CARTESIAN_POINT('',(9.5,2.95,-5.2));
#587=CARTESIAN_POINT('',(9.5,-2.95,-5.2));
#588=CARTESIAN_POINT('',(9.5,2.94999999999999,-1.19999999999998));
#589=CARTESIAN_POINT('',(-9.5,2.94999999999999,-1.19999999999998));
#590=CARTESIAN_POINT('',(-9.5,5.72589625166359,-4.08));
#591=CARTESIAN_POINT('',(9.5,5.72589625166359,-4.08));
#592=CARTESIAN_POINT('',(9.5,5.72589625166359,-4.08));
#593=CARTESIAN_POINT('',(9.5,2.94999999999999,-1.19999999999998));
#594=CARTESIAN_POINT('',(9.5,5.72589625166359,-4.08));
#595=CARTESIAN_POINT('',(-9.5,5.72589625166359,-4.08));
#596=CARTESIAN_POINT('',(-9.5,6.95998395789824,-1.95041783178716));
#597=CARTESIAN_POINT('',(9.5,6.95998395789824,-1.95041783178716));
#598=CARTESIAN_POINT('',(9.5,6.95998395789824,-1.95041783178716));
#599=CARTESIAN_POINT('',(9.5,5.72589625166359,-4.08));
#600=CARTESIAN_POINT('',(9.5,6.70041802045565,-1.8));
#601=CARTESIAN_POINT('',(-9.5,6.70041802045565,-1.8));
#602=CARTESIAN_POINT('',(-9.5,6.70041802045565,-1.5));
#603=CARTESIAN_POINT('',(9.5,6.70041802045565,-1.5));
#604=CARTESIAN_POINT('',(9.5,6.70041802045565,-1.5));
#605=CARTESIAN_POINT('',(9.5,6.70041802045565,-1.8));
#606=CARTESIAN_POINT('',(9.5,6.70041802045565,-1.5));
#607=CARTESIAN_POINT('',(-9.5,6.70041802045565,-1.5));
#608=CARTESIAN_POINT('',(-9.5,5.15,-1.5));
#609=CARTESIAN_POINT('',(9.5,5.15,-1.5));
#610=CARTESIAN_POINT('',(9.5,5.15,-1.5));
#611=CARTESIAN_POINT('',(9.5,6.70041802045565,-1.5));
#612=CARTESIAN_POINT('',(9.5,5.15,-1.3));
#613=CARTESIAN_POINT('',(-9.5,5.15,-1.3));
#614=CARTESIAN_POINT('',(-9.5,4.95,-1.3));
#615=CARTESIAN_POINT('',(9.5,4.95,-1.3));
#616=CARTESIAN_POINT('',(9.5,4.95,-1.3));
#617=CARTESIAN_POINT('',(9.5,5.15,-1.3));
#618=CARTESIAN_POINT('',(9.5,4.95,-1.3));
#619=CARTESIAN_POINT('',(-9.5,4.95,-1.3));
#620=CARTESIAN_POINT('',(-9.5,4.95,-0.2));
#621=CARTESIAN_POINT('',(9.5,4.95,-0.2));
#622=CARTESIAN_POINT('',(9.5,4.95,-0.2));
#623=CARTESIAN_POINT('',(9.5,4.95,-1.3));
#624=CARTESIAN_POINT('',(9.5,4.75,-0.200000000000001));
#625=CARTESIAN_POINT('',(-9.5,4.75,-0.200000000000001));
#626=CARTESIAN_POINT('',(9.5,4.75,-0.200000000000001));
#627=CARTESIAN_POINT('',(9.5,-4.75,-0.200000000000001));
#628=CARTESIAN_POINT('',(-9.5,-4.75,-0.200000000000001));
#629=CARTESIAN_POINT('',(0.,0.,0.));
#630=MECHANICAL_DESIGN_GEOMETRIC_PRESENTATION_REPRESENTATION('',(#369),
#631);
#631=(
GEOMETRIC_REPRESENTATION_CONTEXT(3)
GLOBAL_UNCERTAINTY_ASSIGNED_CONTEXT((#632))
GLOBAL_UNIT_ASSIGNED_CONTEXT((#635,#634,#633))
REPRESENTATION_CONTEXT('096166','TOP_LEVEL_ASSEMBLY_PART')
);
#632=UNCERTAINTY_MEASURE_WITH_UNIT(LENGTH_MEASURE(0.005),#635,
'DISTANCE_ACCURACY_VALUE','Maximum Tolerance applied to model');
#633=(
NAMED_UNIT(*)
SI_UNIT($,.STERADIAN.)
SOLID_ANGLE_UNIT()
);
#634=(
NAMED_UNIT(*)
PLANE_ANGLE_UNIT()
SI_UNIT($,.RADIAN.)
);
#635=(
LENGTH_UNIT()
NAMED_UNIT(*)
SI_UNIT(.MILLI.,.METRE.)
);
#636=PRODUCT_DEFINITION_SHAPE('','',#637);
#637=PRODUCT_DEFINITION('','',#639,#638);
#638=PRODUCT_DEFINITION_CONTEXT('',#645,'design');
#639=PRODUCT_DEFINITION_FORMATION_WITH_SPECIFIED_SOURCE('','',#641,
 .NOT_KNOWN.);
#640=PRODUCT_RELATED_PRODUCT_CATEGORY('','',(#641));
#641=PRODUCT('096166','096166','096166',(#643));
#642=PRODUCT_CATEGORY('','');
#643=PRODUCT_CONTEXT('',#645,'mechanical');
#644=APPLICATION_PROTOCOL_DEFINITION('international standard',
'automotive_design',2010,#645);
#645=APPLICATION_CONTEXT(
'core data for automotive mechanical design processes');
ENDSEC;
END-ISO-10303-21;
