ISO-10303-21;
HEADER;
/* Generated by software containing ST-Developer
 * from STEP Tools, Inc. (www.steptools.com) 
 */
/* OPTION: using custom renumber hook */

FILE_DESCRIPTION(
/* description */ ('STEP AP214'),
/* implementation_level */ '2;1');

FILE_NAME(
/* name */ '096168',
/* time_stamp */ '2022-09-01T14:43:29+02:00',
/* author */ ('License CC BY-ND 4.0'),
/* organization */ ('CADENAS'),
/* preprocessor_version */ 'ST-DEVELOPER v18.102',
/* originating_system */ 'PARTsolutions',
/* authorisation */ '  ');

FILE_SCHEMA (('AUTOMOTIVE_DESIGN {1 0 10303 214 3 1 1}'));
ENDSEC;

DATA;
#10=PROPERTY_DEFINITION_REPRESENTATION(#14,#12);
#11=PROPERTY_DEFINITION_REPRESENTATION(#15,#13);
#12=REPRESENTATION('',(#16),#683);
#13=REPRESENTATION('',(#17),#683);
#14=PROPERTY_DEFINITION('pmi validation property','',#688);
#15=PROPERTY_DEFINITION('pmi validation property','',#688);
#16=VALUE_REPRESENTATION_ITEM('number of annotations',COUNT_MEASURE(0.));
#17=VALUE_REPRESENTATION_ITEM('number of views',COUNT_MEASURE(0.));
#18=SHAPE_REPRESENTATION_RELATIONSHIP('','',#406,#19);
#19=ADVANCED_BREP_SHAPE_REPRESENTATION('',(#404),#683);
#20=PLANE('',#411);
#21=PLANE('',#416);
#22=PLANE('',#421);
#23=PLANE('',#425);
#24=PLANE('',#429);
#25=PLANE('',#430);
#26=PLANE('',#432);
#27=PLANE('',#436);
#28=PLANE('',#440);
#29=PLANE('',#444);
#30=PLANE('',#445);
#31=CIRCLE('',#409,4.00000000000001);
#32=CIRCLE('',#410,4.00000000000001);
#33=CIRCLE('',#412,3.3235);
#34=CIRCLE('',#414,4.00000000000002);
#35=CIRCLE('',#415,4.00000000000002);
#36=CIRCLE('',#417,3.3235);
#37=CIRCLE('',#419,0.200000000000001);
#38=CIRCLE('',#420,0.200000000000001);
#39=CIRCLE('',#423,0.200000000000001);
#40=CIRCLE('',#424,0.200000000000001);
#41=CIRCLE('',#427,0.3);
#42=CIRCLE('',#428,0.3);
#43=CIRCLE('',#431,3.3235);
#44=CIRCLE('',#434,0.3);
#45=CIRCLE('',#435,0.3);
#46=CIRCLE('',#438,0.200000000000001);
#47=CIRCLE('',#439,0.200000000000001);
#48=CIRCLE('',#442,0.200000000000001);
#49=CIRCLE('',#443,0.200000000000001);
#50=LINE('',#570,#84);
#51=LINE('',#574,#85);
#52=LINE('',#578,#86);
#53=LINE('',#582,#87);
#54=LINE('',#584,#88);
#55=LINE('',#594,#89);
#56=LINE('',#598,#90);
#57=LINE('',#602,#91);
#58=LINE('',#605,#92);
#59=LINE('',#607,#93);
#60=LINE('',#609,#94);
#61=LINE('',#613,#95);
#62=LINE('',#617,#96);
#63=LINE('',#619,#97);
#64=LINE('',#621,#98);
#65=LINE('',#625,#99);
#66=LINE('',#629,#100);
#67=LINE('',#631,#101);
#68=LINE('',#633,#102);
#69=LINE('',#637,#103);
#70=LINE('',#641,#104);
#71=LINE('',#642,#105);
#72=LINE('',#645,#106);
#73=LINE('',#647,#107);
#74=LINE('',#649,#108);
#75=LINE('',#651,#109);
#76=LINE('',#655,#110);
#77=LINE('',#659,#111);
#78=LINE('',#661,#112);
#79=LINE('',#663,#113);
#80=LINE('',#667,#114);
#81=LINE('',#671,#115);
#82=LINE('',#673,#116);
#83=LINE('',#675,#117);
#84=VECTOR('',#451,1000.);
#85=VECTOR('',#454,1000.);
#86=VECTOR('',#457,1000.);
#87=VECTOR('',#462,1000.);
#88=VECTOR('',#463,1000.);
#89=VECTOR('',#468,1000.);
#90=VECTOR('',#471,1000.);
#91=VECTOR('',#476,1000.);
#92=VECTOR('',#477,1000.);
#93=VECTOR('',#478,1000.);
#94=VECTOR('',#479,1000.);
#95=VECTOR('',#484,1000.);
#96=VECTOR('',#489,1000.);
#97=VECTOR('',#490,1000.);
#98=VECTOR('',#491,1000.);
#99=VECTOR('',#496,1000.);
#100=VECTOR('',#501,1000.);
#101=VECTOR('',#502,1000.);
#102=VECTOR('',#503,1000.);
#103=VECTOR('',#508,1000.);
#104=VECTOR('',#513,1000.);
#105=VECTOR('',#514,1000.);
#106=VECTOR('',#519,1000.);
#107=VECTOR('',#522,1000.);
#108=VECTOR('',#523,1000.);
#109=VECTOR('',#524,1000.);
#110=VECTOR('',#529,1000.);
#111=VECTOR('',#534,1000.);
#112=VECTOR('',#535,1000.);
#113=VECTOR('',#536,1000.);
#114=VECTOR('',#541,1000.);
#115=VECTOR('',#546,1000.);
#116=VECTOR('',#547,1000.);
#117=VECTOR('',#548,1000.);
#118=ORIENTED_EDGE('',*,*,#228,.F.);
#119=ORIENTED_EDGE('',*,*,#229,.F.);
#120=ORIENTED_EDGE('',*,*,#230,.F.);
#121=ORIENTED_EDGE('',*,*,#231,.T.);
#122=ORIENTED_EDGE('',*,*,#232,.T.);
#123=ORIENTED_EDGE('',*,*,#233,.F.);
#124=ORIENTED_EDGE('',*,*,#234,.T.);
#125=ORIENTED_EDGE('',*,*,#233,.T.);
#126=ORIENTED_EDGE('',*,*,#235,.T.);
#127=ORIENTED_EDGE('',*,*,#236,.F.);
#128=ORIENTED_EDGE('',*,*,#237,.F.);
#129=ORIENTED_EDGE('',*,*,#236,.T.);
#130=ORIENTED_EDGE('',*,*,#238,.T.);
#131=ORIENTED_EDGE('',*,*,#239,.F.);
#132=ORIENTED_EDGE('',*,*,#240,.F.);
#133=ORIENTED_EDGE('',*,*,#241,.T.);
#134=ORIENTED_EDGE('',*,*,#242,.F.);
#135=ORIENTED_EDGE('',*,*,#243,.T.);
#136=ORIENTED_EDGE('',*,*,#244,.F.);
#137=ORIENTED_EDGE('',*,*,#245,.F.);
#138=ORIENTED_EDGE('',*,*,#246,.T.);
#139=ORIENTED_EDGE('',*,*,#247,.T.);
#140=ORIENTED_EDGE('',*,*,#248,.F.);
#141=ORIENTED_EDGE('',*,*,#249,.F.);
#142=ORIENTED_EDGE('',*,*,#244,.T.);
#143=ORIENTED_EDGE('',*,*,#250,.T.);
#144=ORIENTED_EDGE('',*,*,#251,.F.);
#145=ORIENTED_EDGE('',*,*,#252,.F.);
#146=ORIENTED_EDGE('',*,*,#248,.T.);
#147=ORIENTED_EDGE('',*,*,#253,.F.);
#148=ORIENTED_EDGE('',*,*,#254,.F.);
#149=ORIENTED_EDGE('',*,*,#255,.T.);
#150=ORIENTED_EDGE('',*,*,#251,.T.);
#151=ORIENTED_EDGE('',*,*,#256,.T.);
#152=ORIENTED_EDGE('',*,*,#257,.F.);
#153=ORIENTED_EDGE('',*,*,#258,.F.);
#154=ORIENTED_EDGE('',*,*,#254,.T.);
#155=ORIENTED_EDGE('',*,*,#259,.T.);
#156=ORIENTED_EDGE('',*,*,#260,.F.);
#157=ORIENTED_EDGE('',*,*,#261,.F.);
#158=ORIENTED_EDGE('',*,*,#257,.T.);
#159=ORIENTED_EDGE('',*,*,#262,.T.);
#160=ORIENTED_EDGE('',*,*,#231,.F.);
#161=ORIENTED_EDGE('',*,*,#263,.F.);
#162=ORIENTED_EDGE('',*,*,#260,.T.);
#163=ORIENTED_EDGE('',*,*,#264,.T.);
#164=ORIENTED_EDGE('',*,*,#241,.F.);
#165=ORIENTED_EDGE('',*,*,#265,.F.);
#166=ORIENTED_EDGE('',*,*,#229,.T.);
#167=ORIENTED_EDGE('',*,*,#266,.T.);
#168=ORIENTED_EDGE('',*,*,#267,.F.);
#169=ORIENTED_EDGE('',*,*,#268,.F.);
#170=ORIENTED_EDGE('',*,*,#239,.T.);
#171=ORIENTED_EDGE('',*,*,#269,.T.);
#172=ORIENTED_EDGE('',*,*,#270,.F.);
#173=ORIENTED_EDGE('',*,*,#271,.F.);
#174=ORIENTED_EDGE('',*,*,#267,.T.);
#175=ORIENTED_EDGE('',*,*,#272,.T.);
#176=ORIENTED_EDGE('',*,*,#273,.F.);
#177=ORIENTED_EDGE('',*,*,#274,.F.);
#178=ORIENTED_EDGE('',*,*,#270,.T.);
#179=ORIENTED_EDGE('',*,*,#275,.F.);
#180=ORIENTED_EDGE('',*,*,#276,.F.);
#181=ORIENTED_EDGE('',*,*,#277,.T.);
#182=ORIENTED_EDGE('',*,*,#273,.T.);
#183=ORIENTED_EDGE('',*,*,#278,.T.);
#184=ORIENTED_EDGE('',*,*,#279,.F.);
#185=ORIENTED_EDGE('',*,*,#280,.F.);
#186=ORIENTED_EDGE('',*,*,#276,.T.);
#187=ORIENTED_EDGE('',*,*,#281,.T.);
#188=ORIENTED_EDGE('',*,*,#246,.F.);
#189=ORIENTED_EDGE('',*,*,#282,.F.);
#190=ORIENTED_EDGE('',*,*,#279,.T.);
#191=ORIENTED_EDGE('',*,*,#245,.T.);
#192=ORIENTED_EDGE('',*,*,#249,.T.);
#193=ORIENTED_EDGE('',*,*,#252,.T.);
#194=ORIENTED_EDGE('',*,*,#255,.F.);
#195=ORIENTED_EDGE('',*,*,#258,.T.);
#196=ORIENTED_EDGE('',*,*,#261,.T.);
#197=ORIENTED_EDGE('',*,*,#263,.T.);
#198=ORIENTED_EDGE('',*,*,#230,.T.);
#199=ORIENTED_EDGE('',*,*,#265,.T.);
#200=ORIENTED_EDGE('',*,*,#240,.T.);
#201=ORIENTED_EDGE('',*,*,#268,.T.);
#202=ORIENTED_EDGE('',*,*,#271,.T.);
#203=ORIENTED_EDGE('',*,*,#274,.T.);
#204=ORIENTED_EDGE('',*,*,#277,.F.);
#205=ORIENTED_EDGE('',*,*,#280,.T.);
#206=ORIENTED_EDGE('',*,*,#282,.T.);
#207=ORIENTED_EDGE('',*,*,#243,.F.);
#208=ORIENTED_EDGE('',*,*,#281,.F.);
#209=ORIENTED_EDGE('',*,*,#278,.F.);
#210=ORIENTED_EDGE('',*,*,#275,.T.);
#211=ORIENTED_EDGE('',*,*,#272,.F.);
#212=ORIENTED_EDGE('',*,*,#269,.F.);
#213=ORIENTED_EDGE('',*,*,#266,.F.);
#214=ORIENTED_EDGE('',*,*,#238,.F.);
#215=ORIENTED_EDGE('',*,*,#235,.F.);
#216=ORIENTED_EDGE('',*,*,#232,.F.);
#217=ORIENTED_EDGE('',*,*,#262,.F.);
#218=ORIENTED_EDGE('',*,*,#259,.F.);
#219=ORIENTED_EDGE('',*,*,#256,.F.);
#220=ORIENTED_EDGE('',*,*,#253,.T.);
#221=ORIENTED_EDGE('',*,*,#250,.F.);
#222=ORIENTED_EDGE('',*,*,#247,.F.);
#223=ORIENTED_EDGE('',*,*,#242,.T.);
#224=ORIENTED_EDGE('',*,*,#228,.T.);
#225=ORIENTED_EDGE('',*,*,#234,.F.);
#226=ORIENTED_EDGE('',*,*,#237,.T.);
#227=ORIENTED_EDGE('',*,*,#264,.F.);
#228=EDGE_CURVE('',#283,#284,#320,.T.);
#229=EDGE_CURVE('',#285,#283,#50,.T.);
#230=EDGE_CURVE('',#286,#285,#31,.T.);
#231=EDGE_CURVE('',#286,#287,#51,.T.);
#232=EDGE_CURVE('',#287,#288,#32,.T.);
#233=EDGE_CURVE('',#284,#288,#52,.T.);
#234=EDGE_CURVE('',#289,#284,#33,.T.);
#235=EDGE_CURVE('',#288,#290,#53,.T.);
#236=EDGE_CURVE('',#289,#290,#54,.T.);
#237=EDGE_CURVE('',#289,#291,#321,.T.);
#238=EDGE_CURVE('',#290,#292,#34,.T.);
#239=EDGE_CURVE('',#293,#292,#55,.T.);
#240=EDGE_CURVE('',#294,#293,#35,.T.);
#241=EDGE_CURVE('',#294,#291,#56,.T.);
#242=EDGE_CURVE('',#295,#295,#36,.T.);
#243=EDGE_CURVE('',#296,#297,#57,.T.);
#244=EDGE_CURVE('',#298,#297,#58,.T.);
#245=EDGE_CURVE('',#299,#298,#59,.T.);
#246=EDGE_CURVE('',#299,#296,#60,.T.);
#247=EDGE_CURVE('',#297,#300,#37,.T.);
#248=EDGE_CURVE('',#301,#300,#61,.T.);
#249=EDGE_CURVE('',#298,#301,#38,.T.);
#250=EDGE_CURVE('',#300,#302,#62,.T.);
#251=EDGE_CURVE('',#303,#302,#63,.T.);
#252=EDGE_CURVE('',#301,#303,#64,.T.);
#253=EDGE_CURVE('',#304,#302,#39,.T.);
#254=EDGE_CURVE('',#305,#304,#65,.T.);
#255=EDGE_CURVE('',#305,#303,#40,.T.);
#256=EDGE_CURVE('',#304,#306,#66,.T.);
#257=EDGE_CURVE('',#307,#306,#67,.T.);
#258=EDGE_CURVE('',#305,#307,#68,.T.);
#259=EDGE_CURVE('',#306,#308,#41,.T.);
#260=EDGE_CURVE('',#309,#308,#69,.T.);
#261=EDGE_CURVE('',#307,#309,#42,.T.);
#262=EDGE_CURVE('',#308,#287,#70,.T.);
#263=EDGE_CURVE('',#309,#286,#71,.T.);
#264=EDGE_CURVE('',#283,#291,#43,.T.);
#265=EDGE_CURVE('',#285,#294,#72,.T.);
#266=EDGE_CURVE('',#292,#310,#73,.T.);
#267=EDGE_CURVE('',#311,#310,#74,.T.);
#268=EDGE_CURVE('',#293,#311,#75,.T.);
#269=EDGE_CURVE('',#310,#312,#44,.T.);
#270=EDGE_CURVE('',#313,#312,#76,.T.);
#271=EDGE_CURVE('',#311,#313,#45,.T.);
#272=EDGE_CURVE('',#312,#314,#77,.T.);
#273=EDGE_CURVE('',#315,#314,#78,.T.);
#274=EDGE_CURVE('',#313,#315,#79,.T.);
#275=EDGE_CURVE('',#316,#314,#46,.T.);
#276=EDGE_CURVE('',#317,#316,#80,.T.);
#277=EDGE_CURVE('',#317,#315,#47,.T.);
#278=EDGE_CURVE('',#316,#318,#81,.T.);
#279=EDGE_CURVE('',#319,#318,#82,.T.);
#280=EDGE_CURVE('',#317,#319,#83,.T.);
#281=EDGE_CURVE('',#318,#296,#48,.T.);
#282=EDGE_CURVE('',#319,#299,#49,.T.);
#283=VERTEX_POINT('',#568);
#284=VERTEX_POINT('',#569);
#285=VERTEX_POINT('',#571);
#286=VERTEX_POINT('',#573);
#287=VERTEX_POINT('',#575);
#288=VERTEX_POINT('',#577);
#289=VERTEX_POINT('',#581);
#290=VERTEX_POINT('',#583);
#291=VERTEX_POINT('',#591);
#292=VERTEX_POINT('',#593);
#293=VERTEX_POINT('',#595);
#294=VERTEX_POINT('',#597);
#295=VERTEX_POINT('',#601);
#296=VERTEX_POINT('',#603);
#297=VERTEX_POINT('',#604);
#298=VERTEX_POINT('',#606);
#299=VERTEX_POINT('',#608);
#300=VERTEX_POINT('',#612);
#301=VERTEX_POINT('',#614);
#302=VERTEX_POINT('',#618);
#303=VERTEX_POINT('',#620);
#304=VERTEX_POINT('',#624);
#305=VERTEX_POINT('',#626);
#306=VERTEX_POINT('',#630);
#307=VERTEX_POINT('',#632);
#308=VERTEX_POINT('',#636);
#309=VERTEX_POINT('',#638);
#310=VERTEX_POINT('',#648);
#311=VERTEX_POINT('',#650);
#312=VERTEX_POINT('',#654);
#313=VERTEX_POINT('',#656);
#314=VERTEX_POINT('',#660);
#315=VERTEX_POINT('',#662);
#316=VERTEX_POINT('',#666);
#317=VERTEX_POINT('',#668);
#318=VERTEX_POINT('',#672);
#319=VERTEX_POINT('',#674);
#320=B_SPLINE_CURVE_WITH_KNOTS('',3,(#563,#564,#565,#566,#567),
 .UNSPECIFIED.,.F.,.F.,(4,1,4),(7.81829305173188E-19,0.00158210806785152,
0.00316421613570304),.UNSPECIFIED.);
#321=B_SPLINE_CURVE_WITH_KNOTS('',3,(#586,#587,#588,#589,#590),
 .UNSPECIFIED.,.F.,.F.,(4,1,4),(0.,0.00158210806785152,0.00316421613570305),
 .UNSPECIFIED.);
#322=EDGE_LOOP('',(#118,#119,#120,#121,#122,#123));
#323=EDGE_LOOP('',(#124,#125,#126,#127));
#324=EDGE_LOOP('',(#128,#129,#130,#131,#132,#133));
#325=EDGE_LOOP('',(#134));
#326=EDGE_LOOP('',(#135,#136,#137,#138));
#327=EDGE_LOOP('',(#139,#140,#141,#142));
#328=EDGE_LOOP('',(#143,#144,#145,#146));
#329=EDGE_LOOP('',(#147,#148,#149,#150));
#330=EDGE_LOOP('',(#151,#152,#153,#154));
#331=EDGE_LOOP('',(#155,#156,#157,#158));
#332=EDGE_LOOP('',(#159,#160,#161,#162));
#333=EDGE_LOOP('',(#163,#164,#165,#166));
#334=EDGE_LOOP('',(#167,#168,#169,#170));
#335=EDGE_LOOP('',(#171,#172,#173,#174));
#336=EDGE_LOOP('',(#175,#176,#177,#178));
#337=EDGE_LOOP('',(#179,#180,#181,#182));
#338=EDGE_LOOP('',(#183,#184,#185,#186));
#339=EDGE_LOOP('',(#187,#188,#189,#190));
#340=EDGE_LOOP('',(#191,#192,#193,#194,#195,#196,#197,#198,#199,#200,#201,
#202,#203,#204,#205,#206));
#341=EDGE_LOOP('',(#207,#208,#209,#210,#211,#212,#213,#214,#215,#216,#217,
#218,#219,#220,#221,#222));
#342=EDGE_LOOP('',(#223));
#343=EDGE_LOOP('',(#224,#225,#226,#227));
#344=FACE_BOUND('',#322,.T.);
#345=FACE_BOUND('',#323,.T.);
#346=FACE_BOUND('',#324,.T.);
#347=FACE_BOUND('',#325,.T.);
#348=FACE_BOUND('',#326,.T.);
#349=FACE_BOUND('',#327,.T.);
#350=FACE_BOUND('',#328,.T.);
#351=FACE_BOUND('',#329,.T.);
#352=FACE_BOUND('',#330,.T.);
#353=FACE_BOUND('',#331,.T.);
#354=FACE_BOUND('',#332,.T.);
#355=FACE_BOUND('',#333,.T.);
#356=FACE_BOUND('',#334,.T.);
#357=FACE_BOUND('',#335,.T.);
#358=FACE_BOUND('',#336,.T.);
#359=FACE_BOUND('',#337,.T.);
#360=FACE_BOUND('',#338,.T.);
#361=FACE_BOUND('',#339,.T.);
#362=FACE_BOUND('',#340,.T.);
#363=FACE_BOUND('',#341,.T.);
#364=FACE_BOUND('',#342,.T.);
#365=FACE_BOUND('',#343,.T.);
#366=CYLINDRICAL_SURFACE('',#408,4.00000000000001);
#367=CYLINDRICAL_SURFACE('',#413,4.00000000000002);
#368=CYLINDRICAL_SURFACE('',#418,0.200000000000001);
#369=CYLINDRICAL_SURFACE('',#422,0.200000000000001);
#370=CYLINDRICAL_SURFACE('',#426,0.3);
#371=CYLINDRICAL_SURFACE('',#433,0.3);
#372=CYLINDRICAL_SURFACE('',#437,0.200000000000001);
#373=CYLINDRICAL_SURFACE('',#441,0.200000000000001);
#374=CYLINDRICAL_SURFACE('',#446,3.3235);
#375=ADVANCED_FACE('',(#344),#366,.T.);
#376=ADVANCED_FACE('',(#345),#20,.F.);
#377=ADVANCED_FACE('',(#346),#367,.T.);
#378=ADVANCED_FACE('',(#347,#348),#21,.F.);
#379=ADVANCED_FACE('',(#349),#368,.T.);
#380=ADVANCED_FACE('',(#350),#22,.F.);
#381=ADVANCED_FACE('',(#351),#369,.F.);
#382=ADVANCED_FACE('',(#352),#23,.F.);
#383=ADVANCED_FACE('',(#353),#370,.T.);
#384=ADVANCED_FACE('',(#354),#24,.F.);
#385=ADVANCED_FACE('',(#355),#25,.F.);
#386=ADVANCED_FACE('',(#356),#26,.F.);
#387=ADVANCED_FACE('',(#357),#371,.T.);
#388=ADVANCED_FACE('',(#358),#27,.F.);
#389=ADVANCED_FACE('',(#359),#372,.F.);
#390=ADVANCED_FACE('',(#360),#28,.F.);
#391=ADVANCED_FACE('',(#361),#373,.T.);
#392=ADVANCED_FACE('',(#362),#29,.T.);
#393=ADVANCED_FACE('',(#363),#30,.F.);
#394=ADVANCED_FACE('',(#364,#365),#374,.F.);
#395=CLOSED_SHELL('',(#375,#376,#377,#378,#379,#380,#381,#382,#383,#384,
#385,#386,#387,#388,#389,#390,#391,#392,#393,#394));
#396=STYLED_ITEM('',(#397),#404);
#397=PRESENTATION_STYLE_ASSIGNMENT((#398));
#398=SURFACE_STYLE_USAGE(.BOTH.,#399);
#399=SURFACE_SIDE_STYLE('',(#400));
#400=SURFACE_STYLE_FILL_AREA(#401);
#401=FILL_AREA_STYLE('',(#402));
#402=FILL_AREA_STYLE_COLOUR('',#403);
#403=COLOUR_RGB('',0.7294117808342,0.76862746477127,0.7843137383461);
#404=MANIFOLD_SOLID_BREP('096168',#395);
#405=SHAPE_DEFINITION_REPRESENTATION(#688,#406);
#406=SHAPE_REPRESENTATION('096168',(#407),#683);
#407=AXIS2_PLACEMENT_3D('',#561,#447,#448);
#408=AXIS2_PLACEMENT_3D('',#562,#449,#450);
#409=AXIS2_PLACEMENT_3D('',#572,#452,#453);
#410=AXIS2_PLACEMENT_3D('',#576,#455,#456);
#411=AXIS2_PLACEMENT_3D('',#579,#458,#459);
#412=AXIS2_PLACEMENT_3D('',#580,#460,#461);
#413=AXIS2_PLACEMENT_3D('',#585,#464,#465);
#414=AXIS2_PLACEMENT_3D('',#592,#466,#467);
#415=AXIS2_PLACEMENT_3D('',#596,#469,#470);
#416=AXIS2_PLACEMENT_3D('',#599,#472,#473);
#417=AXIS2_PLACEMENT_3D('',#600,#474,#475);
#418=AXIS2_PLACEMENT_3D('',#610,#480,#481);
#419=AXIS2_PLACEMENT_3D('',#611,#482,#483);
#420=AXIS2_PLACEMENT_3D('',#615,#485,#486);
#421=AXIS2_PLACEMENT_3D('',#616,#487,#488);
#422=AXIS2_PLACEMENT_3D('',#622,#492,#493);
#423=AXIS2_PLACEMENT_3D('',#623,#494,#495);
#424=AXIS2_PLACEMENT_3D('',#627,#497,#498);
#425=AXIS2_PLACEMENT_3D('',#628,#499,#500);
#426=AXIS2_PLACEMENT_3D('',#634,#504,#505);
#427=AXIS2_PLACEMENT_3D('',#635,#506,#507);
#428=AXIS2_PLACEMENT_3D('',#639,#509,#510);
#429=AXIS2_PLACEMENT_3D('',#640,#511,#512);
#430=AXIS2_PLACEMENT_3D('',#643,#515,#516);
#431=AXIS2_PLACEMENT_3D('',#644,#517,#518);
#432=AXIS2_PLACEMENT_3D('',#646,#520,#521);
#433=AXIS2_PLACEMENT_3D('',#652,#525,#526);
#434=AXIS2_PLACEMENT_3D('',#653,#527,#528);
#435=AXIS2_PLACEMENT_3D('',#657,#530,#531);
#436=AXIS2_PLACEMENT_3D('',#658,#532,#533);
#437=AXIS2_PLACEMENT_3D('',#664,#537,#538);
#438=AXIS2_PLACEMENT_3D('',#665,#539,#540);
#439=AXIS2_PLACEMENT_3D('',#669,#542,#543);
#440=AXIS2_PLACEMENT_3D('',#670,#544,#545);
#441=AXIS2_PLACEMENT_3D('',#676,#549,#550);
#442=AXIS2_PLACEMENT_3D('',#677,#551,#552);
#443=AXIS2_PLACEMENT_3D('',#678,#553,#554);
#444=AXIS2_PLACEMENT_3D('',#679,#555,#556);
#445=AXIS2_PLACEMENT_3D('',#680,#557,#558);
#446=AXIS2_PLACEMENT_3D('',#681,#559,#560);
#447=DIRECTION('',(0.,0.,1.));
#448=DIRECTION('',(1.,0.,0.));
#449=DIRECTION('',(-1.,0.,0.));
#450=DIRECTION('',(0.,0.,1.));
#451=DIRECTION('',(-1.,0.,0.));
#452=DIRECTION('',(1.,0.,0.));
#453=DIRECTION('',(0.,0.,-1.));
#454=DIRECTION('',(-1.,0.,0.));
#455=DIRECTION('',(1.,0.,0.));
#456=DIRECTION('',(0.,0.,-1.));
#457=DIRECTION('',(-1.,0.,0.));
#458=DIRECTION('',(0.,-2.94020928131662E-16,1.));
#459=DIRECTION('',(0.,-1.,-2.94020928131662E-16));
#460=DIRECTION('',(0.,0.,1.));
#461=DIRECTION('',(1.,0.,0.));
#462=DIRECTION('',(0.,1.,2.94020928131662E-16));
#463=DIRECTION('',(-1.,0.,0.));
#464=DIRECTION('',(-1.,0.,0.));
#465=DIRECTION('',(0.,0.,1.));
#466=DIRECTION('',(1.,0.,0.));
#467=DIRECTION('',(0.,0.,-1.));
#468=DIRECTION('',(-1.,0.,0.));
#469=DIRECTION('',(1.,0.,0.));
#470=DIRECTION('',(0.,0.,-1.));
#471=DIRECTION('',(-1.,0.,0.));
#472=DIRECTION('',(0.,0.,-1.));
#473=DIRECTION('',(-1.,0.,0.));
#474=DIRECTION('',(0.,0.,1.));
#475=DIRECTION('',(1.,0.,0.));
#476=DIRECTION('',(0.,-1.,0.));
#477=DIRECTION('',(-1.,0.,0.));
#478=DIRECTION('',(0.,-1.,0.));
#479=DIRECTION('',(-1.,0.,0.));
#480=DIRECTION('',(-1.,0.,0.));
#481=DIRECTION('',(0.,0.,1.));
#482=DIRECTION('',(1.,0.,0.));
#483=DIRECTION('',(0.,0.,-1.));
#484=DIRECTION('',(-1.,0.,0.));
#485=DIRECTION('',(1.,0.,0.));
#486=DIRECTION('',(0.,0.,-1.));
#487=DIRECTION('',(0.,1.,0.));
#488=DIRECTION('',(0.,0.,1.));
#489=DIRECTION('',(0.,0.,-1.));
#490=DIRECTION('',(-1.,0.,0.));
#491=DIRECTION('',(0.,0.,-1.));
#492=DIRECTION('',(-1.,0.,0.));
#493=DIRECTION('',(0.,0.,1.));
#494=DIRECTION('',(1.,0.,0.));
#495=DIRECTION('',(0.,0.,-1.));
#496=DIRECTION('',(-1.,0.,0.));
#497=DIRECTION('',(1.,0.,0.));
#498=DIRECTION('',(0.,0.,-1.));
#499=DIRECTION('',(0.,0.,-1.));
#500=DIRECTION('',(-1.,0.,0.));
#501=DIRECTION('',(0.,-1.,0.));
#502=DIRECTION('',(-1.,0.,0.));
#503=DIRECTION('',(0.,-1.,0.));
#504=DIRECTION('',(-1.,0.,0.));
#505=DIRECTION('',(0.,0.,1.));
#506=DIRECTION('',(1.,0.,0.));
#507=DIRECTION('',(0.,0.,-1.));
#508=DIRECTION('',(-1.,0.,0.));
#509=DIRECTION('',(1.,0.,0.));
#510=DIRECTION('',(0.,0.,-1.));
#511=DIRECTION('',(0.,0.865219791475298,0.501392772623861));
#512=DIRECTION('',(0.,-0.501392772623861,0.865219791475298));
#513=DIRECTION('',(0.,0.501392772623861,-0.865219791475298));
#514=DIRECTION('',(0.,0.501392772623861,-0.865219791475298));
#515=DIRECTION('',(0.,-2.94020928131662E-16,1.));
#516=DIRECTION('',(0.,-1.,-2.94020928131662E-16));
#517=DIRECTION('',(0.,0.,1.));
#518=DIRECTION('',(1.,0.,0.));
#519=DIRECTION('',(0.,1.,2.94020928131662E-16));
#520=DIRECTION('',(0.,-0.865219791475298,0.501392772623861));
#521=DIRECTION('',(0.,-0.501392772623861,-0.865219791475298));
#522=DIRECTION('',(0.,0.501392772623861,0.865219791475298));
#523=DIRECTION('',(-1.,0.,0.));
#524=DIRECTION('',(0.,0.501392772623861,0.865219791475298));
#525=DIRECTION('',(-1.,0.,0.));
#526=DIRECTION('',(0.,0.,1.));
#527=DIRECTION('',(1.,0.,0.));
#528=DIRECTION('',(0.,0.,-1.));
#529=DIRECTION('',(-1.,0.,0.));
#530=DIRECTION('',(1.,0.,0.));
#531=DIRECTION('',(0.,0.,-1.));
#532=DIRECTION('',(0.,0.,-1.));
#533=DIRECTION('',(-1.,0.,0.));
#534=DIRECTION('',(0.,-1.,0.));
#535=DIRECTION('',(-1.,0.,0.));
#536=DIRECTION('',(0.,-1.,0.));
#537=DIRECTION('',(-1.,0.,0.));
#538=DIRECTION('',(0.,0.,1.));
#539=DIRECTION('',(1.,0.,0.));
#540=DIRECTION('',(0.,0.,-1.));
#541=DIRECTION('',(-1.,0.,0.));
#542=DIRECTION('',(1.,0.,0.));
#543=DIRECTION('',(0.,0.,-1.));
#544=DIRECTION('',(0.,-1.,0.));
#545=DIRECTION('',(0.,0.,-1.));
#546=DIRECTION('',(0.,0.,1.));
#547=DIRECTION('',(-1.,0.,0.));
#548=DIRECTION('',(0.,0.,1.));
#549=DIRECTION('',(-1.,0.,0.));
#550=DIRECTION('',(0.,0.,1.));
#551=DIRECTION('',(1.,0.,0.));
#552=DIRECTION('',(0.,0.,-1.));
#553=DIRECTION('',(1.,0.,0.));
#554=DIRECTION('',(0.,0.,-1.));
#555=DIRECTION('',(1.,0.,0.));
#556=DIRECTION('',(0.,0.,-1.));
#557=DIRECTION('',(1.,0.,0.));
#558=DIRECTION('',(0.,0.,-1.));
#559=DIRECTION('',(0.,0.,1.));
#560=DIRECTION('',(1.,0.,0.));
#561=CARTESIAN_POINT('',(0.,0.,0.));
#562=CARTESIAN_POINT('',(9.5,-2.94999999999999,-1.19999999999999));
#563=CARTESIAN_POINT('',(1.5307358524579,-2.95,-5.2));
#564=CARTESIAN_POINT('',(1.0558670856856,-3.19640632085112,-5.2));
#565=CARTESIAN_POINT('',(0.00177434374509615,-3.45059632758535,-5.16504810729962));
#566=CARTESIAN_POINT('',(-1.0558782007835,-3.19640055329897,-5.2));
#567=CARTESIAN_POINT('',(-1.5307358524579,-2.95,-5.2));
#568=CARTESIAN_POINT('',(1.5307358524579,-2.95,-5.2));
#569=CARTESIAN_POINT('',(-1.5307358524579,-2.95,-5.2));
#570=CARTESIAN_POINT('',(9.5,-2.95,-5.2));
#571=CARTESIAN_POINT('',(9.5,-2.95,-5.2));
#572=CARTESIAN_POINT('',(9.5,-2.94999999999999,-1.19999999999999));
#573=CARTESIAN_POINT('',(9.5,-5.7258962516636,-4.08));
#574=CARTESIAN_POINT('',(9.5,-5.7258962516636,-4.08));
#575=CARTESIAN_POINT('',(-9.5,-5.7258962516636,-4.08));
#576=CARTESIAN_POINT('',(-9.5,-2.94999999999999,-1.19999999999999));
#577=CARTESIAN_POINT('',(-9.5,-2.95,-5.2));
#578=CARTESIAN_POINT('',(9.5,-2.95,-5.2));
#579=CARTESIAN_POINT('',(9.5,-2.95,-5.2));
#580=CARTESIAN_POINT('',(0.,0.,-5.2));
#581=CARTESIAN_POINT('',(-1.53073585245789,2.95,-5.2));
#582=CARTESIAN_POINT('',(-9.5,-2.95,-5.2));
#583=CARTESIAN_POINT('',(-9.5,2.95,-5.2));
#584=CARTESIAN_POINT('',(9.5,2.95,-5.2));
#585=CARTESIAN_POINT('',(9.5,2.94999999999999,-1.19999999999998));
#586=CARTESIAN_POINT('',(-1.53073585245789,2.95,-5.2));
#587=CARTESIAN_POINT('',(-1.0558670856856,3.19640632085113,-5.2));
#588=CARTESIAN_POINT('',(-0.00177434374507934,3.45059632758535,-5.16504810729962));
#589=CARTESIAN_POINT('',(1.0558782007835,3.19640055329897,-5.2));
#590=CARTESIAN_POINT('',(1.53073585245789,2.95,-5.2));
#591=CARTESIAN_POINT('',(1.53073585245791,2.94999999999999,-5.2));
#592=CARTESIAN_POINT('',(-9.5,2.94999999999999,-1.19999999999998));
#593=CARTESIAN_POINT('',(-9.5,5.72589625166359,-4.08));
#594=CARTESIAN_POINT('',(9.5,5.72589625166359,-4.08));
#595=CARTESIAN_POINT('',(9.5,5.72589625166359,-4.08));
#596=CARTESIAN_POINT('',(9.5,2.94999999999999,-1.19999999999998));
#597=CARTESIAN_POINT('',(9.5,2.95,-5.2));
#598=CARTESIAN_POINT('',(9.5,2.95,-5.2));
#599=CARTESIAN_POINT('',(9.5,4.75,0.));
#600=CARTESIAN_POINT('',(0.,0.,0.));
#601=CARTESIAN_POINT('',(3.3235,0.,0.));
#602=CARTESIAN_POINT('',(-9.5,4.75,0.));
#603=CARTESIAN_POINT('',(-9.5,4.75,7.58941520739853E-16));
#604=CARTESIAN_POINT('',(-9.5,-4.75,0.));
#605=CARTESIAN_POINT('',(9.5,-4.75,0.));
#606=CARTESIAN_POINT('',(9.5,-4.75,0.));
#607=CARTESIAN_POINT('',(9.5,4.75,0.));
#608=CARTESIAN_POINT('',(9.5,4.75,7.58941520739853E-16));
#609=CARTESIAN_POINT('',(9.5,4.75,7.58941520739853E-16));
#610=CARTESIAN_POINT('',(9.5,-4.75,-0.200000000000001));
#611=CARTESIAN_POINT('',(-9.5,-4.75,-0.200000000000001));
#612=CARTESIAN_POINT('',(-9.5,-4.95,-0.2));
#613=CARTESIAN_POINT('',(9.5,-4.95,-0.2));
#614=CARTESIAN_POINT('',(9.5,-4.95,-0.2));
#615=CARTESIAN_POINT('',(9.5,-4.75,-0.200000000000001));
#616=CARTESIAN_POINT('',(9.5,-4.95,-0.2));
#617=CARTESIAN_POINT('',(-9.5,-4.95,-0.2));
#618=CARTESIAN_POINT('',(-9.5,-4.95,-1.3));
#619=CARTESIAN_POINT('',(9.5,-4.95,-1.3));
#620=CARTESIAN_POINT('',(9.5,-4.95,-1.3));
#621=CARTESIAN_POINT('',(9.5,-4.95,-0.2));
#622=CARTESIAN_POINT('',(9.5,-5.15,-1.3));
#623=CARTESIAN_POINT('',(-9.5,-5.15,-1.3));
#624=CARTESIAN_POINT('',(-9.5,-5.15,-1.5));
#625=CARTESIAN_POINT('',(9.5,-5.15,-1.5));
#626=CARTESIAN_POINT('',(9.5,-5.15,-1.5));
#627=CARTESIAN_POINT('',(9.5,-5.15,-1.3));
#628=CARTESIAN_POINT('',(9.5,-5.15,-1.5));
#629=CARTESIAN_POINT('',(-9.5,-5.15,-1.5));
#630=CARTESIAN_POINT('',(-9.5,-6.70041802045565,-1.5));
#631=CARTESIAN_POINT('',(9.5,-6.70041802045565,-1.5));
#632=CARTESIAN_POINT('',(9.5,-6.70041802045565,-1.5));
#633=CARTESIAN_POINT('',(9.5,-5.15,-1.5));
#634=CARTESIAN_POINT('',(9.5,-6.70041802045565,-1.8));
#635=CARTESIAN_POINT('',(-9.5,-6.70041802045565,-1.8));
#636=CARTESIAN_POINT('',(-9.5,-6.95998395789824,-1.95041783178716));
#637=CARTESIAN_POINT('',(9.5,-6.95998395789824,-1.95041783178716));
#638=CARTESIAN_POINT('',(9.5,-6.95998395789824,-1.95041783178716));
#639=CARTESIAN_POINT('',(9.5,-6.70041802045565,-1.8));
#640=CARTESIAN_POINT('',(9.5,-6.95998395789824,-1.95041783178716));
#641=CARTESIAN_POINT('',(-9.5,-6.95998395789824,-1.95041783178716));
#642=CARTESIAN_POINT('',(9.5,-6.95998395789824,-1.95041783178716));
#643=CARTESIAN_POINT('',(9.5,-2.95,-5.2));
#644=CARTESIAN_POINT('',(0.,0.,-5.2));
#645=CARTESIAN_POINT('',(9.5,-2.95,-5.2));
#646=CARTESIAN_POINT('',(9.5,5.72589625166359,-4.08));
#647=CARTESIAN_POINT('',(-9.5,5.72589625166359,-4.08));
#648=CARTESIAN_POINT('',(-9.5,6.95998395789824,-1.95041783178716));
#649=CARTESIAN_POINT('',(9.5,6.95998395789824,-1.95041783178716));
#650=CARTESIAN_POINT('',(9.5,6.95998395789824,-1.95041783178716));
#651=CARTESIAN_POINT('',(9.5,5.72589625166359,-4.08));
#652=CARTESIAN_POINT('',(9.5,6.70041802045565,-1.8));
#653=CARTESIAN_POINT('',(-9.5,6.70041802045565,-1.8));
#654=CARTESIAN_POINT('',(-9.5,6.70041802045565,-1.5));
#655=CARTESIAN_POINT('',(9.5,6.70041802045565,-1.5));
#656=CARTESIAN_POINT('',(9.5,6.70041802045565,-1.5));
#657=CARTESIAN_POINT('',(9.5,6.70041802045565,-1.8));
#658=CARTESIAN_POINT('',(9.5,6.70041802045565,-1.5));
#659=CARTESIAN_POINT('',(-9.5,6.70041802045565,-1.5));
#660=CARTESIAN_POINT('',(-9.5,5.15,-1.5));
#661=CARTESIAN_POINT('',(9.5,5.15,-1.5));
#662=CARTESIAN_POINT('',(9.5,5.15,-1.5));
#663=CARTESIAN_POINT('',(9.5,6.70041802045565,-1.5));
#664=CARTESIAN_POINT('',(9.5,5.15,-1.3));
#665=CARTESIAN_POINT('',(-9.5,5.15,-1.3));
#666=CARTESIAN_POINT('',(-9.5,4.95,-1.3));
#667=CARTESIAN_POINT('',(9.5,4.95,-1.3));
#668=CARTESIAN_POINT('',(9.5,4.95,-1.3));
#669=CARTESIAN_POINT('',(9.5,5.15,-1.3));
#670=CARTESIAN_POINT('',(9.5,4.95,-1.3));
#671=CARTESIAN_POINT('',(-9.5,4.95,-1.3));
#672=CARTESIAN_POINT('',(-9.5,4.95,-0.2));
#673=CARTESIAN_POINT('',(9.5,4.95,-0.2));
#674=CARTESIAN_POINT('',(9.5,4.95,-0.2));
#675=CARTESIAN_POINT('',(9.5,4.95,-1.3));
#676=CARTESIAN_POINT('',(9.5,4.75,-0.200000000000001));
#677=CARTESIAN_POINT('',(-9.5,4.75,-0.200000000000001));
#678=CARTESIAN_POINT('',(9.5,4.75,-0.200000000000001));
#679=CARTESIAN_POINT('',(9.5,-4.75,-0.200000000000001));
#680=CARTESIAN_POINT('',(-9.5,-4.75,-0.200000000000001));
#681=CARTESIAN_POINT('',(0.,0.,0.));
#682=MECHANICAL_DESIGN_GEOMETRIC_PRESENTATION_REPRESENTATION('',(#396),
#683);
#683=(
GEOMETRIC_REPRESENTATION_CONTEXT(3)
GLOBAL_UNCERTAINTY_ASSIGNED_CONTEXT((#684))
GLOBAL_UNIT_ASSIGNED_CONTEXT((#687,#686,#685))
REPRESENTATION_CONTEXT('096168','TOP_LEVEL_ASSEMBLY_PART')
);
#684=UNCERTAINTY_MEASURE_WITH_UNIT(LENGTH_MEASURE(0.005),#687,
'DISTANCE_ACCURACY_VALUE','Maximum Tolerance applied to model');
#685=(
NAMED_UNIT(*)
SI_UNIT($,.STERADIAN.)
SOLID_ANGLE_UNIT()
);
#686=(
NAMED_UNIT(*)
PLANE_ANGLE_UNIT()
SI_UNIT($,.RADIAN.)
);
#687=(
LENGTH_UNIT()
NAMED_UNIT(*)
SI_UNIT(.MILLI.,.METRE.)
);
#688=PRODUCT_DEFINITION_SHAPE('','',#689);
#689=PRODUCT_DEFINITION('','',#691,#690);
#690=PRODUCT_DEFINITION_CONTEXT('',#697,'design');
#691=PRODUCT_DEFINITION_FORMATION_WITH_SPECIFIED_SOURCE('','',#693,
 .NOT_KNOWN.);
#692=PRODUCT_RELATED_PRODUCT_CATEGORY('','',(#693));
#693=PRODUCT('096168','096168','096168',(#695));
#694=PRODUCT_CATEGORY('','');
#695=PRODUCT_CONTEXT('',#697,'mechanical');
#696=APPLICATION_PROTOCOL_DEFINITION('international standard',
'automotive_design',2010,#697);
#697=APPLICATION_CONTEXT(
'core data for automotive mechanical design processes');
ENDSEC;
END-ISO-10303-21;
