ISO-10303-21;
HEADER;
/* Generated by software containing ST-Developer
 * from STEP Tools, Inc. (www.steptools.com) 
 */
/* OPTION: using custom renumber hook */

FILE_DESCRIPTION(
/* description */ ('STEP AP214'),
/* implementation_level */ '2;1');

FILE_NAME(
/* name */ '096036',
/* time_stamp */ '2022-09-01T14:34:36+02:00',
/* author */ ('License CC BY-ND 4.0'),
/* organization */ ('CADENAS'),
/* preprocessor_version */ 'ST-DEVELOPER v18.102',
/* originating_system */ 'PARTsolutions',
/* authorisation */ '  ');

FILE_SCHEMA (('AUTOMOTIVE_DESIGN {1 0 10303 214 3 1 1}'));
ENDSEC;

DATA;
#10=PROPERTY_DEFINITION_REPRESENTATION(#14,#12);
#11=PROPERTY_DEFINITION_REPRESENTATION(#15,#13);
#12=REPRESENTATION('',(#16),#627);
#13=REPRESENTATION('',(#17),#627);
#14=PROPERTY_DEFINITION('pmi validation property','',#632);
#15=PROPERTY_DEFINITION('pmi validation property','',#632);
#16=VALUE_REPRESENTATION_ITEM('number of annotations',COUNT_MEASURE(0.));
#17=VALUE_REPRESENTATION_ITEM('number of views',COUNT_MEASURE(0.));
#18=SHAPE_REPRESENTATION_RELATIONSHIP('','',#383,#19);
#19=ADVANCED_BREP_SHAPE_REPRESENTATION('',(#381),#627);
#20=PLANE('',#388);
#21=PLANE('',#393);
#22=PLANE('',#397);
#23=PLANE('',#401);
#24=PLANE('',#402);
#25=PLANE('',#403);
#26=PLANE('',#405);
#27=PLANE('',#406);
#28=PLANE('',#410);
#29=PLANE('',#414);
#30=PLANE('',#415);
#31=PLANE('',#416);
#32=LINE('',#527,#68);
#33=LINE('',#531,#69);
#34=LINE('',#535,#70);
#35=LINE('',#537,#71);
#36=LINE('',#539,#72);
#37=LINE('',#543,#73);
#38=LINE('',#547,#74);
#39=LINE('',#549,#75);
#40=LINE('',#551,#76);
#41=LINE('',#555,#77);
#42=LINE('',#559,#78);
#43=LINE('',#561,#79);
#44=LINE('',#563,#80);
#45=LINE('',#567,#81);
#46=LINE('',#571,#82);
#47=LINE('',#573,#83);
#48=LINE('',#575,#84);
#49=LINE('',#577,#85);
#50=LINE('',#579,#86);
#51=LINE('',#581,#87);
#52=LINE('',#585,#88);
#53=LINE('',#587,#89);
#54=LINE('',#589,#90);
#55=LINE('',#591,#91);
#56=LINE('',#593,#92);
#57=LINE('',#595,#93);
#58=LINE('',#597,#94);
#59=LINE('',#599,#95);
#60=LINE('',#601,#96);
#61=LINE('',#605,#97);
#62=LINE('',#609,#98);
#63=LINE('',#611,#99);
#64=LINE('',#613,#100);
#65=LINE('',#617,#101);
#66=LINE('',#621,#102);
#67=LINE('',#622,#103);
#68=VECTOR('',#424,1000.);
#69=VECTOR('',#427,1000.);
#70=VECTOR('',#432,1000.);
#71=VECTOR('',#433,1000.);
#72=VECTOR('',#434,1000.);
#73=VECTOR('',#439,1000.);
#74=VECTOR('',#444,1000.);
#75=VECTOR('',#445,1000.);
#76=VECTOR('',#446,1000.);
#77=VECTOR('',#451,1000.);
#78=VECTOR('',#456,1000.);
#79=VECTOR('',#457,1000.);
#80=VECTOR('',#458,1000.);
#81=VECTOR('',#463,1000.);
#82=VECTOR('',#468,1000.);
#83=VECTOR('',#469,1000.);
#84=VECTOR('',#470,1000.);
#85=VECTOR('',#473,1000.);
#86=VECTOR('',#474,1000.);
#87=VECTOR('',#475,1000.);
#88=VECTOR('',#480,1000.);
#89=VECTOR('',#481,1000.);
#90=VECTOR('',#482,1000.);
#91=VECTOR('',#485,1000.);
#92=VECTOR('',#486,1000.);
#93=VECTOR('',#487,1000.);
#94=VECTOR('',#490,1000.);
#95=VECTOR('',#491,1000.);
#96=VECTOR('',#492,1000.);
#97=VECTOR('',#497,1000.);
#98=VECTOR('',#502,1000.);
#99=VECTOR('',#503,1000.);
#100=VECTOR('',#504,1000.);
#101=VECTOR('',#509,1000.);
#102=VECTOR('',#514,1000.);
#103=VECTOR('',#515,1000.);
#104=ORIENTED_EDGE('',*,*,#204,.T.);
#105=ORIENTED_EDGE('',*,*,#205,.F.);
#106=ORIENTED_EDGE('',*,*,#206,.F.);
#107=ORIENTED_EDGE('',*,*,#207,.T.);
#108=ORIENTED_EDGE('',*,*,#208,.F.);
#109=ORIENTED_EDGE('',*,*,#209,.T.);
#110=ORIENTED_EDGE('',*,*,#210,.F.);
#111=ORIENTED_EDGE('',*,*,#211,.F.);
#112=ORIENTED_EDGE('',*,*,#205,.T.);
#113=ORIENTED_EDGE('',*,*,#212,.T.);
#114=ORIENTED_EDGE('',*,*,#213,.F.);
#115=ORIENTED_EDGE('',*,*,#214,.F.);
#116=ORIENTED_EDGE('',*,*,#210,.T.);
#117=ORIENTED_EDGE('',*,*,#215,.T.);
#118=ORIENTED_EDGE('',*,*,#216,.F.);
#119=ORIENTED_EDGE('',*,*,#217,.F.);
#120=ORIENTED_EDGE('',*,*,#213,.T.);
#121=ORIENTED_EDGE('',*,*,#218,.F.);
#122=ORIENTED_EDGE('',*,*,#219,.F.);
#123=ORIENTED_EDGE('',*,*,#220,.T.);
#124=ORIENTED_EDGE('',*,*,#216,.T.);
#125=ORIENTED_EDGE('',*,*,#221,.T.);
#126=ORIENTED_EDGE('',*,*,#222,.F.);
#127=ORIENTED_EDGE('',*,*,#223,.F.);
#128=ORIENTED_EDGE('',*,*,#219,.T.);
#129=ORIENTED_EDGE('',*,*,#224,.T.);
#130=ORIENTED_EDGE('',*,*,#225,.F.);
#131=ORIENTED_EDGE('',*,*,#226,.F.);
#132=ORIENTED_EDGE('',*,*,#222,.T.);
#133=ORIENTED_EDGE('',*,*,#227,.T.);
#134=ORIENTED_EDGE('',*,*,#228,.F.);
#135=ORIENTED_EDGE('',*,*,#229,.F.);
#136=ORIENTED_EDGE('',*,*,#225,.T.);
#137=ORIENTED_EDGE('',*,*,#230,.T.);
#138=ORIENTED_EDGE('',*,*,#231,.F.);
#139=ORIENTED_EDGE('',*,*,#232,.F.);
#140=ORIENTED_EDGE('',*,*,#228,.T.);
#141=ORIENTED_EDGE('',*,*,#233,.T.);
#142=ORIENTED_EDGE('',*,*,#234,.T.);
#143=ORIENTED_EDGE('',*,*,#235,.F.);
#144=ORIENTED_EDGE('',*,*,#236,.F.);
#145=ORIENTED_EDGE('',*,*,#231,.T.);
#146=ORIENTED_EDGE('',*,*,#237,.T.);
#147=ORIENTED_EDGE('',*,*,#238,.F.);
#148=ORIENTED_EDGE('',*,*,#239,.F.);
#149=ORIENTED_EDGE('',*,*,#235,.T.);
#150=ORIENTED_EDGE('',*,*,#240,.T.);
#151=ORIENTED_EDGE('',*,*,#241,.F.);
#152=ORIENTED_EDGE('',*,*,#242,.F.);
#153=ORIENTED_EDGE('',*,*,#238,.T.);
#154=ORIENTED_EDGE('',*,*,#243,.T.);
#155=ORIENTED_EDGE('',*,*,#244,.F.);
#156=ORIENTED_EDGE('',*,*,#245,.F.);
#157=ORIENTED_EDGE('',*,*,#241,.T.);
#158=ORIENTED_EDGE('',*,*,#246,.T.);
#159=ORIENTED_EDGE('',*,*,#247,.F.);
#160=ORIENTED_EDGE('',*,*,#248,.F.);
#161=ORIENTED_EDGE('',*,*,#244,.T.);
#162=ORIENTED_EDGE('',*,*,#249,.F.);
#163=ORIENTED_EDGE('',*,*,#250,.F.);
#164=ORIENTED_EDGE('',*,*,#251,.T.);
#165=ORIENTED_EDGE('',*,*,#247,.T.);
#166=ORIENTED_EDGE('',*,*,#252,.T.);
#167=ORIENTED_EDGE('',*,*,#207,.F.);
#168=ORIENTED_EDGE('',*,*,#253,.F.);
#169=ORIENTED_EDGE('',*,*,#250,.T.);
#170=ORIENTED_EDGE('',*,*,#206,.T.);
#171=ORIENTED_EDGE('',*,*,#211,.T.);
#172=ORIENTED_EDGE('',*,*,#214,.T.);
#173=ORIENTED_EDGE('',*,*,#217,.T.);
#174=ORIENTED_EDGE('',*,*,#220,.F.);
#175=ORIENTED_EDGE('',*,*,#223,.T.);
#176=ORIENTED_EDGE('',*,*,#226,.T.);
#177=ORIENTED_EDGE('',*,*,#229,.T.);
#178=ORIENTED_EDGE('',*,*,#232,.T.);
#179=ORIENTED_EDGE('',*,*,#236,.T.);
#180=ORIENTED_EDGE('',*,*,#239,.T.);
#181=ORIENTED_EDGE('',*,*,#242,.T.);
#182=ORIENTED_EDGE('',*,*,#245,.T.);
#183=ORIENTED_EDGE('',*,*,#248,.T.);
#184=ORIENTED_EDGE('',*,*,#251,.F.);
#185=ORIENTED_EDGE('',*,*,#253,.T.);
#186=ORIENTED_EDGE('',*,*,#204,.F.);
#187=ORIENTED_EDGE('',*,*,#252,.F.);
#188=ORIENTED_EDGE('',*,*,#249,.T.);
#189=ORIENTED_EDGE('',*,*,#246,.F.);
#190=ORIENTED_EDGE('',*,*,#243,.F.);
#191=ORIENTED_EDGE('',*,*,#240,.F.);
#192=ORIENTED_EDGE('',*,*,#237,.F.);
#193=ORIENTED_EDGE('',*,*,#234,.F.);
#194=ORIENTED_EDGE('',*,*,#230,.F.);
#195=ORIENTED_EDGE('',*,*,#227,.F.);
#196=ORIENTED_EDGE('',*,*,#224,.F.);
#197=ORIENTED_EDGE('',*,*,#221,.F.);
#198=ORIENTED_EDGE('',*,*,#218,.T.);
#199=ORIENTED_EDGE('',*,*,#215,.F.);
#200=ORIENTED_EDGE('',*,*,#212,.F.);
#201=ORIENTED_EDGE('',*,*,#209,.F.);
#202=ORIENTED_EDGE('',*,*,#208,.T.);
#203=ORIENTED_EDGE('',*,*,#233,.F.);
#204=EDGE_CURVE('',#254,#255,#288,.T.);
#205=EDGE_CURVE('',#256,#255,#32,.T.);
#206=EDGE_CURVE('',#257,#256,#289,.T.);
#207=EDGE_CURVE('',#257,#254,#33,.T.);
#208=EDGE_CURVE('',#258,#258,#290,.T.);
#209=EDGE_CURVE('',#255,#259,#34,.T.);
#210=EDGE_CURVE('',#260,#259,#35,.T.);
#211=EDGE_CURVE('',#256,#260,#36,.T.);
#212=EDGE_CURVE('',#259,#261,#291,.T.);
#213=EDGE_CURVE('',#262,#261,#37,.T.);
#214=EDGE_CURVE('',#260,#262,#292,.T.);
#215=EDGE_CURVE('',#261,#263,#38,.T.);
#216=EDGE_CURVE('',#264,#263,#39,.T.);
#217=EDGE_CURVE('',#262,#264,#40,.T.);
#218=EDGE_CURVE('',#265,#263,#293,.T.);
#219=EDGE_CURVE('',#266,#265,#41,.T.);
#220=EDGE_CURVE('',#266,#264,#294,.T.);
#221=EDGE_CURVE('',#265,#267,#42,.T.);
#222=EDGE_CURVE('',#268,#267,#43,.T.);
#223=EDGE_CURVE('',#266,#268,#44,.T.);
#224=EDGE_CURVE('',#267,#269,#295,.T.);
#225=EDGE_CURVE('',#270,#269,#45,.T.);
#226=EDGE_CURVE('',#268,#270,#296,.T.);
#227=EDGE_CURVE('',#269,#271,#46,.T.);
#228=EDGE_CURVE('',#272,#271,#47,.T.);
#229=EDGE_CURVE('',#270,#272,#48,.T.);
#230=EDGE_CURVE('',#271,#273,#49,.T.);
#231=EDGE_CURVE('',#274,#273,#50,.T.);
#232=EDGE_CURVE('',#272,#274,#51,.T.);
#233=EDGE_CURVE('',#275,#275,#297,.T.);
#234=EDGE_CURVE('',#273,#276,#52,.T.);
#235=EDGE_CURVE('',#277,#276,#53,.T.);
#236=EDGE_CURVE('',#274,#277,#54,.T.);
#237=EDGE_CURVE('',#276,#278,#55,.T.);
#238=EDGE_CURVE('',#279,#278,#56,.T.);
#239=EDGE_CURVE('',#277,#279,#57,.T.);
#240=EDGE_CURVE('',#278,#280,#58,.T.);
#241=EDGE_CURVE('',#281,#280,#59,.T.);
#242=EDGE_CURVE('',#279,#281,#60,.T.);
#243=EDGE_CURVE('',#280,#282,#298,.T.);
#244=EDGE_CURVE('',#283,#282,#61,.T.);
#245=EDGE_CURVE('',#281,#283,#299,.T.);
#246=EDGE_CURVE('',#282,#284,#62,.T.);
#247=EDGE_CURVE('',#285,#284,#63,.T.);
#248=EDGE_CURVE('',#283,#285,#64,.T.);
#249=EDGE_CURVE('',#286,#284,#300,.T.);
#250=EDGE_CURVE('',#287,#286,#65,.T.);
#251=EDGE_CURVE('',#287,#285,#301,.T.);
#252=EDGE_CURVE('',#286,#254,#66,.T.);
#253=EDGE_CURVE('',#287,#257,#67,.T.);
#254=VERTEX_POINT('',#525);
#255=VERTEX_POINT('',#526);
#256=VERTEX_POINT('',#528);
#257=VERTEX_POINT('',#530);
#258=VERTEX_POINT('',#534);
#259=VERTEX_POINT('',#536);
#260=VERTEX_POINT('',#538);
#261=VERTEX_POINT('',#542);
#262=VERTEX_POINT('',#544);
#263=VERTEX_POINT('',#548);
#264=VERTEX_POINT('',#550);
#265=VERTEX_POINT('',#554);
#266=VERTEX_POINT('',#556);
#267=VERTEX_POINT('',#560);
#268=VERTEX_POINT('',#562);
#269=VERTEX_POINT('',#566);
#270=VERTEX_POINT('',#568);
#271=VERTEX_POINT('',#572);
#272=VERTEX_POINT('',#574);
#273=VERTEX_POINT('',#578);
#274=VERTEX_POINT('',#580);
#275=VERTEX_POINT('',#584);
#276=VERTEX_POINT('',#586);
#277=VERTEX_POINT('',#588);
#278=VERTEX_POINT('',#592);
#279=VERTEX_POINT('',#594);
#280=VERTEX_POINT('',#598);
#281=VERTEX_POINT('',#600);
#282=VERTEX_POINT('',#604);
#283=VERTEX_POINT('',#606);
#284=VERTEX_POINT('',#610);
#285=VERTEX_POINT('',#612);
#286=VERTEX_POINT('',#616);
#287=VERTEX_POINT('',#618);
#288=CIRCLE('',#386,0.399999999999999);
#289=CIRCLE('',#387,0.399999999999999);
#290=CIRCLE('',#389,2.4585);
#291=CIRCLE('',#391,0.4);
#292=CIRCLE('',#392,0.4);
#293=CIRCLE('',#395,0.4);
#294=CIRCLE('',#396,0.4);
#295=CIRCLE('',#399,0.399999999999998);
#296=CIRCLE('',#400,0.399999999999998);
#297=CIRCLE('',#404,2.4585);
#298=CIRCLE('',#408,0.399999999999999);
#299=CIRCLE('',#409,0.399999999999999);
#300=CIRCLE('',#412,0.4);
#301=CIRCLE('',#413,0.4);
#302=EDGE_LOOP('',(#104,#105,#106,#107));
#303=EDGE_LOOP('',(#108));
#304=EDGE_LOOP('',(#109,#110,#111,#112));
#305=EDGE_LOOP('',(#113,#114,#115,#116));
#306=EDGE_LOOP('',(#117,#118,#119,#120));
#307=EDGE_LOOP('',(#121,#122,#123,#124));
#308=EDGE_LOOP('',(#125,#126,#127,#128));
#309=EDGE_LOOP('',(#129,#130,#131,#132));
#310=EDGE_LOOP('',(#133,#134,#135,#136));
#311=EDGE_LOOP('',(#137,#138,#139,#140));
#312=EDGE_LOOP('',(#141));
#313=EDGE_LOOP('',(#142,#143,#144,#145));
#314=EDGE_LOOP('',(#146,#147,#148,#149));
#315=EDGE_LOOP('',(#150,#151,#152,#153));
#316=EDGE_LOOP('',(#154,#155,#156,#157));
#317=EDGE_LOOP('',(#158,#159,#160,#161));
#318=EDGE_LOOP('',(#162,#163,#164,#165));
#319=EDGE_LOOP('',(#166,#167,#168,#169));
#320=EDGE_LOOP('',(#170,#171,#172,#173,#174,#175,#176,#177,#178,#179,#180,
#181,#182,#183,#184,#185));
#321=EDGE_LOOP('',(#186,#187,#188,#189,#190,#191,#192,#193,#194,#195,#196,
#197,#198,#199,#200,#201));
#322=EDGE_LOOP('',(#202));
#323=EDGE_LOOP('',(#203));
#324=FACE_BOUND('',#302,.T.);
#325=FACE_BOUND('',#303,.T.);
#326=FACE_BOUND('',#304,.T.);
#327=FACE_BOUND('',#305,.T.);
#328=FACE_BOUND('',#306,.T.);
#329=FACE_BOUND('',#307,.T.);
#330=FACE_BOUND('',#308,.T.);
#331=FACE_BOUND('',#309,.T.);
#332=FACE_BOUND('',#310,.T.);
#333=FACE_BOUND('',#311,.T.);
#334=FACE_BOUND('',#312,.T.);
#335=FACE_BOUND('',#313,.T.);
#336=FACE_BOUND('',#314,.T.);
#337=FACE_BOUND('',#315,.T.);
#338=FACE_BOUND('',#316,.T.);
#339=FACE_BOUND('',#317,.T.);
#340=FACE_BOUND('',#318,.T.);
#341=FACE_BOUND('',#319,.T.);
#342=FACE_BOUND('',#320,.T.);
#343=FACE_BOUND('',#321,.T.);
#344=FACE_BOUND('',#322,.T.);
#345=FACE_BOUND('',#323,.T.);
#346=CYLINDRICAL_SURFACE('',#385,0.399999999999999);
#347=CYLINDRICAL_SURFACE('',#390,0.4);
#348=CYLINDRICAL_SURFACE('',#394,0.4);
#349=CYLINDRICAL_SURFACE('',#398,0.399999999999998);
#350=CYLINDRICAL_SURFACE('',#407,0.399999999999999);
#351=CYLINDRICAL_SURFACE('',#411,0.4);
#352=CYLINDRICAL_SURFACE('',#417,2.4585);
#353=ADVANCED_FACE('',(#324),#346,.T.);
#354=ADVANCED_FACE('',(#325,#326),#20,.F.);
#355=ADVANCED_FACE('',(#327),#347,.T.);
#356=ADVANCED_FACE('',(#328),#21,.F.);
#357=ADVANCED_FACE('',(#329),#348,.F.);
#358=ADVANCED_FACE('',(#330),#22,.F.);
#359=ADVANCED_FACE('',(#331),#349,.T.);
#360=ADVANCED_FACE('',(#332),#23,.F.);
#361=ADVANCED_FACE('',(#333),#24,.F.);
#362=ADVANCED_FACE('',(#334,#335),#25,.F.);
#363=ADVANCED_FACE('',(#336),#26,.F.);
#364=ADVANCED_FACE('',(#337),#27,.F.);
#365=ADVANCED_FACE('',(#338),#350,.T.);
#366=ADVANCED_FACE('',(#339),#28,.F.);
#367=ADVANCED_FACE('',(#340),#351,.F.);
#368=ADVANCED_FACE('',(#341),#29,.F.);
#369=ADVANCED_FACE('',(#342),#30,.T.);
#370=ADVANCED_FACE('',(#343),#31,.F.);
#371=ADVANCED_FACE('',(#344,#345),#352,.F.);
#372=CLOSED_SHELL('',(#353,#354,#355,#356,#357,#358,#359,#360,#361,#362,
#363,#364,#365,#366,#367,#368,#369,#370,#371));
#373=STYLED_ITEM('',(#374),#381);
#374=PRESENTATION_STYLE_ASSIGNMENT((#375));
#375=SURFACE_STYLE_USAGE(.BOTH.,#376);
#376=SURFACE_SIDE_STYLE('',(#377));
#377=SURFACE_STYLE_FILL_AREA(#378);
#378=FILL_AREA_STYLE('',(#379));
#379=FILL_AREA_STYLE_COLOUR('',#380);
#380=COLOUR_RGB('',0.7294117808342,0.76862746477127,0.7843137383461);
#381=MANIFOLD_SOLID_BREP('096036',#372);
#382=SHAPE_DEFINITION_REPRESENTATION(#632,#383);
#383=SHAPE_REPRESENTATION('096036',(#384),#627);
#384=AXIS2_PLACEMENT_3D('',#522,#418,#419);
#385=AXIS2_PLACEMENT_3D('',#523,#420,#421);
#386=AXIS2_PLACEMENT_3D('',#524,#422,#423);
#387=AXIS2_PLACEMENT_3D('',#529,#425,#426);
#388=AXIS2_PLACEMENT_3D('',#532,#428,#429);
#389=AXIS2_PLACEMENT_3D('',#533,#430,#431);
#390=AXIS2_PLACEMENT_3D('',#540,#435,#436);
#391=AXIS2_PLACEMENT_3D('',#541,#437,#438);
#392=AXIS2_PLACEMENT_3D('',#545,#440,#441);
#393=AXIS2_PLACEMENT_3D('',#546,#442,#443);
#394=AXIS2_PLACEMENT_3D('',#552,#447,#448);
#395=AXIS2_PLACEMENT_3D('',#553,#449,#450);
#396=AXIS2_PLACEMENT_3D('',#557,#452,#453);
#397=AXIS2_PLACEMENT_3D('',#558,#454,#455);
#398=AXIS2_PLACEMENT_3D('',#564,#459,#460);
#399=AXIS2_PLACEMENT_3D('',#565,#461,#462);
#400=AXIS2_PLACEMENT_3D('',#569,#464,#465);
#401=AXIS2_PLACEMENT_3D('',#570,#466,#467);
#402=AXIS2_PLACEMENT_3D('',#576,#471,#472);
#403=AXIS2_PLACEMENT_3D('',#582,#476,#477);
#404=AXIS2_PLACEMENT_3D('',#583,#478,#479);
#405=AXIS2_PLACEMENT_3D('',#590,#483,#484);
#406=AXIS2_PLACEMENT_3D('',#596,#488,#489);
#407=AXIS2_PLACEMENT_3D('',#602,#493,#494);
#408=AXIS2_PLACEMENT_3D('',#603,#495,#496);
#409=AXIS2_PLACEMENT_3D('',#607,#498,#499);
#410=AXIS2_PLACEMENT_3D('',#608,#500,#501);
#411=AXIS2_PLACEMENT_3D('',#614,#505,#506);
#412=AXIS2_PLACEMENT_3D('',#615,#507,#508);
#413=AXIS2_PLACEMENT_3D('',#619,#510,#511);
#414=AXIS2_PLACEMENT_3D('',#620,#512,#513);
#415=AXIS2_PLACEMENT_3D('',#623,#516,#517);
#416=AXIS2_PLACEMENT_3D('',#624,#518,#519);
#417=AXIS2_PLACEMENT_3D('',#625,#520,#521);
#418=DIRECTION('',(0.,0.,1.));
#419=DIRECTION('',(1.,0.,0.));
#420=DIRECTION('',(-1.,0.,0.));
#421=DIRECTION('',(0.,0.,1.));
#422=DIRECTION('',(1.,0.,0.));
#423=DIRECTION('',(0.,0.,-1.));
#424=DIRECTION('',(-1.,0.,0.));
#425=DIRECTION('',(1.,0.,0.));
#426=DIRECTION('',(0.,0.,-1.));
#427=DIRECTION('',(-1.,0.,0.));
#428=DIRECTION('',(0.,3.73969860926368E-16,-1.));
#429=DIRECTION('',(0.,1.,3.73969860926368E-16));
#430=DIRECTION('',(0.,0.,1.));
#431=DIRECTION('',(1.,0.,0.));
#432=DIRECTION('',(0.,-1.,-3.73969860926368E-16));
#433=DIRECTION('',(-1.,0.,0.));
#434=DIRECTION('',(0.,-1.,-3.73969860926368E-16));
#435=DIRECTION('',(-1.,0.,0.));
#436=DIRECTION('',(0.,0.,1.));
#437=DIRECTION('',(1.,0.,0.));
#438=DIRECTION('',(0.,0.,-1.));
#439=DIRECTION('',(-1.,0.,0.));
#440=DIRECTION('',(1.,0.,0.));
#441=DIRECTION('',(0.,0.,-1.));
#442=DIRECTION('',(0.,1.,0.));
#443=DIRECTION('',(0.,0.,1.));
#444=DIRECTION('',(0.,0.,-1.));
#445=DIRECTION('',(-1.,0.,0.));
#446=DIRECTION('',(0.,0.,-1.));
#447=DIRECTION('',(-1.,0.,0.));
#448=DIRECTION('',(0.,0.,1.));
#449=DIRECTION('',(1.,0.,0.));
#450=DIRECTION('',(0.,0.,-1.));
#451=DIRECTION('',(-1.,0.,0.));
#452=DIRECTION('',(1.,0.,0.));
#453=DIRECTION('',(0.,0.,-1.));
#454=DIRECTION('',(0.,0.,-1.));
#455=DIRECTION('',(-1.,0.,0.));
#456=DIRECTION('',(0.,-1.,0.));
#457=DIRECTION('',(-1.,0.,0.));
#458=DIRECTION('',(0.,-1.,0.));
#459=DIRECTION('',(-1.,0.,0.));
#460=DIRECTION('',(0.,0.,1.));
#461=DIRECTION('',(1.,0.,0.));
#462=DIRECTION('',(0.,0.,-1.));
#463=DIRECTION('',(-1.,0.,0.));
#464=DIRECTION('',(1.,0.,0.));
#465=DIRECTION('',(0.,0.,-1.));
#466=DIRECTION('',(0.,1.,0.));
#467=DIRECTION('',(0.,0.,1.));
#468=DIRECTION('',(0.,0.,-1.));
#469=DIRECTION('',(-1.,0.,0.));
#470=DIRECTION('',(0.,0.,-1.));
#471=DIRECTION('',(0.,0.707106781186548,0.707106781186548));
#472=DIRECTION('',(0.,-0.707106781186548,0.707106781186548));
#473=DIRECTION('',(0.,0.707106781186548,-0.707106781186548));
#474=DIRECTION('',(-1.,0.,0.));
#475=DIRECTION('',(0.,0.707106781186548,-0.707106781186548));
#476=DIRECTION('',(0.,0.,1.));
#477=DIRECTION('',(1.,0.,0.));
#478=DIRECTION('',(0.,0.,1.));
#479=DIRECTION('',(1.,0.,0.));
#480=DIRECTION('',(0.,1.,0.));
#481=DIRECTION('',(-1.,0.,0.));
#482=DIRECTION('',(0.,1.,0.));
#483=DIRECTION('',(0.,-0.707106781186548,0.707106781186548));
#484=DIRECTION('',(0.,-0.707106781186548,-0.707106781186548));
#485=DIRECTION('',(0.,0.707106781186548,0.707106781186548));
#486=DIRECTION('',(-1.,0.,0.));
#487=DIRECTION('',(0.,0.707106781186548,0.707106781186548));
#488=DIRECTION('',(0.,-1.,0.));
#489=DIRECTION('',(0.,0.,-1.));
#490=DIRECTION('',(0.,0.,1.));
#491=DIRECTION('',(-1.,0.,0.));
#492=DIRECTION('',(0.,0.,1.));
#493=DIRECTION('',(-1.,0.,0.));
#494=DIRECTION('',(0.,0.,1.));
#495=DIRECTION('',(1.,0.,0.));
#496=DIRECTION('',(0.,0.,-1.));
#497=DIRECTION('',(-1.,0.,0.));
#498=DIRECTION('',(1.,0.,0.));
#499=DIRECTION('',(0.,0.,-1.));
#500=DIRECTION('',(0.,0.,-1.));
#501=DIRECTION('',(-1.,0.,0.));
#502=DIRECTION('',(0.,-1.,0.));
#503=DIRECTION('',(-1.,0.,0.));
#504=DIRECTION('',(0.,-1.,0.));
#505=DIRECTION('',(-1.,0.,0.));
#506=DIRECTION('',(0.,0.,1.));
#507=DIRECTION('',(1.,0.,0.));
#508=DIRECTION('',(0.,0.,-1.));
#509=DIRECTION('',(-1.,0.,0.));
#510=DIRECTION('',(1.,0.,0.));
#511=DIRECTION('',(0.,0.,-1.));
#512=DIRECTION('',(0.,-1.,0.));
#513=DIRECTION('',(0.,0.,-1.));
#514=DIRECTION('',(0.,0.,1.));
#515=DIRECTION('',(0.,0.,1.));
#516=DIRECTION('',(1.,0.,0.));
#517=DIRECTION('',(0.,0.,-1.));
#518=DIRECTION('',(1.,0.,0.));
#519=DIRECTION('',(0.,0.,-1.));
#520=DIRECTION('',(0.,0.,1.));
#521=DIRECTION('',(1.,0.,0.));
#522=CARTESIAN_POINT('',(0.,0.,0.));
#523=CARTESIAN_POINT('',(10.,4.35,-0.4));
#524=CARTESIAN_POINT('',(-10.,4.35,-0.4));
#525=CARTESIAN_POINT('',(-10.,4.75,-0.4));
#526=CARTESIAN_POINT('',(-10.,4.35,-1.49587944370548E-16));
#527=CARTESIAN_POINT('',(10.,4.35,-1.49587944370548E-16));
#528=CARTESIAN_POINT('',(10.,4.35,-1.49587944370548E-16));
#529=CARTESIAN_POINT('',(10.,4.35,-0.4));
#530=CARTESIAN_POINT('',(10.,4.75,-0.4));
#531=CARTESIAN_POINT('',(10.,4.75,-0.4));
#532=CARTESIAN_POINT('',(10.,4.35,-1.49587944370548E-16));
#533=CARTESIAN_POINT('',(0.,0.,0.));
#534=CARTESIAN_POINT('',(2.4585,0.,0.));
#535=CARTESIAN_POINT('',(-10.,4.35,-1.49587944370548E-16));
#536=CARTESIAN_POINT('',(-10.,-4.35,-3.40312573442995E-15));
#537=CARTESIAN_POINT('',(10.,-4.35,-3.40312573442995E-15));
#538=CARTESIAN_POINT('',(10.,-4.35,-3.40312573442995E-15));
#539=CARTESIAN_POINT('',(10.,4.35,-1.49587944370548E-16));
#540=CARTESIAN_POINT('',(10.,-4.35,-0.400000000000004));
#541=CARTESIAN_POINT('',(-10.,-4.35,-0.400000000000004));
#542=CARTESIAN_POINT('',(-10.,-4.75,-0.400000000000003));
#543=CARTESIAN_POINT('',(10.,-4.75,-0.400000000000003));
#544=CARTESIAN_POINT('',(10.,-4.75,-0.400000000000003));
#545=CARTESIAN_POINT('',(10.,-4.35,-0.400000000000004));
#546=CARTESIAN_POINT('',(10.,-4.75,-0.400000000000003));
#547=CARTESIAN_POINT('',(-10.,-4.75,-0.400000000000003));
#548=CARTESIAN_POINT('',(-10.,-4.75,-4.7));
#549=CARTESIAN_POINT('',(10.,-4.75,-4.7));
#550=CARTESIAN_POINT('',(10.,-4.75,-4.7));
#551=CARTESIAN_POINT('',(10.,-4.75,-0.400000000000003));
#552=CARTESIAN_POINT('',(10.,-5.15,-4.7));
#553=CARTESIAN_POINT('',(-10.,-5.15,-4.7));
#554=CARTESIAN_POINT('',(-10.,-5.15,-5.1));
#555=CARTESIAN_POINT('',(10.,-5.15,-5.1));
#556=CARTESIAN_POINT('',(10.,-5.15,-5.1));
#557=CARTESIAN_POINT('',(10.,-5.15,-4.7));
#558=CARTESIAN_POINT('',(10.,-5.15,-5.1));
#559=CARTESIAN_POINT('',(-10.,-5.15,-5.1));
#560=CARTESIAN_POINT('',(-10.,-9.35,-5.1));
#561=CARTESIAN_POINT('',(10.,-9.35,-5.1));
#562=CARTESIAN_POINT('',(10.,-9.35,-5.1));
#563=CARTESIAN_POINT('',(10.,-5.15,-5.1));
#564=CARTESIAN_POINT('',(10.,-9.35,-5.5));
#565=CARTESIAN_POINT('',(-10.,-9.35,-5.5));
#566=CARTESIAN_POINT('',(-10.,-9.75,-5.5));
#567=CARTESIAN_POINT('',(10.,-9.75,-5.5));
#568=CARTESIAN_POINT('',(10.,-9.75,-5.5));
#569=CARTESIAN_POINT('',(10.,-9.35,-5.5));
#570=CARTESIAN_POINT('',(10.,-9.75,-5.5));
#571=CARTESIAN_POINT('',(-10.,-9.75,-5.5));
#572=CARTESIAN_POINT('',(-10.,-9.75,-7.6));
#573=CARTESIAN_POINT('',(10.,-9.75,-7.6));
#574=CARTESIAN_POINT('',(10.,-9.75,-7.6));
#575=CARTESIAN_POINT('',(10.,-9.75,-5.5));
#576=CARTESIAN_POINT('',(10.,-9.75,-7.6));
#577=CARTESIAN_POINT('',(-10.,-9.75,-7.6));
#578=CARTESIAN_POINT('',(-10.,-6.75,-10.6));
#579=CARTESIAN_POINT('',(10.,-6.75,-10.6));
#580=CARTESIAN_POINT('',(10.,-6.75,-10.6));
#581=CARTESIAN_POINT('',(10.,-9.75,-7.6));
#582=CARTESIAN_POINT('',(10.,-6.75,-10.6));
#583=CARTESIAN_POINT('',(0.,0.,-10.6));
#584=CARTESIAN_POINT('',(2.4585,0.,-10.6));
#585=CARTESIAN_POINT('',(-10.,-6.75,-10.6));
#586=CARTESIAN_POINT('',(-10.,6.75,-10.6));
#587=CARTESIAN_POINT('',(10.,6.75,-10.6));
#588=CARTESIAN_POINT('',(10.,6.75,-10.6));
#589=CARTESIAN_POINT('',(10.,-6.75,-10.6));
#590=CARTESIAN_POINT('',(10.,6.75,-10.6));
#591=CARTESIAN_POINT('',(-10.,6.75,-10.6));
#592=CARTESIAN_POINT('',(-10.,9.75,-7.6));
#593=CARTESIAN_POINT('',(10.,9.75,-7.6));
#594=CARTESIAN_POINT('',(10.,9.75,-7.6));
#595=CARTESIAN_POINT('',(10.,6.75,-10.6));
#596=CARTESIAN_POINT('',(10.,9.75,-7.6));
#597=CARTESIAN_POINT('',(-10.,9.75,-7.6));
#598=CARTESIAN_POINT('',(-10.,9.75,-5.5));
#599=CARTESIAN_POINT('',(10.,9.75,-5.5));
#600=CARTESIAN_POINT('',(10.,9.75,-5.5));
#601=CARTESIAN_POINT('',(10.,9.75,-7.6));
#602=CARTESIAN_POINT('',(10.,9.35,-5.5));
#603=CARTESIAN_POINT('',(-10.,9.35,-5.5));
#604=CARTESIAN_POINT('',(-10.,9.35,-5.1));
#605=CARTESIAN_POINT('',(10.,9.35,-5.1));
#606=CARTESIAN_POINT('',(10.,9.35,-5.1));
#607=CARTESIAN_POINT('',(10.,9.35,-5.5));
#608=CARTESIAN_POINT('',(10.,9.35,-5.1));
#609=CARTESIAN_POINT('',(-10.,9.35,-5.1));
#610=CARTESIAN_POINT('',(-10.,5.15,-5.1));
#611=CARTESIAN_POINT('',(10.,5.15,-5.1));
#612=CARTESIAN_POINT('',(10.,5.15,-5.1));
#613=CARTESIAN_POINT('',(10.,9.35,-5.1));
#614=CARTESIAN_POINT('',(10.,5.15,-4.7));
#615=CARTESIAN_POINT('',(-10.,5.15,-4.7));
#616=CARTESIAN_POINT('',(-10.,4.75,-4.7));
#617=CARTESIAN_POINT('',(10.,4.75,-4.7));
#618=CARTESIAN_POINT('',(10.,4.75,-4.7));
#619=CARTESIAN_POINT('',(10.,5.15,-4.7));
#620=CARTESIAN_POINT('',(10.,4.75,-4.7));
#621=CARTESIAN_POINT('',(-10.,4.75,-4.7));
#622=CARTESIAN_POINT('',(10.,4.75,-4.7));
#623=CARTESIAN_POINT('',(10.,4.35,-0.4));
#624=CARTESIAN_POINT('',(-10.,4.35,-0.4));
#625=CARTESIAN_POINT('',(0.,0.,0.));
#626=MECHANICAL_DESIGN_GEOMETRIC_PRESENTATION_REPRESENTATION('',(#373),
#627);
#627=(
GEOMETRIC_REPRESENTATION_CONTEXT(3)
GLOBAL_UNCERTAINTY_ASSIGNED_CONTEXT((#628))
GLOBAL_UNIT_ASSIGNED_CONTEXT((#631,#630,#629))
REPRESENTATION_CONTEXT('096036','TOP_LEVEL_ASSEMBLY_PART')
);
#628=UNCERTAINTY_MEASURE_WITH_UNIT(LENGTH_MEASURE(0.005),#631,
'DISTANCE_ACCURACY_VALUE','Maximum Tolerance applied to model');
#629=(
NAMED_UNIT(*)
SI_UNIT($,.STERADIAN.)
SOLID_ANGLE_UNIT()
);
#630=(
NAMED_UNIT(*)
PLANE_ANGLE_UNIT()
SI_UNIT($,.RADIAN.)
);
#631=(
LENGTH_UNIT()
NAMED_UNIT(*)
SI_UNIT(.MILLI.,.METRE.)
);
#632=PRODUCT_DEFINITION_SHAPE('','',#633);
#633=PRODUCT_DEFINITION('','',#635,#634);
#634=PRODUCT_DEFINITION_CONTEXT('',#641,'design');
#635=PRODUCT_DEFINITION_FORMATION_WITH_SPECIFIED_SOURCE('','',#637,
 .NOT_KNOWN.);
#636=PRODUCT_RELATED_PRODUCT_CATEGORY('','',(#637));
#637=PRODUCT('096036','096036','096036',(#639));
#638=PRODUCT_CATEGORY('','');
#639=PRODUCT_CONTEXT('',#641,'mechanical');
#640=APPLICATION_PROTOCOL_DEFINITION('international standard',
'automotive_design',2010,#641);
#641=APPLICATION_CONTEXT(
'core data for automotive mechanical design processes');
ENDSEC;
END-ISO-10303-21;
