ISO-10303-21;
HEADER;
/* Generated by software containing ST-Developer
 * from STEP Tools, Inc. (www.steptools.com) 
 */
/* OPTION: using custom renumber hook */

FILE_DESCRIPTION(
/* description */ ('STEP AP214'),
/* implementation_level */ '2;1');

FILE_NAME(
/* name */ '096SM10M05',
/* time_stamp */ '2022-09-01T14:45:41+02:00',
/* author */ ('License CC BY-ND 4.0'),
/* organization */ ('CADENAS'),
/* preprocessor_version */ 'ST-DEVELOPER v18.102',
/* originating_system */ 'PARTsolutions',
/* authorisation */ '  ');

FILE_SCHEMA (('AUTOMOTIVE_DESIGN {1 0 10303 214 3 1 1}'));
ENDSEC;

DATA;
#10=PROPERTY_DEFINITION_REPRESENTATION(#14,#12);
#11=PROPERTY_DEFINITION_REPRESENTATION(#15,#13);
#12=REPRESENTATION('',(#16),#771);
#13=REPRESENTATION('',(#17),#771);
#14=PROPERTY_DEFINITION('pmi validation property','',#776);
#15=PROPERTY_DEFINITION('pmi validation property','',#776);
#16=VALUE_REPRESENTATION_ITEM('number of annotations',COUNT_MEASURE(0.));
#17=VALUE_REPRESENTATION_ITEM('number of views',COUNT_MEASURE(0.));
#18=SHAPE_REPRESENTATION_RELATIONSHIP('','',#486,#19);
#19=ADVANCED_BREP_SHAPE_REPRESENTATION('',(#484),#771);
#20=CYLINDRICAL_SURFACE('',#518,2.067);
#21=CONICAL_SURFACE('',#514,3.75,0.409048941304618);
#22=CIRCLE('',#491,2.067);
#23=CIRCLE('',#497,2.067);
#24=CIRCLE('',#499,2.067);
#25=CIRCLE('',#501,2.067);
#26=CIRCLE('',#508,3.75);
#27=CIRCLE('',#515,2.5);
#28=CIRCLE('',#517,2.067);
#29=ORIENTED_EDGE('',*,*,#155,.F.);
#30=ORIENTED_EDGE('',*,*,#156,.T.);
#31=ORIENTED_EDGE('',*,*,#157,.T.);
#32=ORIENTED_EDGE('',*,*,#158,.F.);
#33=ORIENTED_EDGE('',*,*,#159,.F.);
#34=ORIENTED_EDGE('',*,*,#160,.F.);
#35=ORIENTED_EDGE('',*,*,#161,.F.);
#36=ORIENTED_EDGE('',*,*,#162,.T.);
#37=ORIENTED_EDGE('',*,*,#163,.F.);
#38=ORIENTED_EDGE('',*,*,#164,.F.);
#39=ORIENTED_EDGE('',*,*,#158,.T.);
#40=ORIENTED_EDGE('',*,*,#165,.T.);
#41=ORIENTED_EDGE('',*,*,#166,.F.);
#42=ORIENTED_EDGE('',*,*,#167,.F.);
#43=ORIENTED_EDGE('',*,*,#168,.F.);
#44=ORIENTED_EDGE('',*,*,#169,.T.);
#45=ORIENTED_EDGE('',*,*,#170,.F.);
#46=ORIENTED_EDGE('',*,*,#163,.T.);
#47=ORIENTED_EDGE('',*,*,#171,.T.);
#48=ORIENTED_EDGE('',*,*,#172,.F.);
#49=ORIENTED_EDGE('',*,*,#173,.T.);
#50=ORIENTED_EDGE('',*,*,#174,.F.);
#51=ORIENTED_EDGE('',*,*,#175,.F.);
#52=ORIENTED_EDGE('',*,*,#176,.T.);
#53=ORIENTED_EDGE('',*,*,#177,.T.);
#54=ORIENTED_EDGE('',*,*,#178,.F.);
#55=ORIENTED_EDGE('',*,*,#179,.F.);
#56=ORIENTED_EDGE('',*,*,#174,.T.);
#57=ORIENTED_EDGE('',*,*,#180,.F.);
#58=ORIENTED_EDGE('',*,*,#162,.F.);
#59=ORIENTED_EDGE('',*,*,#181,.F.);
#60=ORIENTED_EDGE('',*,*,#178,.T.);
#61=ORIENTED_EDGE('',*,*,#182,.T.);
#62=ORIENTED_EDGE('',*,*,#156,.F.);
#63=ORIENTED_EDGE('',*,*,#183,.F.);
#64=ORIENTED_EDGE('',*,*,#169,.F.);
#65=ORIENTED_EDGE('',*,*,#184,.F.);
#66=ORIENTED_EDGE('',*,*,#160,.T.);
#67=ORIENTED_EDGE('',*,*,#185,.F.);
#68=ORIENTED_EDGE('',*,*,#172,.T.);
#69=ORIENTED_EDGE('',*,*,#186,.T.);
#70=ORIENTED_EDGE('',*,*,#187,.F.);
#71=ORIENTED_EDGE('',*,*,#188,.F.);
#72=ORIENTED_EDGE('',*,*,#167,.T.);
#73=ORIENTED_EDGE('',*,*,#189,.T.);
#74=ORIENTED_EDGE('',*,*,#190,.F.);
#75=ORIENTED_EDGE('',*,*,#191,.F.);
#76=ORIENTED_EDGE('',*,*,#187,.T.);
#77=ORIENTED_EDGE('',*,*,#192,.T.);
#78=ORIENTED_EDGE('',*,*,#193,.F.);
#79=ORIENTED_EDGE('',*,*,#194,.F.);
#80=ORIENTED_EDGE('',*,*,#190,.T.);
#81=ORIENTED_EDGE('',*,*,#195,.T.);
#82=ORIENTED_EDGE('',*,*,#196,.F.);
#83=ORIENTED_EDGE('',*,*,#197,.F.);
#84=ORIENTED_EDGE('',*,*,#193,.T.);
#85=ORIENTED_EDGE('',*,*,#198,.T.);
#86=ORIENTED_EDGE('',*,*,#199,.F.);
#87=ORIENTED_EDGE('',*,*,#200,.F.);
#88=ORIENTED_EDGE('',*,*,#196,.T.);
#89=ORIENTED_EDGE('',*,*,#201,.T.);
#90=ORIENTED_EDGE('',*,*,#202,.F.);
#91=ORIENTED_EDGE('',*,*,#203,.F.);
#92=ORIENTED_EDGE('',*,*,#199,.T.);
#93=ORIENTED_EDGE('',*,*,#204,.T.);
#94=ORIENTED_EDGE('',*,*,#205,.T.);
#95=ORIENTED_EDGE('',*,*,#206,.F.);
#96=ORIENTED_EDGE('',*,*,#207,.F.);
#97=ORIENTED_EDGE('',*,*,#202,.T.);
#98=ORIENTED_EDGE('',*,*,#208,.T.);
#99=ORIENTED_EDGE('',*,*,#209,.F.);
#100=ORIENTED_EDGE('',*,*,#210,.F.);
#101=ORIENTED_EDGE('',*,*,#206,.T.);
#102=ORIENTED_EDGE('',*,*,#211,.T.);
#103=ORIENTED_EDGE('',*,*,#212,.F.);
#104=ORIENTED_EDGE('',*,*,#213,.F.);
#105=ORIENTED_EDGE('',*,*,#209,.T.);
#106=ORIENTED_EDGE('',*,*,#214,.T.);
#107=ORIENTED_EDGE('',*,*,#176,.F.);
#108=ORIENTED_EDGE('',*,*,#215,.F.);
#109=ORIENTED_EDGE('',*,*,#212,.T.);
#110=ORIENTED_EDGE('',*,*,#175,.T.);
#111=ORIENTED_EDGE('',*,*,#179,.T.);
#112=ORIENTED_EDGE('',*,*,#181,.T.);
#113=ORIENTED_EDGE('',*,*,#161,.T.);
#114=ORIENTED_EDGE('',*,*,#184,.T.);
#115=ORIENTED_EDGE('',*,*,#168,.T.);
#116=ORIENTED_EDGE('',*,*,#188,.T.);
#117=ORIENTED_EDGE('',*,*,#191,.T.);
#118=ORIENTED_EDGE('',*,*,#194,.T.);
#119=ORIENTED_EDGE('',*,*,#197,.T.);
#120=ORIENTED_EDGE('',*,*,#200,.T.);
#121=ORIENTED_EDGE('',*,*,#203,.T.);
#122=ORIENTED_EDGE('',*,*,#207,.T.);
#123=ORIENTED_EDGE('',*,*,#210,.T.);
#124=ORIENTED_EDGE('',*,*,#213,.T.);
#125=ORIENTED_EDGE('',*,*,#215,.T.);
#126=ORIENTED_EDGE('',*,*,#173,.F.);
#127=ORIENTED_EDGE('',*,*,#214,.F.);
#128=ORIENTED_EDGE('',*,*,#211,.F.);
#129=ORIENTED_EDGE('',*,*,#208,.F.);
#130=ORIENTED_EDGE('',*,*,#205,.F.);
#131=ORIENTED_EDGE('',*,*,#201,.F.);
#132=ORIENTED_EDGE('',*,*,#198,.F.);
#133=ORIENTED_EDGE('',*,*,#195,.F.);
#134=ORIENTED_EDGE('',*,*,#192,.F.);
#135=ORIENTED_EDGE('',*,*,#189,.F.);
#136=ORIENTED_EDGE('',*,*,#186,.F.);
#137=ORIENTED_EDGE('',*,*,#171,.F.);
#138=ORIENTED_EDGE('',*,*,#165,.F.);
#139=ORIENTED_EDGE('',*,*,#157,.F.);
#140=ORIENTED_EDGE('',*,*,#182,.F.);
#141=ORIENTED_EDGE('',*,*,#177,.F.);
#142=ORIENTED_EDGE('',*,*,#216,.T.);
#143=ORIENTED_EDGE('',*,*,#204,.F.);
#144=ORIENTED_EDGE('',*,*,#217,.T.);
#145=ORIENTED_EDGE('',*,*,#216,.F.);
#146=ORIENTED_EDGE('',*,*,#164,.T.);
#147=ORIENTED_EDGE('',*,*,#170,.T.);
#148=ORIENTED_EDGE('',*,*,#185,.T.);
#149=ORIENTED_EDGE('',*,*,#166,.T.);
#150=ORIENTED_EDGE('',*,*,#183,.T.);
#151=ORIENTED_EDGE('',*,*,#159,.T.);
#152=ORIENTED_EDGE('',*,*,#180,.T.);
#153=ORIENTED_EDGE('',*,*,#155,.T.);
#154=ORIENTED_EDGE('',*,*,#217,.F.);
#155=EDGE_CURVE('',#218,#219,#261,.F.);
#156=EDGE_CURVE('',#218,#220,#262,.T.);
#157=EDGE_CURVE('',#220,#221,#263,.T.);
#158=EDGE_CURVE('',#219,#221,#264,.T.);
#159=EDGE_CURVE('',#222,#223,#265,.T.);
#160=EDGE_CURVE('',#224,#222,#266,.T.);
#161=EDGE_CURVE('',#225,#224,#267,.T.);
#162=EDGE_CURVE('',#225,#223,#268,.T.);
#163=EDGE_CURVE('',#226,#227,#269,.T.);
#164=EDGE_CURVE('',#219,#226,#22,.F.);
#165=EDGE_CURVE('',#221,#227,#270,.T.);
#166=EDGE_CURVE('',#228,#229,#271,.F.);
#167=EDGE_CURVE('',#230,#228,#272,.T.);
#168=EDGE_CURVE('',#231,#230,#273,.T.);
#169=EDGE_CURVE('',#231,#229,#274,.T.);
#170=EDGE_CURVE('',#226,#232,#275,.T.);
#171=EDGE_CURVE('',#227,#233,#276,.T.);
#172=EDGE_CURVE('',#232,#233,#277,.T.);
#173=EDGE_CURVE('',#234,#235,#278,.T.);
#174=EDGE_CURVE('',#236,#235,#279,.T.);
#175=EDGE_CURVE('',#237,#236,#280,.T.);
#176=EDGE_CURVE('',#237,#234,#281,.T.);
#177=EDGE_CURVE('',#235,#238,#282,.T.);
#178=EDGE_CURVE('',#239,#238,#283,.T.);
#179=EDGE_CURVE('',#236,#239,#284,.T.);
#180=EDGE_CURVE('',#223,#218,#23,.T.);
#181=EDGE_CURVE('',#239,#225,#285,.T.);
#182=EDGE_CURVE('',#238,#220,#286,.T.);
#183=EDGE_CURVE('',#229,#222,#24,.F.);
#184=EDGE_CURVE('',#224,#231,#287,.T.);
#185=EDGE_CURVE('',#232,#228,#25,.T.);
#186=EDGE_CURVE('',#233,#240,#288,.T.);
#187=EDGE_CURVE('',#241,#240,#289,.T.);
#188=EDGE_CURVE('',#230,#241,#290,.T.);
#189=EDGE_CURVE('',#240,#242,#291,.T.);
#190=EDGE_CURVE('',#243,#242,#292,.T.);
#191=EDGE_CURVE('',#241,#243,#293,.T.);
#192=EDGE_CURVE('',#242,#244,#294,.T.);
#193=EDGE_CURVE('',#245,#244,#295,.T.);
#194=EDGE_CURVE('',#243,#245,#296,.T.);
#195=EDGE_CURVE('',#244,#246,#297,.T.);
#196=EDGE_CURVE('',#247,#246,#298,.T.);
#197=EDGE_CURVE('',#245,#247,#299,.T.);
#198=EDGE_CURVE('',#246,#248,#300,.T.);
#199=EDGE_CURVE('',#249,#248,#301,.T.);
#200=EDGE_CURVE('',#247,#249,#302,.T.);
#201=EDGE_CURVE('',#248,#250,#303,.T.);
#202=EDGE_CURVE('',#251,#250,#304,.T.);
#203=EDGE_CURVE('',#249,#251,#305,.T.);
#204=EDGE_CURVE('',#252,#252,#26,.T.);
#205=EDGE_CURVE('',#250,#253,#306,.T.);
#206=EDGE_CURVE('',#254,#253,#307,.T.);
#207=EDGE_CURVE('',#251,#254,#308,.T.);
#208=EDGE_CURVE('',#253,#255,#309,.T.);
#209=EDGE_CURVE('',#256,#255,#310,.T.);
#210=EDGE_CURVE('',#254,#256,#311,.T.);
#211=EDGE_CURVE('',#255,#257,#312,.T.);
#212=EDGE_CURVE('',#258,#257,#313,.T.);
#213=EDGE_CURVE('',#256,#258,#314,.T.);
#214=EDGE_CURVE('',#257,#234,#315,.T.);
#215=EDGE_CURVE('',#258,#237,#316,.T.);
#216=EDGE_CURVE('',#259,#259,#27,.T.);
#217=EDGE_CURVE('',#260,#260,#28,.F.);
#218=VERTEX_POINT('',#642);
#219=VERTEX_POINT('',#643);
#220=VERTEX_POINT('',#645);
#221=VERTEX_POINT('',#647);
#222=VERTEX_POINT('',#651);
#223=VERTEX_POINT('',#652);
#224=VERTEX_POINT('',#654);
#225=VERTEX_POINT('',#656);
#226=VERTEX_POINT('',#660);
#227=VERTEX_POINT('',#661);
#228=VERTEX_POINT('',#666);
#229=VERTEX_POINT('',#667);
#230=VERTEX_POINT('',#669);
#231=VERTEX_POINT('',#671);
#232=VERTEX_POINT('',#675);
#233=VERTEX_POINT('',#677);
#234=VERTEX_POINT('',#681);
#235=VERTEX_POINT('',#682);
#236=VERTEX_POINT('',#684);
#237=VERTEX_POINT('',#686);
#238=VERTEX_POINT('',#690);
#239=VERTEX_POINT('',#692);
#240=VERTEX_POINT('',#704);
#241=VERTEX_POINT('',#706);
#242=VERTEX_POINT('',#710);
#243=VERTEX_POINT('',#712);
#244=VERTEX_POINT('',#716);
#245=VERTEX_POINT('',#718);
#246=VERTEX_POINT('',#722);
#247=VERTEX_POINT('',#724);
#248=VERTEX_POINT('',#728);
#249=VERTEX_POINT('',#730);
#250=VERTEX_POINT('',#734);
#251=VERTEX_POINT('',#736);
#252=VERTEX_POINT('',#740);
#253=VERTEX_POINT('',#742);
#254=VERTEX_POINT('',#744);
#255=VERTEX_POINT('',#748);
#256=VERTEX_POINT('',#750);
#257=VERTEX_POINT('',#754);
#258=VERTEX_POINT('',#756);
#259=VERTEX_POINT('',#765);
#260=VERTEX_POINT('',#768);
#261=LINE('',#641,#317);
#262=LINE('',#644,#318);
#263=LINE('',#646,#319);
#264=LINE('',#648,#320);
#265=LINE('',#650,#321);
#266=LINE('',#653,#322);
#267=LINE('',#655,#323);
#268=LINE('',#657,#324);
#269=LINE('',#659,#325);
#270=LINE('',#663,#326);
#271=LINE('',#665,#327);
#272=LINE('',#668,#328);
#273=LINE('',#670,#329);
#274=LINE('',#672,#330);
#275=LINE('',#674,#331);
#276=LINE('',#676,#332);
#277=LINE('',#678,#333);
#278=LINE('',#680,#334);
#279=LINE('',#683,#335);
#280=LINE('',#685,#336);
#281=LINE('',#687,#337);
#282=LINE('',#689,#338);
#283=LINE('',#691,#339);
#284=LINE('',#693,#340);
#285=LINE('',#696,#341);
#286=LINE('',#697,#342);
#287=LINE('',#700,#343);
#288=LINE('',#703,#344);
#289=LINE('',#705,#345);
#290=LINE('',#707,#346);
#291=LINE('',#709,#347);
#292=LINE('',#711,#348);
#293=LINE('',#713,#349);
#294=LINE('',#715,#350);
#295=LINE('',#717,#351);
#296=LINE('',#719,#352);
#297=LINE('',#721,#353);
#298=LINE('',#723,#354);
#299=LINE('',#725,#355);
#300=LINE('',#727,#356);
#301=LINE('',#729,#357);
#302=LINE('',#731,#358);
#303=LINE('',#733,#359);
#304=LINE('',#735,#360);
#305=LINE('',#737,#361);
#306=LINE('',#741,#362);
#307=LINE('',#743,#363);
#308=LINE('',#745,#364);
#309=LINE('',#747,#365);
#310=LINE('',#749,#366);
#311=LINE('',#751,#367);
#312=LINE('',#753,#368);
#313=LINE('',#755,#369);
#314=LINE('',#757,#370);
#315=LINE('',#759,#371);
#316=LINE('',#760,#372);
#317=VECTOR('',#523,1000.);
#318=VECTOR('',#524,1000.);
#319=VECTOR('',#525,1000.);
#320=VECTOR('',#526,1000.);
#321=VECTOR('',#529,1000.);
#322=VECTOR('',#530,1000.);
#323=VECTOR('',#531,1000.);
#324=VECTOR('',#532,1000.);
#325=VECTOR('',#535,1000.);
#326=VECTOR('',#538,1000.);
#327=VECTOR('',#541,1000.);
#328=VECTOR('',#542,1000.);
#329=VECTOR('',#543,1000.);
#330=VECTOR('',#544,1000.);
#331=VECTOR('',#547,1000.);
#332=VECTOR('',#548,1000.);
#333=VECTOR('',#549,1000.);
#334=VECTOR('',#552,1000.);
#335=VECTOR('',#553,1000.);
#336=VECTOR('',#554,1000.);
#337=VECTOR('',#555,1000.);
#338=VECTOR('',#558,1000.);
#339=VECTOR('',#559,1000.);
#340=VECTOR('',#560,1000.);
#341=VECTOR('',#565,1000.);
#342=VECTOR('',#566,1000.);
#343=VECTOR('',#571,1000.);
#344=VECTOR('',#576,1000.);
#345=VECTOR('',#577,1000.);
#346=VECTOR('',#578,1000.);
#347=VECTOR('',#581,1000.);
#348=VECTOR('',#582,1000.);
#349=VECTOR('',#583,1000.);
#350=VECTOR('',#586,1000.);
#351=VECTOR('',#587,1000.);
#352=VECTOR('',#588,1000.);
#353=VECTOR('',#591,1000.);
#354=VECTOR('',#592,1000.);
#355=VECTOR('',#593,1000.);
#356=VECTOR('',#596,1000.);
#357=VECTOR('',#597,1000.);
#358=VECTOR('',#598,1000.);
#359=VECTOR('',#601,1000.);
#360=VECTOR('',#602,1000.);
#361=VECTOR('',#603,1000.);
#362=VECTOR('',#608,1000.);
#363=VECTOR('',#609,1000.);
#364=VECTOR('',#610,1000.);
#365=VECTOR('',#613,1000.);
#366=VECTOR('',#614,1000.);
#367=VECTOR('',#615,1000.);
#368=VECTOR('',#618,1000.);
#369=VECTOR('',#619,1000.);
#370=VECTOR('',#620,1000.);
#371=VECTOR('',#623,1000.);
#372=VECTOR('',#624,1000.);
#373=EDGE_LOOP('',(#29,#30,#31,#32));
#374=EDGE_LOOP('',(#33,#34,#35,#36));
#375=EDGE_LOOP('',(#37,#38,#39,#40));
#376=EDGE_LOOP('',(#41,#42,#43,#44));
#377=EDGE_LOOP('',(#45,#46,#47,#48));
#378=EDGE_LOOP('',(#49,#50,#51,#52));
#379=EDGE_LOOP('',(#53,#54,#55,#56));
#380=EDGE_LOOP('',(#57,#58,#59,#60,#61,#62));
#381=EDGE_LOOP('',(#63,#64,#65,#66));
#382=EDGE_LOOP('',(#67,#68,#69,#70,#71,#72));
#383=EDGE_LOOP('',(#73,#74,#75,#76));
#384=EDGE_LOOP('',(#77,#78,#79,#80));
#385=EDGE_LOOP('',(#81,#82,#83,#84));
#386=EDGE_LOOP('',(#85,#86,#87,#88));
#387=EDGE_LOOP('',(#89,#90,#91,#92));
#388=EDGE_LOOP('',(#93));
#389=EDGE_LOOP('',(#94,#95,#96,#97));
#390=EDGE_LOOP('',(#98,#99,#100,#101));
#391=EDGE_LOOP('',(#102,#103,#104,#105));
#392=EDGE_LOOP('',(#106,#107,#108,#109));
#393=EDGE_LOOP('',(#110,#111,#112,#113,#114,#115,#116,#117,#118,#119,#120,
#121,#122,#123,#124,#125));
#394=EDGE_LOOP('',(#126,#127,#128,#129,#130,#131,#132,#133,#134,#135,#136,
#137,#138,#139,#140,#141));
#395=EDGE_LOOP('',(#142));
#396=EDGE_LOOP('',(#143));
#397=EDGE_LOOP('',(#144));
#398=EDGE_LOOP('',(#145));
#399=EDGE_LOOP('',(#146,#147,#148,#149,#150,#151,#152,#153));
#400=EDGE_LOOP('',(#154));
#401=FACE_BOUND('',#373,.T.);
#402=FACE_BOUND('',#374,.T.);
#403=FACE_BOUND('',#375,.T.);
#404=FACE_BOUND('',#376,.T.);
#405=FACE_BOUND('',#377,.T.);
#406=FACE_BOUND('',#378,.T.);
#407=FACE_BOUND('',#379,.T.);
#408=FACE_BOUND('',#380,.T.);
#409=FACE_BOUND('',#381,.T.);
#410=FACE_BOUND('',#382,.T.);
#411=FACE_BOUND('',#383,.T.);
#412=FACE_BOUND('',#384,.T.);
#413=FACE_BOUND('',#385,.T.);
#414=FACE_BOUND('',#386,.T.);
#415=FACE_BOUND('',#387,.T.);
#416=FACE_BOUND('',#388,.T.);
#417=FACE_BOUND('',#389,.T.);
#418=FACE_BOUND('',#390,.T.);
#419=FACE_BOUND('',#391,.T.);
#420=FACE_BOUND('',#392,.T.);
#421=FACE_BOUND('',#393,.T.);
#422=FACE_BOUND('',#394,.T.);
#423=FACE_BOUND('',#395,.T.);
#424=FACE_BOUND('',#396,.T.);
#425=FACE_BOUND('',#397,.T.);
#426=FACE_BOUND('',#398,.T.);
#427=FACE_BOUND('',#399,.T.);
#428=FACE_BOUND('',#400,.T.);
#429=PLANE('',#488);
#430=PLANE('',#489);
#431=PLANE('',#490);
#432=PLANE('',#492);
#433=PLANE('',#493);
#434=PLANE('',#494);
#435=PLANE('',#495);
#436=PLANE('',#496);
#437=PLANE('',#498);
#438=PLANE('',#500);
#439=PLANE('',#502);
#440=PLANE('',#503);
#441=PLANE('',#504);
#442=PLANE('',#505);
#443=PLANE('',#506);
#444=PLANE('',#507);
#445=PLANE('',#509);
#446=PLANE('',#510);
#447=PLANE('',#511);
#448=PLANE('',#512);
#449=PLANE('',#513);
#450=PLANE('',#516);
#451=ADVANCED_FACE('',(#401),#429,.F.);
#452=ADVANCED_FACE('',(#402),#430,.F.);
#453=ADVANCED_FACE('',(#403),#431,.F.);
#454=ADVANCED_FACE('',(#404),#432,.F.);
#455=ADVANCED_FACE('',(#405),#433,.F.);
#456=ADVANCED_FACE('',(#406),#434,.F.);
#457=ADVANCED_FACE('',(#407),#435,.F.);
#458=ADVANCED_FACE('',(#408),#436,.F.);
#459=ADVANCED_FACE('',(#409),#437,.F.);
#460=ADVANCED_FACE('',(#410),#438,.F.);
#461=ADVANCED_FACE('',(#411),#439,.F.);
#462=ADVANCED_FACE('',(#412),#440,.F.);
#463=ADVANCED_FACE('',(#413),#441,.F.);
#464=ADVANCED_FACE('',(#414),#442,.F.);
#465=ADVANCED_FACE('',(#415),#443,.F.);
#466=ADVANCED_FACE('',(#416,#417),#444,.F.);
#467=ADVANCED_FACE('',(#418),#445,.F.);
#468=ADVANCED_FACE('',(#419),#446,.F.);
#469=ADVANCED_FACE('',(#420),#447,.F.);
#470=ADVANCED_FACE('',(#421),#448,.T.);
#471=ADVANCED_FACE('',(#422),#449,.F.);
#472=ADVANCED_FACE('',(#423,#424),#21,.F.);
#473=ADVANCED_FACE('',(#425,#426),#450,.T.);
#474=ADVANCED_FACE('',(#427,#428),#20,.F.);
#475=CLOSED_SHELL('',(#451,#452,#453,#454,#455,#456,#457,#458,#459,#460,
#461,#462,#463,#464,#465,#466,#467,#468,#469,#470,#471,#472,#473,#474));
#476=STYLED_ITEM('',(#477),#484);
#477=PRESENTATION_STYLE_ASSIGNMENT((#478));
#478=SURFACE_STYLE_USAGE(.BOTH.,#479);
#479=SURFACE_SIDE_STYLE('',(#480));
#480=SURFACE_STYLE_FILL_AREA(#481);
#481=FILL_AREA_STYLE('',(#482));
#482=FILL_AREA_STYLE_COLOUR('',#483);
#483=COLOUR_RGB('',0.054901961237192,0.054901961237192,0.062745101749897);
#484=MANIFOLD_SOLID_BREP('096SM10M05',#475);
#485=SHAPE_DEFINITION_REPRESENTATION(#776,#486);
#486=SHAPE_REPRESENTATION('096SM10M05',(#487),#771);
#487=AXIS2_PLACEMENT_3D('',#639,#519,#520);
#488=AXIS2_PLACEMENT_3D('',#640,#521,#522);
#489=AXIS2_PLACEMENT_3D('',#649,#527,#528);
#490=AXIS2_PLACEMENT_3D('',#658,#533,#534);
#491=AXIS2_PLACEMENT_3D('',#662,#536,#537);
#492=AXIS2_PLACEMENT_3D('',#664,#539,#540);
#493=AXIS2_PLACEMENT_3D('',#673,#545,#546);
#494=AXIS2_PLACEMENT_3D('',#679,#550,#551);
#495=AXIS2_PLACEMENT_3D('',#688,#556,#557);
#496=AXIS2_PLACEMENT_3D('',#694,#561,#562);
#497=AXIS2_PLACEMENT_3D('',#695,#563,#564);
#498=AXIS2_PLACEMENT_3D('',#698,#567,#568);
#499=AXIS2_PLACEMENT_3D('',#699,#569,#570);
#500=AXIS2_PLACEMENT_3D('',#701,#572,#573);
#501=AXIS2_PLACEMENT_3D('',#702,#574,#575);
#502=AXIS2_PLACEMENT_3D('',#708,#579,#580);
#503=AXIS2_PLACEMENT_3D('',#714,#584,#585);
#504=AXIS2_PLACEMENT_3D('',#720,#589,#590);
#505=AXIS2_PLACEMENT_3D('',#726,#594,#595);
#506=AXIS2_PLACEMENT_3D('',#732,#599,#600);
#507=AXIS2_PLACEMENT_3D('',#738,#604,#605);
#508=AXIS2_PLACEMENT_3D('',#739,#606,#607);
#509=AXIS2_PLACEMENT_3D('',#746,#611,#612);
#510=AXIS2_PLACEMENT_3D('',#752,#616,#617);
#511=AXIS2_PLACEMENT_3D('',#758,#621,#622);
#512=AXIS2_PLACEMENT_3D('',#761,#625,#626);
#513=AXIS2_PLACEMENT_3D('',#762,#627,#628);
#514=AXIS2_PLACEMENT_3D('',#763,#629,#630);
#515=AXIS2_PLACEMENT_3D('',#764,#631,#632);
#516=AXIS2_PLACEMENT_3D('',#766,#633,#634);
#517=AXIS2_PLACEMENT_3D('',#767,#635,#636);
#518=AXIS2_PLACEMENT_3D('',#769,#637,#638);
#519=DIRECTION('',(0.,0.,1.));
#520=DIRECTION('',(1.,0.,0.));
#521=DIRECTION('',(-1.,0.,0.));
#522=DIRECTION('',(0.,0.,1.));
#523=DIRECTION('',(0.,-1.,0.));
#524=DIRECTION('',(0.,0.,-1.));
#525=DIRECTION('',(0.,1.,0.));
#526=DIRECTION('',(0.,0.,-1.));
#527=DIRECTION('',(-1.,0.,0.));
#528=DIRECTION('',(0.,0.,1.));
#529=DIRECTION('',(0.,-1.,0.));
#530=DIRECTION('',(0.,0.,-1.));
#531=DIRECTION('',(0.,1.,0.));
#532=DIRECTION('',(0.,0.,-1.));
#533=DIRECTION('',(4.33680868994202E-16,1.,0.));
#534=DIRECTION('',(-1.,4.33680868994202E-16,0.));
#535=DIRECTION('',(0.,0.,-1.));
#536=DIRECTION('',(4.33680868994202E-16,1.,0.));
#537=DIRECTION('',(-1.,4.33680868994202E-16,0.));
#538=DIRECTION('',(1.,-4.33680868994202E-16,0.));
#539=DIRECTION('',(1.,0.,0.));
#540=DIRECTION('',(0.,0.,-1.));
#541=DIRECTION('',(0.,-1.,0.));
#542=DIRECTION('',(0.,0.,-1.));
#543=DIRECTION('',(0.,-1.,0.));
#544=DIRECTION('',(0.,0.,-1.));
#545=DIRECTION('',(1.,0.,0.));
#546=DIRECTION('',(0.,0.,-1.));
#547=DIRECTION('',(0.,-1.,0.));
#548=DIRECTION('',(0.,-1.,0.));
#549=DIRECTION('',(0.,0.,-1.));
#550=DIRECTION('',(0.46483389898992,-0.885397902837943,0.));
#551=DIRECTION('',(0.885397902837944,0.464833898989921,0.));
#552=DIRECTION('',(-0.885397902837944,-0.46483389898992,0.));
#553=DIRECTION('',(0.,0.,-1.));
#554=DIRECTION('',(-0.885397902837944,-0.46483389898992,0.));
#555=DIRECTION('',(0.,0.,-1.));
#556=DIRECTION('',(0.883115719457411,0.469155225961749,0.));
#557=DIRECTION('',(-0.469155225961749,0.883115719457411,0.));
#558=DIRECTION('',(0.469155225961749,-0.883115719457411,0.));
#559=DIRECTION('',(0.,0.,-1.));
#560=DIRECTION('',(0.469155225961749,-0.883115719457411,0.));
#561=DIRECTION('',(0.,1.,0.));
#562=DIRECTION('',(0.,0.,1.));
#563=DIRECTION('',(0.,-1.,0.));
#564=DIRECTION('',(0.,0.,-1.));
#565=DIRECTION('',(1.,0.,0.));
#566=DIRECTION('',(1.,0.,0.));
#567=DIRECTION('',(4.33680868994202E-16,1.,0.));
#568=DIRECTION('',(-1.,4.33680868994202E-16,0.));
#569=DIRECTION('',(4.33680868994202E-16,1.,0.));
#570=DIRECTION('',(-1.,4.33680868994202E-16,0.));
#571=DIRECTION('',(1.,-4.33680868994202E-16,0.));
#572=DIRECTION('',(0.,1.,0.));
#573=DIRECTION('',(0.,0.,1.));
#574=DIRECTION('',(0.,-1.,0.));
#575=DIRECTION('',(0.,0.,-1.));
#576=DIRECTION('',(1.,0.,0.));
#577=DIRECTION('',(0.,0.,-1.));
#578=DIRECTION('',(1.,0.,0.));
#579=DIRECTION('',(-0.883115719457411,0.46915522596175,0.));
#580=DIRECTION('',(-0.46915522596175,-0.883115719457411,0.));
#581=DIRECTION('',(0.469155225961749,0.88311571945741,0.));
#582=DIRECTION('',(0.,0.,-1.));
#583=DIRECTION('',(0.469155225961749,0.88311571945741,0.));
#584=DIRECTION('',(-0.464833898989921,-0.885397902837943,0.));
#585=DIRECTION('',(0.885397902837943,-0.464833898989921,0.));
#586=DIRECTION('',(-0.885397902837943,0.464833898989921,0.));
#587=DIRECTION('',(0.,0.,-1.));
#588=DIRECTION('',(-0.885397902837943,0.464833898989921,0.));
#589=DIRECTION('',(-1.,1.98027794061279E-16,0.));
#590=DIRECTION('',(-1.98027794061279E-16,-1.,0.));
#591=DIRECTION('',(1.98027794061279E-16,1.,0.));
#592=DIRECTION('',(0.,0.,-1.));
#593=DIRECTION('',(1.98027794061279E-16,1.,0.));
#594=DIRECTION('',(-0.194937128341437,0.98081574008271,0.));
#595=DIRECTION('',(-0.98081574008271,-0.194937128341437,0.));
#596=DIRECTION('',(0.98081574008271,0.194937128341437,0.));
#597=DIRECTION('',(0.,0.,-1.));
#598=DIRECTION('',(0.98081574008271,0.194937128341437,0.));
#599=DIRECTION('',(-1.,0.,0.));
#600=DIRECTION('',(0.,0.,1.));
#601=DIRECTION('',(0.,1.,0.));
#602=DIRECTION('',(0.,0.,-1.));
#603=DIRECTION('',(0.,1.,0.));
#604=DIRECTION('',(0.,-1.,0.));
#605=DIRECTION('',(0.,0.,-1.));
#606=DIRECTION('',(0.,-1.,0.));
#607=DIRECTION('',(0.,0.,-1.));
#608=DIRECTION('',(-1.,0.,0.));
#609=DIRECTION('',(0.,0.,-1.));
#610=DIRECTION('',(-1.,0.,0.));
#611=DIRECTION('',(1.,0.,0.));
#612=DIRECTION('',(0.,0.,-1.));
#613=DIRECTION('',(0.,-1.,0.));
#614=DIRECTION('',(0.,0.,-1.));
#615=DIRECTION('',(0.,-1.,0.));
#616=DIRECTION('',(0.194937128341439,0.98081574008271,0.));
#617=DIRECTION('',(-0.98081574008271,0.194937128341439,0.));
#618=DIRECTION('',(0.98081574008271,-0.194937128341439,0.));
#619=DIRECTION('',(0.,0.,-1.));
#620=DIRECTION('',(0.98081574008271,-0.194937128341439,0.));
#621=DIRECTION('',(1.,2.07502808131197E-16,0.));
#622=DIRECTION('',(-2.07502808131197E-16,1.,0.));
#623=DIRECTION('',(2.07502808131197E-16,-1.,0.));
#624=DIRECTION('',(2.07502808131197E-16,-1.,0.));
#625=DIRECTION('',(0.,0.,1.));
#626=DIRECTION('',(1.,0.,0.));
#627=DIRECTION('',(0.,0.,1.));
#628=DIRECTION('',(1.,0.,0.));
#629=DIRECTION('',(0.,1.,0.));
#630=DIRECTION('',(0.,0.,1.));
#631=DIRECTION('',(0.,-1.,0.));
#632=DIRECTION('',(0.,0.,-1.));
#633=DIRECTION('',(0.,1.,0.));
#634=DIRECTION('',(0.,0.,1.));
#635=DIRECTION('',(0.,1.,0.));
#636=DIRECTION('',(0.,0.,1.));
#637=DIRECTION('',(0.,-1.,0.));
#638=DIRECTION('',(0.,0.,-1.));
#639=CARTESIAN_POINT('',(0.,0.,0.));
#640=CARTESIAN_POINT('',(-0.5,-4.4,6.));
#641=CARTESIAN_POINT('',(-0.5,-4.4,-2.00561436971318));
#642=CARTESIAN_POINT('',(-0.5,-4.4,-2.00561436971318));
#643=CARTESIAN_POINT('',(-0.5,1.4,-2.00561436971318));
#644=CARTESIAN_POINT('',(-0.5,-4.4,6.));
#645=CARTESIAN_POINT('',(-0.5,-4.4,-6.));
#646=CARTESIAN_POINT('',(-0.5,-4.4,-6.));
#647=CARTESIAN_POINT('',(-0.5,1.4,-6.));
#648=CARTESIAN_POINT('',(-0.5,1.4,6.));
#649=CARTESIAN_POINT('',(-0.5,-4.4,6.));
#650=CARTESIAN_POINT('',(-0.5,-4.4,2.00561436971318));
#651=CARTESIAN_POINT('',(-0.5,1.4,2.00561436971318));
#652=CARTESIAN_POINT('',(-0.5,-4.4,2.00561436971318));
#653=CARTESIAN_POINT('',(-0.5,1.4,6.));
#654=CARTESIAN_POINT('',(-0.5,1.4,6.));
#655=CARTESIAN_POINT('',(-0.5,-4.4,6.));
#656=CARTESIAN_POINT('',(-0.5,-4.4,6.));
#657=CARTESIAN_POINT('',(-0.5,-4.4,6.));
#658=CARTESIAN_POINT('',(-0.5,1.4,6.));
#659=CARTESIAN_POINT('',(0.5,1.4,6.));
#660=CARTESIAN_POINT('',(0.5,1.4,-2.00561436971318));
#661=CARTESIAN_POINT('',(0.5,1.4,-6.));
#662=CARTESIAN_POINT('',(0.,1.4,0.));
#663=CARTESIAN_POINT('',(-0.5,1.4,-6.));
#664=CARTESIAN_POINT('',(0.5,1.4,6.));
#665=CARTESIAN_POINT('',(0.5,-4.4,2.00561436971318));
#666=CARTESIAN_POINT('',(0.5,-4.4,2.00561436971318));
#667=CARTESIAN_POINT('',(0.5,1.4,2.00561436971318));
#668=CARTESIAN_POINT('',(0.5,-4.4,6.));
#669=CARTESIAN_POINT('',(0.5,-4.4,6.));
#670=CARTESIAN_POINT('',(0.5,1.4,6.));
#671=CARTESIAN_POINT('',(0.5,1.4,6.));
#672=CARTESIAN_POINT('',(0.5,1.4,6.));
#673=CARTESIAN_POINT('',(0.5,1.4,6.));
#674=CARTESIAN_POINT('',(0.5,-4.4,-2.00561436971318));
#675=CARTESIAN_POINT('',(0.5,-4.4,-2.00561436971318));
#676=CARTESIAN_POINT('',(0.5,1.4,-6.));
#677=CARTESIAN_POINT('',(0.5,-4.4,-6.));
#678=CARTESIAN_POINT('',(0.5,-4.4,6.));
#679=CARTESIAN_POINT('',(-5.,-0.78,6.));
#680=CARTESIAN_POINT('',(-5.,-0.78,-6.));
#681=CARTESIAN_POINT('',(-5.,-0.78,-6.));
#682=CARTESIAN_POINT('',(-5.8,-1.2,-6.));
#683=CARTESIAN_POINT('',(-5.8,-1.2,6.));
#684=CARTESIAN_POINT('',(-5.8,-1.2,6.));
#685=CARTESIAN_POINT('',(-5.,-0.78,6.));
#686=CARTESIAN_POINT('',(-5.,-0.78,6.));
#687=CARTESIAN_POINT('',(-5.,-0.78,6.));
#688=CARTESIAN_POINT('',(-5.8,-1.2,6.));
#689=CARTESIAN_POINT('',(-5.8,-1.2,-6.));
#690=CARTESIAN_POINT('',(-4.1,-4.4,-6.));
#691=CARTESIAN_POINT('',(-4.1,-4.4,6.));
#692=CARTESIAN_POINT('',(-4.1,-4.4,6.));
#693=CARTESIAN_POINT('',(-5.8,-1.2,6.));
#694=CARTESIAN_POINT('',(-4.1,-4.4,6.));
#695=CARTESIAN_POINT('',(0.,-4.4,0.));
#696=CARTESIAN_POINT('',(-4.1,-4.4,6.));
#697=CARTESIAN_POINT('',(-4.1,-4.4,-6.));
#698=CARTESIAN_POINT('',(-0.5,1.4,6.));
#699=CARTESIAN_POINT('',(0.,1.4,0.));
#700=CARTESIAN_POINT('',(-0.5,1.4,6.));
#701=CARTESIAN_POINT('',(0.5,-4.4,6.));
#702=CARTESIAN_POINT('',(0.,-4.4,0.));
#703=CARTESIAN_POINT('',(0.5,-4.4,-6.));
#704=CARTESIAN_POINT('',(4.1,-4.4,-6.));
#705=CARTESIAN_POINT('',(4.1,-4.4,6.));
#706=CARTESIAN_POINT('',(4.1,-4.4,6.));
#707=CARTESIAN_POINT('',(0.5,-4.4,6.));
#708=CARTESIAN_POINT('',(4.1,-4.4,6.));
#709=CARTESIAN_POINT('',(4.1,-4.4,-6.));
#710=CARTESIAN_POINT('',(5.8,-1.2,-6.));
#711=CARTESIAN_POINT('',(5.8,-1.2,6.));
#712=CARTESIAN_POINT('',(5.8,-1.2,6.));
#713=CARTESIAN_POINT('',(4.1,-4.4,6.));
#714=CARTESIAN_POINT('',(5.8,-1.2,6.));
#715=CARTESIAN_POINT('',(5.8,-1.2,-6.));
#716=CARTESIAN_POINT('',(5.,-0.78,-6.));
#717=CARTESIAN_POINT('',(5.,-0.78,6.));
#718=CARTESIAN_POINT('',(5.,-0.78,6.));
#719=CARTESIAN_POINT('',(5.8,-1.2,6.));
#720=CARTESIAN_POINT('',(5.,-0.78,6.));
#721=CARTESIAN_POINT('',(5.,-0.78,-6.));
#722=CARTESIAN_POINT('',(5.,3.6,-6.));
#723=CARTESIAN_POINT('',(5.,3.6,6.));
#724=CARTESIAN_POINT('',(5.,3.6,6.));
#725=CARTESIAN_POINT('',(5.,-0.78,6.));
#726=CARTESIAN_POINT('',(5.,3.6,6.));
#727=CARTESIAN_POINT('',(5.,3.6,-6.));
#728=CARTESIAN_POINT('',(5.8,3.759,-6.));
#729=CARTESIAN_POINT('',(5.8,3.759,6.));
#730=CARTESIAN_POINT('',(5.8,3.759,6.));
#731=CARTESIAN_POINT('',(5.,3.6,6.));
#732=CARTESIAN_POINT('',(5.8,3.759,6.));
#733=CARTESIAN_POINT('',(5.8,3.759,-6.));
#734=CARTESIAN_POINT('',(5.8,4.6,-6.));
#735=CARTESIAN_POINT('',(5.8,4.6,6.));
#736=CARTESIAN_POINT('',(5.8,4.6,6.));
#737=CARTESIAN_POINT('',(5.8,3.759,6.));
#738=CARTESIAN_POINT('',(5.8,4.6,6.));
#739=CARTESIAN_POINT('',(0.,4.6,0.));
#740=CARTESIAN_POINT('',(0.,4.6,-3.75));
#741=CARTESIAN_POINT('',(5.8,4.6,-6.));
#742=CARTESIAN_POINT('',(-5.8,4.6,-6.));
#743=CARTESIAN_POINT('',(-5.8,4.6,6.));
#744=CARTESIAN_POINT('',(-5.8,4.6,6.));
#745=CARTESIAN_POINT('',(5.8,4.6,6.));
#746=CARTESIAN_POINT('',(-5.8,4.6,6.));
#747=CARTESIAN_POINT('',(-5.8,4.6,-6.));
#748=CARTESIAN_POINT('',(-5.8,3.559,-6.));
#749=CARTESIAN_POINT('',(-5.8,3.559,6.));
#750=CARTESIAN_POINT('',(-5.8,3.559,6.));
#751=CARTESIAN_POINT('',(-5.8,4.6,6.));
#752=CARTESIAN_POINT('',(-5.8,3.559,6.));
#753=CARTESIAN_POINT('',(-5.8,3.559,-6.));
#754=CARTESIAN_POINT('',(-5.,3.4,-6.));
#755=CARTESIAN_POINT('',(-5.,3.4,6.));
#756=CARTESIAN_POINT('',(-5.,3.4,6.));
#757=CARTESIAN_POINT('',(-5.8,3.559,6.));
#758=CARTESIAN_POINT('',(-5.,3.4,6.));
#759=CARTESIAN_POINT('',(-5.,3.4,-6.));
#760=CARTESIAN_POINT('',(-5.,3.4,6.));
#761=CARTESIAN_POINT('',(0.,0.,6.));
#762=CARTESIAN_POINT('',(0.,0.,-6.));
#763=CARTESIAN_POINT('',(0.,4.6,0.));
#764=CARTESIAN_POINT('',(0.,1.7165,0.));
#765=CARTESIAN_POINT('',(0.,1.7165,-2.5));
#766=CARTESIAN_POINT('',(0.,1.7165,-2.5));
#767=CARTESIAN_POINT('',(0.,1.7165,0.));
#768=CARTESIAN_POINT('',(0.,1.7165,2.067));
#769=CARTESIAN_POINT('',(0.,-4.4,0.));
#770=MECHANICAL_DESIGN_GEOMETRIC_PRESENTATION_REPRESENTATION('',(#476),
#771);
#771=(
GEOMETRIC_REPRESENTATION_CONTEXT(3)
GLOBAL_UNCERTAINTY_ASSIGNED_CONTEXT((#772))
GLOBAL_UNIT_ASSIGNED_CONTEXT((#775,#774,#773))
REPRESENTATION_CONTEXT('096SM10M05','TOP_LEVEL_ASSEMBLY_PART')
);
#772=UNCERTAINTY_MEASURE_WITH_UNIT(LENGTH_MEASURE(0.005),#775,
'DISTANCE_ACCURACY_VALUE','Maximum Tolerance applied to model');
#773=(
NAMED_UNIT(*)
SI_UNIT($,.STERADIAN.)
SOLID_ANGLE_UNIT()
);
#774=(
NAMED_UNIT(*)
PLANE_ANGLE_UNIT()
SI_UNIT($,.RADIAN.)
);
#775=(
LENGTH_UNIT()
NAMED_UNIT(*)
SI_UNIT(.MILLI.,.METRE.)
);
#776=PRODUCT_DEFINITION_SHAPE('','',#777);
#777=PRODUCT_DEFINITION('','',#779,#778);
#778=PRODUCT_DEFINITION_CONTEXT('',#785,'design');
#779=PRODUCT_DEFINITION_FORMATION_WITH_SPECIFIED_SOURCE('','',#781,
 .NOT_KNOWN.);
#780=PRODUCT_RELATED_PRODUCT_CATEGORY('','',(#781));
#781=PRODUCT('096SM10M05','096SM10M05','096SM10M05',(#783));
#782=PRODUCT_CATEGORY('','');
#783=PRODUCT_CONTEXT('',#785,'mechanical');
#784=APPLICATION_PROTOCOL_DEFINITION('international standard',
'automotive_design',2010,#785);
#785=APPLICATION_CONTEXT(
'core data for automotive mechanical design processes');
ENDSEC;
END-ISO-10303-21;
