ISO-10303-21;
HEADER;
/* Generated by software containing ST-Developer
 * from STEP Tools, Inc. (www.steptools.com) 
 */
/* OPTION: using custom renumber hook */

FILE_DESCRIPTION(
/* description */ ('STEP AP214'),
/* implementation_level */ '2;1');

FILE_NAME(
/* name */ '051DC551520MM0610',
/* time_stamp */ '2023-02-15T12:13:25+01:00',
/* author */ ('License CC BY-ND 4.0'),
/* organization */ ('CADENAS'),
/* preprocessor_version */ 'ST-DEVELOPER v18.102',
/* originating_system */ 'PARTsolutions',
/* authorisation */ '  ');

FILE_SCHEMA (('AUTOMOTIVE_DESIGN {1 0 10303 214 3 1 1}'));
ENDSEC;

DATA;
#10=PROPERTY_DEFINITION_REPRESENTATION(#14,#12);
#11=PROPERTY_DEFINITION_REPRESENTATION(#15,#13);
#12=REPRESENTATION('',(#16),#206);
#13=REPRESENTATION('',(#17),#206);
#14=PROPERTY_DEFINITION('pmi validation property','',#211);
#15=PROPERTY_DEFINITION('pmi validation property','',#211);
#16=VALUE_REPRESENTATION_ITEM('number of annotations',COUNT_MEASURE(0.));
#17=VALUE_REPRESENTATION_ITEM('number of views',COUNT_MEASURE(0.));
#18=SHAPE_REPRESENTATION_RELATIONSHIP('','',#142,#19);
#19=ADVANCED_BREP_SHAPE_REPRESENTATION('',(#140),#206);
#20=CYLINDRICAL_SURFACE('',#152,3.);
#21=TOROIDAL_SURFACE('',#150,3.5,0.499999999999999);
#22=CONICAL_SURFACE('',#146,9.86909698313862,0.00872664625997177);
#23=CONICAL_SURFACE('',#154,3.,0.785398163397449);
#24=ORIENTED_EDGE('',*,*,#36,.F.);
#25=ORIENTED_EDGE('',*,*,#37,.F.);
#26=ORIENTED_EDGE('',*,*,#36,.T.);
#27=ORIENTED_EDGE('',*,*,#38,.F.);
#28=ORIENTED_EDGE('',*,*,#37,.T.);
#29=ORIENTED_EDGE('',*,*,#39,.F.);
#30=ORIENTED_EDGE('',*,*,#38,.T.);
#31=ORIENTED_EDGE('',*,*,#40,.F.);
#32=ORIENTED_EDGE('',*,*,#39,.T.);
#33=ORIENTED_EDGE('',*,*,#41,.F.);
#34=ORIENTED_EDGE('',*,*,#40,.T.);
#35=ORIENTED_EDGE('',*,*,#41,.T.);
#36=EDGE_CURVE('',#42,#42,#48,.T.);
#37=EDGE_CURVE('',#43,#43,#49,.T.);
#38=EDGE_CURVE('',#44,#44,#50,.T.);
#39=EDGE_CURVE('',#45,#45,#51,.T.);
#40=EDGE_CURVE('',#46,#46,#52,.T.);
#41=EDGE_CURVE('',#47,#47,#53,.T.);
#42=VERTEX_POINT('',#188);
#43=VERTEX_POINT('',#191);
#44=VERTEX_POINT('',#194);
#45=VERTEX_POINT('',#197);
#46=VERTEX_POINT('',#200);
#47=VERTEX_POINT('',#203);
#48=CIRCLE('',#145,9.86909698313862);
#49=CIRCLE('',#147,10.);
#50=CIRCLE('',#149,3.5);
#51=CIRCLE('',#151,3.);
#52=CIRCLE('',#153,3.);
#53=CIRCLE('',#155,2.3865);
#54=EDGE_LOOP('',(#24));
#55=EDGE_LOOP('',(#25));
#56=EDGE_LOOP('',(#26));
#57=EDGE_LOOP('',(#27));
#58=EDGE_LOOP('',(#28));
#59=EDGE_LOOP('',(#29));
#60=EDGE_LOOP('',(#30));
#61=EDGE_LOOP('',(#31));
#62=EDGE_LOOP('',(#32));
#63=EDGE_LOOP('',(#33));
#64=EDGE_LOOP('',(#34));
#65=EDGE_LOOP('',(#35));
#66=FACE_BOUND('',#54,.T.);
#67=FACE_BOUND('',#55,.T.);
#68=FACE_BOUND('',#56,.T.);
#69=FACE_BOUND('',#57,.T.);
#70=FACE_BOUND('',#58,.T.);
#71=FACE_BOUND('',#59,.T.);
#72=FACE_BOUND('',#60,.T.);
#73=FACE_BOUND('',#61,.T.);
#74=FACE_BOUND('',#62,.T.);
#75=FACE_BOUND('',#63,.T.);
#76=FACE_BOUND('',#64,.T.);
#77=FACE_BOUND('',#65,.T.);
#78=PLANE('',#144);
#79=PLANE('',#148);
#80=PLANE('',#156);
#81=STYLED_ITEM('',(#88),#132);
#82=STYLED_ITEM('',(#89),#133);
#83=STYLED_ITEM('',(#90),#134);
#84=STYLED_ITEM('',(#91),#135);
#85=STYLED_ITEM('',(#92),#136);
#86=STYLED_ITEM('',(#93),#137);
#87=STYLED_ITEM('',(#94),#138);
#88=PRESENTATION_STYLE_ASSIGNMENT((#95));
#89=PRESENTATION_STYLE_ASSIGNMENT((#96));
#90=PRESENTATION_STYLE_ASSIGNMENT((#97));
#91=PRESENTATION_STYLE_ASSIGNMENT((#98));
#92=PRESENTATION_STYLE_ASSIGNMENT((#99));
#93=PRESENTATION_STYLE_ASSIGNMENT((#100));
#94=PRESENTATION_STYLE_ASSIGNMENT((#101));
#95=SURFACE_STYLE_USAGE(.BOTH.,#102);
#96=SURFACE_STYLE_USAGE(.BOTH.,#103);
#97=SURFACE_STYLE_USAGE(.BOTH.,#104);
#98=SURFACE_STYLE_USAGE(.BOTH.,#105);
#99=SURFACE_STYLE_USAGE(.BOTH.,#106);
#100=SURFACE_STYLE_USAGE(.BOTH.,#107);
#101=SURFACE_STYLE_USAGE(.BOTH.,#108);
#102=SURFACE_SIDE_STYLE('',(#109));
#103=SURFACE_SIDE_STYLE('',(#110));
#104=SURFACE_SIDE_STYLE('',(#111));
#105=SURFACE_SIDE_STYLE('',(#112));
#106=SURFACE_SIDE_STYLE('',(#113));
#107=SURFACE_SIDE_STYLE('',(#114));
#108=SURFACE_SIDE_STYLE('',(#115));
#109=SURFACE_STYLE_FILL_AREA(#116);
#110=SURFACE_STYLE_FILL_AREA(#117);
#111=SURFACE_STYLE_FILL_AREA(#118);
#112=SURFACE_STYLE_FILL_AREA(#119);
#113=SURFACE_STYLE_FILL_AREA(#120);
#114=SURFACE_STYLE_FILL_AREA(#121);
#115=SURFACE_STYLE_FILL_AREA(#122);
#116=FILL_AREA_STYLE('',(#123));
#117=FILL_AREA_STYLE('',(#124));
#118=FILL_AREA_STYLE('',(#125));
#119=FILL_AREA_STYLE('',(#126));
#120=FILL_AREA_STYLE('',(#127));
#121=FILL_AREA_STYLE('',(#128));
#122=FILL_AREA_STYLE('',(#129));
#123=FILL_AREA_STYLE_COLOUR('',#130);
#124=FILL_AREA_STYLE_COLOUR('',#130);
#125=FILL_AREA_STYLE_COLOUR('',#131);
#126=FILL_AREA_STYLE_COLOUR('',#131);
#127=FILL_AREA_STYLE_COLOUR('',#131);
#128=FILL_AREA_STYLE_COLOUR('',#131);
#129=FILL_AREA_STYLE_COLOUR('',#131);
#130=COLOUR_RGB('',0.752941191196442,0.752941191196442,0.752941191196442);
#131=COLOUR_RGB('',0.7294117808342,0.76862746477127,0.7843137383461);
#132=ADVANCED_FACE('',(#66),#78,.F.);
#133=ADVANCED_FACE('',(#67,#68),#22,.T.);
#134=ADVANCED_FACE('',(#69,#70),#79,.F.);
#135=ADVANCED_FACE('',(#71,#72),#21,.F.);
#136=ADVANCED_FACE('',(#73,#74),#20,.T.);
#137=ADVANCED_FACE('',(#75,#76),#23,.T.);
#138=ADVANCED_FACE('',(#77),#80,.F.);
#139=CLOSED_SHELL('',(#132,#133,#134,#135,#136,#137,#138));
#140=MANIFOLD_SOLID_BREP('051DC551520MM0610',#139);
#141=SHAPE_DEFINITION_REPRESENTATION(#211,#142);
#142=SHAPE_REPRESENTATION('051DC551520MM0610',(#143),#206);
#143=AXIS2_PLACEMENT_3D('',#185,#157,#158);
#144=AXIS2_PLACEMENT_3D('',#186,#159,#160);
#145=AXIS2_PLACEMENT_3D('',#187,#161,#162);
#146=AXIS2_PLACEMENT_3D('',#189,#163,#164);
#147=AXIS2_PLACEMENT_3D('',#190,#165,#166);
#148=AXIS2_PLACEMENT_3D('',#192,#167,#168);
#149=AXIS2_PLACEMENT_3D('',#193,#169,#170);
#150=AXIS2_PLACEMENT_3D('',#195,#171,#172);
#151=AXIS2_PLACEMENT_3D('',#196,#173,#174);
#152=AXIS2_PLACEMENT_3D('',#198,#175,#176);
#153=AXIS2_PLACEMENT_3D('',#199,#177,#178);
#154=AXIS2_PLACEMENT_3D('',#201,#179,#180);
#155=AXIS2_PLACEMENT_3D('',#202,#181,#182);
#156=AXIS2_PLACEMENT_3D('',#204,#183,#184);
#157=DIRECTION('',(0.,0.,1.));
#158=DIRECTION('',(1.,0.,0.));
#159=DIRECTION('',(0.,-1.,0.));
#160=DIRECTION('',(0.,0.,-1.));
#161=DIRECTION('',(0.,-1.,0.));
#162=DIRECTION('',(0.,0.,-1.));
#163=DIRECTION('',(0.,-1.,0.));
#164=DIRECTION('',(0.,0.,-1.));
#165=DIRECTION('',(0.,-1.,0.));
#166=DIRECTION('',(0.,0.,-1.));
#167=DIRECTION('',(0.,1.,0.));
#168=DIRECTION('',(0.,0.,1.));
#169=DIRECTION('',(0.,-1.,0.));
#170=DIRECTION('',(0.,0.,-1.));
#171=DIRECTION('',(0.,-1.,0.));
#172=DIRECTION('',(0.,0.,-1.));
#173=DIRECTION('',(0.,-1.,0.));
#174=DIRECTION('',(0.,0.,-1.));
#175=DIRECTION('',(0.,-1.,0.));
#176=DIRECTION('',(0.,0.,-1.));
#177=DIRECTION('',(0.,-1.,0.));
#178=DIRECTION('',(0.,0.,-1.));
#179=DIRECTION('',(0.,1.,0.));
#180=DIRECTION('',(0.,0.,1.));
#181=DIRECTION('',(0.,-1.,0.));
#182=DIRECTION('',(0.,0.,-1.));
#183=DIRECTION('',(0.,1.,0.));
#184=DIRECTION('',(0.,0.,1.));
#185=CARTESIAN_POINT('',(0.,0.,0.));
#186=CARTESIAN_POINT('',(0.,25.,0.));
#187=CARTESIAN_POINT('',(0.,25.,0.));
#188=CARTESIAN_POINT('',(0.,25.,-9.86909698313862));
#189=CARTESIAN_POINT('',(0.,25.,0.));
#190=CARTESIAN_POINT('',(0.,10.,0.));
#191=CARTESIAN_POINT('',(0.,10.,-10.));
#192=CARTESIAN_POINT('',(10.,10.,0.));
#193=CARTESIAN_POINT('',(0.,10.,0.));
#194=CARTESIAN_POINT('',(0.,10.,-3.5));
#195=CARTESIAN_POINT('',(0.,9.5,0.));
#196=CARTESIAN_POINT('',(0.,9.5,0.));
#197=CARTESIAN_POINT('',(0.,9.5,-3.));
#198=CARTESIAN_POINT('',(0.,0.,0.));
#199=CARTESIAN_POINT('',(0.,0.613499999999999,0.));
#200=CARTESIAN_POINT('',(0.,0.613499999999999,-3.));
#201=CARTESIAN_POINT('',(0.,0.613499999999999,0.));
#202=CARTESIAN_POINT('',(0.,-1.0842021724855E-16,0.));
#203=CARTESIAN_POINT('',(0.,-1.0842021724855E-16,-2.3865));
#204=CARTESIAN_POINT('',(2.3865,-5.42101086242752E-17,0.));
#205=MECHANICAL_DESIGN_GEOMETRIC_PRESENTATION_REPRESENTATION('',(#81,#82,
#83,#84,#85,#86,#87),#206);
#206=(
GEOMETRIC_REPRESENTATION_CONTEXT(3)
GLOBAL_UNCERTAINTY_ASSIGNED_CONTEXT((#207))
GLOBAL_UNIT_ASSIGNED_CONTEXT((#210,#209,#208))
REPRESENTATION_CONTEXT('051DC551520MM0610','TOP_LEVEL_ASSEMBLY_PART')
);
#207=UNCERTAINTY_MEASURE_WITH_UNIT(LENGTH_MEASURE(0.005),#210,
'DISTANCE_ACCURACY_VALUE','Maximum Tolerance applied to model');
#208=(
NAMED_UNIT(*)
SI_UNIT($,.STERADIAN.)
SOLID_ANGLE_UNIT()
);
#209=(
NAMED_UNIT(*)
PLANE_ANGLE_UNIT()
SI_UNIT($,.RADIAN.)
);
#210=(
LENGTH_UNIT()
NAMED_UNIT(*)
SI_UNIT(.MILLI.,.METRE.)
);
#211=PRODUCT_DEFINITION_SHAPE('','',#212);
#212=PRODUCT_DEFINITION('','',#214,#213);
#213=PRODUCT_DEFINITION_CONTEXT('',#220,'design');
#214=PRODUCT_DEFINITION_FORMATION_WITH_SPECIFIED_SOURCE('','',#216,
 .NOT_KNOWN.);
#215=PRODUCT_RELATED_PRODUCT_CATEGORY('','',(#216));
#216=PRODUCT('051DC551520MM0610','051DC551520MM0610',
'051DC551520MM0610',(#218));
#217=PRODUCT_CATEGORY('','');
#218=PRODUCT_CONTEXT('',#220,'mechanical');
#219=APPLICATION_PROTOCOL_DEFINITION('international standard',
'automotive_design',2010,#220);
#220=APPLICATION_CONTEXT(
'core data for automotive mechanical design processes');
ENDSEC;
END-ISO-10303-21;
