ISO-10303-21;
HEADER;
/* Generated by software containing ST-Developer
 * from STEP Tools, Inc. (www.steptools.com) 
 */
/* OPTION: using custom renumber hook */

FILE_DESCRIPTION(
/* description */ ('STEP AP214'),
/* implementation_level */ '2;1');

FILE_NAME(
/* name */ '051DKP552420MM0618',
/* time_stamp */ '2023-02-15T12:13:53+01:00',
/* author */ ('License CC BY-ND 4.0'),
/* organization */ ('CADENAS'),
/* preprocessor_version */ 'ST-DEVELOPER v18.102',
/* originating_system */ 'PARTsolutions',
/* authorisation */ '  ');

FILE_SCHEMA (('PROCESS_PLANNING_SCHEMA','AUTOMOTIVE_DESIGN {1 0 10303 214 3 1 1}'));
ENDSEC;

DATA;
#10=PROPERTY_DEFINITION_REPRESENTATION(#14,#12);
#11=PROPERTY_DEFINITION_REPRESENTATION(#15,#13);
#12=REPRESENTATION('',(#16),#237);
#13=REPRESENTATION('',(#17),#237);
#14=PROPERTY_DEFINITION('pmi validation property','',#242);
#15=PROPERTY_DEFINITION('pmi validation property','',#242);
#16=VALUE_REPRESENTATION_ITEM('number of annotations',COUNT_MEASURE(0.));
#17=VALUE_REPRESENTATION_ITEM('number of views',COUNT_MEASURE(0.));
#18=SHAPE_REPRESENTATION_RELATIONSHIP('','',#163,#19);
#19=ADVANCED_BREP_SHAPE_REPRESENTATION('',(#161),#237);
#20=CONICAL_SURFACE('',#177,3.,0.785398163397446);
#21=PLANE('',#173);
#22=PLANE('',#179);
#23=TOROIDAL_SURFACE('',#171,9.50000000000001,0.499999999999995);
#24=CYLINDRICAL_SURFACE('',#169,10.);
#25=CYLINDRICAL_SURFACE('',#175,3.);
#26=ORIENTED_EDGE('',*,*,#40,.F.);
#27=ORIENTED_EDGE('',*,*,#40,.T.);
#28=ORIENTED_EDGE('',*,*,#41,.F.);
#29=ORIENTED_EDGE('',*,*,#42,.F.);
#30=ORIENTED_EDGE('',*,*,#41,.T.);
#31=ORIENTED_EDGE('',*,*,#42,.T.);
#32=ORIENTED_EDGE('',*,*,#43,.F.);
#33=ORIENTED_EDGE('',*,*,#44,.F.);
#34=ORIENTED_EDGE('',*,*,#43,.T.);
#35=ORIENTED_EDGE('',*,*,#45,.F.);
#36=ORIENTED_EDGE('',*,*,#44,.T.);
#37=ORIENTED_EDGE('',*,*,#46,.F.);
#38=ORIENTED_EDGE('',*,*,#45,.T.);
#39=ORIENTED_EDGE('',*,*,#46,.T.);
#40=EDGE_CURVE('',#69,#69,#47,.T.);
#41=EDGE_CURVE('',#70,#70,#48,.T.);
#42=EDGE_CURVE('',#71,#71,#49,.T.);
#43=EDGE_CURVE('',#72,#72,#50,.T.);
#44=EDGE_CURVE('',#73,#73,#51,.T.);
#45=EDGE_CURVE('',#74,#74,#52,.T.);
#46=EDGE_CURVE('',#75,#75,#53,.T.);
#47=CIRCLE('',#166,2.31092718950879);
#48=CIRCLE('',#168,10.);
#49=CIRCLE('',#170,10.);
#50=CIRCLE('',#172,9.5);
#51=CIRCLE('',#174,3.);
#52=CIRCLE('',#176,3.);
#53=CIRCLE('',#178,2.3865);
#54=EDGE_LOOP('',(#26));
#55=EDGE_LOOP('',(#27));
#56=EDGE_LOOP('',(#28));
#57=EDGE_LOOP('',(#29));
#58=EDGE_LOOP('',(#30));
#59=EDGE_LOOP('',(#31));
#60=EDGE_LOOP('',(#32));
#61=EDGE_LOOP('',(#33));
#62=EDGE_LOOP('',(#34));
#63=EDGE_LOOP('',(#35));
#64=EDGE_LOOP('',(#36));
#65=EDGE_LOOP('',(#37));
#66=EDGE_LOOP('',(#38));
#67=EDGE_LOOP('',(#39));
#68=VERTEX_POINT('',#214);
#69=VERTEX_POINT('',#216);
#70=VERTEX_POINT('',#219);
#71=VERTEX_POINT('',#222);
#72=VERTEX_POINT('',#225);
#73=VERTEX_POINT('',#228);
#74=VERTEX_POINT('',#231);
#75=VERTEX_POINT('',#234);
#76=VERTEX_LOOP('',#68);
#77=FACE_BOUND('',#76,.T.);
#78=FACE_BOUND('',#54,.T.);
#79=FACE_BOUND('',#55,.T.);
#80=FACE_BOUND('',#56,.T.);
#81=FACE_BOUND('',#57,.T.);
#82=FACE_BOUND('',#58,.T.);
#83=FACE_BOUND('',#59,.T.);
#84=FACE_BOUND('',#60,.T.);
#85=FACE_BOUND('',#61,.T.);
#86=FACE_BOUND('',#62,.T.);
#87=FACE_BOUND('',#63,.T.);
#88=FACE_BOUND('',#64,.T.);
#89=FACE_BOUND('',#65,.T.);
#90=FACE_BOUND('',#66,.T.);
#91=FACE_BOUND('',#67,.T.);
#92=DEGENERATE_TOROIDAL_SURFACE('',#165,0.00859579780080699,3.,.F.);
#93=DEGENERATE_TOROIDAL_SURFACE('',#167,23.9770000000001,34.,.F.);
#94=STYLED_ITEM('',(#102),#152);
#95=STYLED_ITEM('',(#103),#153);
#96=STYLED_ITEM('',(#104),#154);
#97=STYLED_ITEM('',(#105),#155);
#98=STYLED_ITEM('',(#106),#156);
#99=STYLED_ITEM('',(#107),#157);
#100=STYLED_ITEM('',(#108),#158);
#101=STYLED_ITEM('',(#109),#159);
#102=PRESENTATION_STYLE_ASSIGNMENT((#110));
#103=PRESENTATION_STYLE_ASSIGNMENT((#111));
#104=PRESENTATION_STYLE_ASSIGNMENT((#112));
#105=PRESENTATION_STYLE_ASSIGNMENT((#113));
#106=PRESENTATION_STYLE_ASSIGNMENT((#114));
#107=PRESENTATION_STYLE_ASSIGNMENT((#115));
#108=PRESENTATION_STYLE_ASSIGNMENT((#116));
#109=PRESENTATION_STYLE_ASSIGNMENT((#117));
#110=SURFACE_STYLE_USAGE(.BOTH.,#118);
#111=SURFACE_STYLE_USAGE(.BOTH.,#119);
#112=SURFACE_STYLE_USAGE(.BOTH.,#120);
#113=SURFACE_STYLE_USAGE(.BOTH.,#121);
#114=SURFACE_STYLE_USAGE(.BOTH.,#122);
#115=SURFACE_STYLE_USAGE(.BOTH.,#123);
#116=SURFACE_STYLE_USAGE(.BOTH.,#124);
#117=SURFACE_STYLE_USAGE(.BOTH.,#125);
#118=SURFACE_SIDE_STYLE('',(#126));
#119=SURFACE_SIDE_STYLE('',(#127));
#120=SURFACE_SIDE_STYLE('',(#128));
#121=SURFACE_SIDE_STYLE('',(#129));
#122=SURFACE_SIDE_STYLE('',(#130));
#123=SURFACE_SIDE_STYLE('',(#131));
#124=SURFACE_SIDE_STYLE('',(#132));
#125=SURFACE_SIDE_STYLE('',(#133));
#126=SURFACE_STYLE_FILL_AREA(#134);
#127=SURFACE_STYLE_FILL_AREA(#135);
#128=SURFACE_STYLE_FILL_AREA(#136);
#129=SURFACE_STYLE_FILL_AREA(#137);
#130=SURFACE_STYLE_FILL_AREA(#138);
#131=SURFACE_STYLE_FILL_AREA(#139);
#132=SURFACE_STYLE_FILL_AREA(#140);
#133=SURFACE_STYLE_FILL_AREA(#141);
#134=FILL_AREA_STYLE('',(#142));
#135=FILL_AREA_STYLE('',(#143));
#136=FILL_AREA_STYLE('',(#144));
#137=FILL_AREA_STYLE('',(#145));
#138=FILL_AREA_STYLE('',(#146));
#139=FILL_AREA_STYLE('',(#147));
#140=FILL_AREA_STYLE('',(#148));
#141=FILL_AREA_STYLE('',(#149));
#142=FILL_AREA_STYLE_COLOUR('',#150);
#143=FILL_AREA_STYLE_COLOUR('',#150);
#144=FILL_AREA_STYLE_COLOUR('',#150);
#145=FILL_AREA_STYLE_COLOUR('',#150);
#146=FILL_AREA_STYLE_COLOUR('',#151);
#147=FILL_AREA_STYLE_COLOUR('',#151);
#148=FILL_AREA_STYLE_COLOUR('',#151);
#149=FILL_AREA_STYLE_COLOUR('',#151);
#150=COLOUR_RGB('',0.752941191196442,0.752941191196442,0.752941191196442);
#151=COLOUR_RGB('',0.7294117808342,0.76862746477127,0.7843137383461);
#152=ADVANCED_FACE('',(#77,#78),#92,.F.);
#153=ADVANCED_FACE('',(#79,#80),#93,.F.);
#154=ADVANCED_FACE('',(#81,#82),#24,.T.);
#155=ADVANCED_FACE('',(#83,#84),#23,.T.);
#156=ADVANCED_FACE('',(#85,#86),#21,.F.);
#157=ADVANCED_FACE('',(#87,#88),#25,.T.);
#158=ADVANCED_FACE('',(#89,#90),#20,.T.);
#159=ADVANCED_FACE('',(#91),#22,.F.);
#160=CLOSED_SHELL('',(#152,#153,#154,#155,#156,#157,#158,#159));
#161=MANIFOLD_SOLID_BREP('051DKP552420MM0618',#160);
#162=SHAPE_DEFINITION_REPRESENTATION(#242,#163);
#163=SHAPE_REPRESENTATION('051DKP552420MM0618',(#164),#237);
#164=AXIS2_PLACEMENT_3D('',#212,#180,#181);
#165=AXIS2_PLACEMENT_3D('',#213,#182,#183);
#166=AXIS2_PLACEMENT_3D('',#215,#184,#185);
#167=AXIS2_PLACEMENT_3D('',#217,#186,#187);
#168=AXIS2_PLACEMENT_3D('',#218,#188,#189);
#169=AXIS2_PLACEMENT_3D('',#220,#190,#191);
#170=AXIS2_PLACEMENT_3D('',#221,#192,#193);
#171=AXIS2_PLACEMENT_3D('',#223,#194,#195);
#172=AXIS2_PLACEMENT_3D('',#224,#196,#197);
#173=AXIS2_PLACEMENT_3D('',#226,#198,#199);
#174=AXIS2_PLACEMENT_3D('',#227,#200,#201);
#175=AXIS2_PLACEMENT_3D('',#229,#202,#203);
#176=AXIS2_PLACEMENT_3D('',#230,#204,#205);
#177=AXIS2_PLACEMENT_3D('',#232,#206,#207);
#178=AXIS2_PLACEMENT_3D('',#233,#208,#209);
#179=AXIS2_PLACEMENT_3D('',#235,#210,#211);
#180=DIRECTION('',(0.,0.,1.));
#181=DIRECTION('',(1.,0.,0.));
#182=DIRECTION('',(0.,-1.,0.));
#183=DIRECTION('',(0.,0.,-1.));
#184=DIRECTION('',(0.,-1.,0.));
#185=DIRECTION('',(0.,0.,-1.));
#186=DIRECTION('',(0.,-1.,0.));
#187=DIRECTION('',(0.,0.,-1.));
#188=DIRECTION('',(0.,-1.,0.));
#189=DIRECTION('',(0.,0.,-1.));
#190=DIRECTION('',(0.,-1.,0.));
#191=DIRECTION('',(0.,0.,-1.));
#192=DIRECTION('',(0.,-1.,0.));
#193=DIRECTION('',(0.,0.,-1.));
#194=DIRECTION('',(0.,-1.,0.));
#195=DIRECTION('',(0.,0.,-1.));
#196=DIRECTION('',(0.,-1.,0.));
#197=DIRECTION('',(0.,0.,-1.));
#198=DIRECTION('',(0.,1.,0.));
#199=DIRECTION('',(0.,0.,1.));
#200=DIRECTION('',(0.,-1.,0.));
#201=DIRECTION('',(0.,0.,-1.));
#202=DIRECTION('',(0.,-1.,0.));
#203=DIRECTION('',(0.,0.,-1.));
#204=DIRECTION('',(0.,-1.,0.));
#205=DIRECTION('',(0.,0.,-1.));
#206=DIRECTION('',(0.,1.,0.));
#207=DIRECTION('',(0.,0.,1.));
#208=DIRECTION('',(0.,-1.,0.));
#209=DIRECTION('',(0.,0.,-1.));
#210=DIRECTION('',(0.,1.,0.));
#211=DIRECTION('',(0.,0.,1.));
#212=CARTESIAN_POINT('',(0.,0.,0.));
#213=CARTESIAN_POINT('',(0.,39.,0.));
#214=CARTESIAN_POINT('',(3.13402190484091E-16,41.9999876853514,0.));
#215=CARTESIAN_POINT('',(0.,40.9025806451613,0.));
#216=CARTESIAN_POINT('',(0.,40.9025806451613,-2.31092718950879));
#217=CARTESIAN_POINT('',(0.,19.34,0.));
#218=CARTESIAN_POINT('',(0.,20.5903883396768,0.));
#219=CARTESIAN_POINT('',(0.,20.5903883396768,-10.));
#220=CARTESIAN_POINT('',(0.,0.,0.));
#221=CARTESIAN_POINT('',(0.,18.5,0.));
#222=CARTESIAN_POINT('',(0.,18.5,-10.));
#223=CARTESIAN_POINT('',(0.,18.5,0.));
#224=CARTESIAN_POINT('',(0.,18.,0.));
#225=CARTESIAN_POINT('',(0.,18.,-9.5));
#226=CARTESIAN_POINT('',(9.5,18.,0.));
#227=CARTESIAN_POINT('',(0.,18.,0.));
#228=CARTESIAN_POINT('',(0.,18.,-3.));
#229=CARTESIAN_POINT('',(0.,0.,0.));
#230=CARTESIAN_POINT('',(0.,0.613500000000003,0.));
#231=CARTESIAN_POINT('',(0.,0.613500000000003,-3.));
#232=CARTESIAN_POINT('',(0.,0.613500000000003,0.));
#233=CARTESIAN_POINT('',(0.,0.,0.));
#234=CARTESIAN_POINT('',(0.,0.,-2.3865));
#235=CARTESIAN_POINT('',(2.3865,0.,0.));
#236=MECHANICAL_DESIGN_GEOMETRIC_PRESENTATION_REPRESENTATION('',(#94,#95,
#96,#97,#98,#99,#100,#101),#237);
#237=(
GEOMETRIC_REPRESENTATION_CONTEXT(3)
GLOBAL_UNCERTAINTY_ASSIGNED_CONTEXT((#238))
GLOBAL_UNIT_ASSIGNED_CONTEXT((#241,#240,#239))
REPRESENTATION_CONTEXT('051DKP552420MM0618','TOP_LEVEL_ASSEMBLY_PART')
);
#238=UNCERTAINTY_MEASURE_WITH_UNIT(LENGTH_MEASURE(0.005),#241,
'DISTANCE_ACCURACY_VALUE','Maximum Tolerance applied to model');
#239=(
NAMED_UNIT(*)
SI_UNIT($,.STERADIAN.)
SOLID_ANGLE_UNIT()
);
#240=(
NAMED_UNIT(*)
PLANE_ANGLE_UNIT()
SI_UNIT($,.RADIAN.)
);
#241=(
LENGTH_UNIT()
NAMED_UNIT(*)
SI_UNIT(.MILLI.,.METRE.)
);
#242=PRODUCT_DEFINITION_SHAPE('','',#243);
#243=PRODUCT_DEFINITION('','',#245,#244);
#244=PRODUCT_DEFINITION_CONTEXT('',#251,'design');
#245=PRODUCT_DEFINITION_FORMATION_WITH_SPECIFIED_SOURCE('','',#247,
 .NOT_KNOWN.);
#246=PRODUCT_RELATED_PRODUCT_CATEGORY('','',(#247));
#247=PRODUCT('051DKP552420MM0618','051DKP552420MM0618',
'051DKP552420MM0618',(#249));
#248=PRODUCT_CATEGORY('','');
#249=PRODUCT_CONTEXT('',#251,'mechanical');
#250=APPLICATION_PROTOCOL_DEFINITION('international standard',
'automotive_design',2010,#251);
#251=APPLICATION_CONTEXT(
'core data for automotive mechanical design processes');
ENDSEC;
END-ISO-10303-21;
