ISO-10303-21;
HEADER;
/* Generated by software containing ST-Developer
 * from STEP Tools, Inc. (www.steptools.com) 
 */
/* OPTION: using custom renumber hook */

FILE_DESCRIPTION(
/* description */ ('STEP AP214'),
/* implementation_level */ '2;1');

FILE_NAME(
/* name */ '093050',
/* time_stamp */ '2023-02-17T09:44:39+01:00',
/* author */ ('License CC BY-ND 4.0'),
/* organization */ ('CADENAS'),
/* preprocessor_version */ 'ST-DEVELOPER v18.102',
/* originating_system */ 'PARTsolutions',
/* authorisation */ '  ');

FILE_SCHEMA (('AUTOMOTIVE_DESIGN {1 0 10303 214 3 1 1}'));
ENDSEC;

DATA;
#10=PROPERTY_DEFINITION_REPRESENTATION(#14,#12);
#11=PROPERTY_DEFINITION_REPRESENTATION(#15,#13);
#12=REPRESENTATION('',(#16),#731);
#13=REPRESENTATION('',(#17),#731);
#14=PROPERTY_DEFINITION('pmi validation property','',#736);
#15=PROPERTY_DEFINITION('pmi validation property','',#736);
#16=VALUE_REPRESENTATION_ITEM('number of annotations',COUNT_MEASURE(0.));
#17=VALUE_REPRESENTATION_ITEM('number of views',COUNT_MEASURE(0.));
#18=SHAPE_REPRESENTATION_RELATIONSHIP('','',#465,#19);
#19=ADVANCED_BREP_SHAPE_REPRESENTATION('',(#463),#731);
#20=CYLINDRICAL_SURFACE('',#492,5.);
#21=CYLINDRICAL_SURFACE('',#493,5.);
#22=CIRCLE('',#473,5.);
#23=CIRCLE('',#474,5.);
#24=CIRCLE('',#483,5.);
#25=CIRCLE('',#490,5.);
#26=ORIENTED_EDGE('',*,*,#146,.F.);
#27=ORIENTED_EDGE('',*,*,#147,.T.);
#28=ORIENTED_EDGE('',*,*,#148,.T.);
#29=ORIENTED_EDGE('',*,*,#149,.F.);
#30=ORIENTED_EDGE('',*,*,#150,.F.);
#31=ORIENTED_EDGE('',*,*,#151,.F.);
#32=ORIENTED_EDGE('',*,*,#152,.F.);
#33=ORIENTED_EDGE('',*,*,#153,.T.);
#34=ORIENTED_EDGE('',*,*,#154,.T.);
#35=ORIENTED_EDGE('',*,*,#155,.T.);
#36=ORIENTED_EDGE('',*,*,#156,.T.);
#37=ORIENTED_EDGE('',*,*,#152,.T.);
#38=ORIENTED_EDGE('',*,*,#157,.T.);
#39=ORIENTED_EDGE('',*,*,#158,.T.);
#40=ORIENTED_EDGE('',*,*,#159,.T.);
#41=ORIENTED_EDGE('',*,*,#160,.T.);
#42=ORIENTED_EDGE('',*,*,#161,.T.);
#43=ORIENTED_EDGE('',*,*,#162,.T.);
#44=ORIENTED_EDGE('',*,*,#163,.T.);
#45=ORIENTED_EDGE('',*,*,#164,.F.);
#46=ORIENTED_EDGE('',*,*,#165,.F.);
#47=ORIENTED_EDGE('',*,*,#166,.T.);
#48=ORIENTED_EDGE('',*,*,#167,.T.);
#49=ORIENTED_EDGE('',*,*,#168,.F.);
#50=ORIENTED_EDGE('',*,*,#169,.F.);
#51=ORIENTED_EDGE('',*,*,#164,.T.);
#52=ORIENTED_EDGE('',*,*,#170,.T.);
#53=ORIENTED_EDGE('',*,*,#171,.F.);
#54=ORIENTED_EDGE('',*,*,#172,.F.);
#55=ORIENTED_EDGE('',*,*,#168,.T.);
#56=ORIENTED_EDGE('',*,*,#173,.T.);
#57=ORIENTED_EDGE('',*,*,#149,.T.);
#58=ORIENTED_EDGE('',*,*,#174,.T.);
#59=ORIENTED_EDGE('',*,*,#175,.T.);
#60=ORIENTED_EDGE('',*,*,#153,.F.);
#61=ORIENTED_EDGE('',*,*,#156,.F.);
#62=ORIENTED_EDGE('',*,*,#176,.F.);
#63=ORIENTED_EDGE('',*,*,#177,.F.);
#64=ORIENTED_EDGE('',*,*,#178,.T.);
#65=ORIENTED_EDGE('',*,*,#179,.T.);
#66=ORIENTED_EDGE('',*,*,#180,.F.);
#67=ORIENTED_EDGE('',*,*,#181,.F.);
#68=ORIENTED_EDGE('',*,*,#182,.T.);
#69=ORIENTED_EDGE('',*,*,#177,.T.);
#70=ORIENTED_EDGE('',*,*,#183,.F.);
#71=ORIENTED_EDGE('',*,*,#184,.F.);
#72=ORIENTED_EDGE('',*,*,#185,.T.);
#73=ORIENTED_EDGE('',*,*,#181,.T.);
#74=ORIENTED_EDGE('',*,*,#186,.F.);
#75=ORIENTED_EDGE('',*,*,#179,.F.);
#76=ORIENTED_EDGE('',*,*,#187,.T.);
#77=ORIENTED_EDGE('',*,*,#184,.T.);
#78=ORIENTED_EDGE('',*,*,#188,.T.);
#79=ORIENTED_EDGE('',*,*,#166,.F.);
#80=ORIENTED_EDGE('',*,*,#189,.F.);
#81=ORIENTED_EDGE('',*,*,#171,.T.);
#82=ORIENTED_EDGE('',*,*,#178,.F.);
#83=ORIENTED_EDGE('',*,*,#182,.F.);
#84=ORIENTED_EDGE('',*,*,#185,.F.);
#85=ORIENTED_EDGE('',*,*,#187,.F.);
#86=ORIENTED_EDGE('',*,*,#165,.T.);
#87=ORIENTED_EDGE('',*,*,#169,.T.);
#88=ORIENTED_EDGE('',*,*,#172,.T.);
#89=ORIENTED_EDGE('',*,*,#189,.T.);
#90=ORIENTED_EDGE('',*,*,#176,.T.);
#91=ORIENTED_EDGE('',*,*,#186,.T.);
#92=ORIENTED_EDGE('',*,*,#183,.T.);
#93=ORIENTED_EDGE('',*,*,#180,.T.);
#94=ORIENTED_EDGE('',*,*,#163,.F.);
#95=ORIENTED_EDGE('',*,*,#188,.F.);
#96=ORIENTED_EDGE('',*,*,#170,.F.);
#97=ORIENTED_EDGE('',*,*,#167,.F.);
#98=ORIENTED_EDGE('',*,*,#190,.T.);
#99=ORIENTED_EDGE('',*,*,#191,.F.);
#100=ORIENTED_EDGE('',*,*,#157,.F.);
#101=ORIENTED_EDGE('',*,*,#151,.T.);
#102=ORIENTED_EDGE('',*,*,#192,.F.);
#103=ORIENTED_EDGE('',*,*,#193,.T.);
#104=ORIENTED_EDGE('',*,*,#194,.F.);
#105=ORIENTED_EDGE('',*,*,#158,.F.);
#106=ORIENTED_EDGE('',*,*,#191,.T.);
#107=ORIENTED_EDGE('',*,*,#195,.T.);
#108=ORIENTED_EDGE('',*,*,#196,.F.);
#109=ORIENTED_EDGE('',*,*,#159,.F.);
#110=ORIENTED_EDGE('',*,*,#194,.T.);
#111=ORIENTED_EDGE('',*,*,#197,.T.);
#112=ORIENTED_EDGE('',*,*,#198,.F.);
#113=ORIENTED_EDGE('',*,*,#160,.F.);
#114=ORIENTED_EDGE('',*,*,#196,.T.);
#115=ORIENTED_EDGE('',*,*,#199,.T.);
#116=ORIENTED_EDGE('',*,*,#200,.F.);
#117=ORIENTED_EDGE('',*,*,#161,.F.);
#118=ORIENTED_EDGE('',*,*,#198,.T.);
#119=ORIENTED_EDGE('',*,*,#201,.T.);
#120=ORIENTED_EDGE('',*,*,#202,.F.);
#121=ORIENTED_EDGE('',*,*,#162,.F.);
#122=ORIENTED_EDGE('',*,*,#200,.T.);
#123=ORIENTED_EDGE('',*,*,#203,.T.);
#124=ORIENTED_EDGE('',*,*,#147,.F.);
#125=ORIENTED_EDGE('',*,*,#204,.F.);
#126=ORIENTED_EDGE('',*,*,#154,.F.);
#127=ORIENTED_EDGE('',*,*,#202,.T.);
#128=ORIENTED_EDGE('',*,*,#148,.F.);
#129=ORIENTED_EDGE('',*,*,#203,.F.);
#130=ORIENTED_EDGE('',*,*,#201,.F.);
#131=ORIENTED_EDGE('',*,*,#199,.F.);
#132=ORIENTED_EDGE('',*,*,#197,.F.);
#133=ORIENTED_EDGE('',*,*,#195,.F.);
#134=ORIENTED_EDGE('',*,*,#193,.F.);
#135=ORIENTED_EDGE('',*,*,#190,.F.);
#136=ORIENTED_EDGE('',*,*,#205,.T.);
#137=ORIENTED_EDGE('',*,*,#174,.F.);
#138=ORIENTED_EDGE('',*,*,#175,.F.);
#139=ORIENTED_EDGE('',*,*,#205,.F.);
#140=ORIENTED_EDGE('',*,*,#192,.T.);
#141=ORIENTED_EDGE('',*,*,#150,.T.);
#142=ORIENTED_EDGE('',*,*,#173,.F.);
#143=ORIENTED_EDGE('',*,*,#155,.F.);
#144=ORIENTED_EDGE('',*,*,#204,.T.);
#145=ORIENTED_EDGE('',*,*,#146,.T.);
#146=EDGE_CURVE('',#206,#207,#246,.T.);
#147=EDGE_CURVE('',#206,#208,#247,.T.);
#148=EDGE_CURVE('',#208,#209,#248,.T.);
#149=EDGE_CURVE('',#207,#209,#249,.T.);
#150=EDGE_CURVE('',#210,#211,#250,.T.);
#151=EDGE_CURVE('',#212,#210,#251,.T.);
#152=EDGE_CURVE('',#213,#212,#252,.T.);
#153=EDGE_CURVE('',#213,#211,#253,.T.);
#154=EDGE_CURVE('',#214,#215,#254,.T.);
#155=EDGE_CURVE('',#215,#216,#255,.T.);
#156=EDGE_CURVE('',#216,#213,#256,.T.);
#157=EDGE_CURVE('',#212,#217,#257,.T.);
#158=EDGE_CURVE('',#217,#218,#258,.T.);
#159=EDGE_CURVE('',#218,#219,#259,.T.);
#160=EDGE_CURVE('',#219,#220,#260,.T.);
#161=EDGE_CURVE('',#220,#221,#261,.T.);
#162=EDGE_CURVE('',#221,#214,#262,.T.);
#163=EDGE_CURVE('',#222,#223,#263,.T.);
#164=EDGE_CURVE('',#224,#223,#264,.T.);
#165=EDGE_CURVE('',#225,#224,#265,.T.);
#166=EDGE_CURVE('',#225,#222,#266,.T.);
#167=EDGE_CURVE('',#223,#226,#267,.T.);
#168=EDGE_CURVE('',#227,#226,#268,.T.);
#169=EDGE_CURVE('',#224,#227,#269,.T.);
#170=EDGE_CURVE('',#226,#228,#270,.T.);
#171=EDGE_CURVE('',#229,#228,#271,.T.);
#172=EDGE_CURVE('',#227,#229,#272,.T.);
#173=EDGE_CURVE('',#216,#207,#22,.T.);
#174=EDGE_CURVE('',#209,#230,#273,.T.);
#175=EDGE_CURVE('',#230,#211,#23,.T.);
#176=EDGE_CURVE('',#231,#232,#274,.T.);
#177=EDGE_CURVE('',#233,#231,#275,.T.);
#178=EDGE_CURVE('',#233,#234,#276,.T.);
#179=EDGE_CURVE('',#234,#232,#277,.T.);
#180=EDGE_CURVE('',#235,#231,#278,.T.);
#181=EDGE_CURVE('',#236,#235,#279,.T.);
#182=EDGE_CURVE('',#236,#233,#280,.T.);
#183=EDGE_CURVE('',#237,#235,#281,.T.);
#184=EDGE_CURVE('',#238,#237,#282,.T.);
#185=EDGE_CURVE('',#238,#236,#283,.T.);
#186=EDGE_CURVE('',#232,#237,#284,.T.);
#187=EDGE_CURVE('',#234,#238,#285,.T.);
#188=EDGE_CURVE('',#228,#222,#286,.T.);
#189=EDGE_CURVE('',#229,#225,#287,.T.);
#190=EDGE_CURVE('',#239,#240,#288,.T.);
#191=EDGE_CURVE('',#217,#240,#289,.T.);
#192=EDGE_CURVE('',#239,#210,#24,.T.);
#193=EDGE_CURVE('',#240,#241,#290,.T.);
#194=EDGE_CURVE('',#218,#241,#291,.T.);
#195=EDGE_CURVE('',#241,#242,#292,.T.);
#196=EDGE_CURVE('',#219,#242,#293,.T.);
#197=EDGE_CURVE('',#242,#243,#294,.T.);
#198=EDGE_CURVE('',#220,#243,#295,.T.);
#199=EDGE_CURVE('',#243,#244,#296,.T.);
#200=EDGE_CURVE('',#221,#244,#297,.T.);
#201=EDGE_CURVE('',#244,#245,#298,.T.);
#202=EDGE_CURVE('',#214,#245,#299,.T.);
#203=EDGE_CURVE('',#245,#208,#300,.T.);
#204=EDGE_CURVE('',#215,#206,#25,.T.);
#205=EDGE_CURVE('',#239,#230,#301,.T.);
#206=VERTEX_POINT('',#609);
#207=VERTEX_POINT('',#610);
#208=VERTEX_POINT('',#612);
#209=VERTEX_POINT('',#614);
#210=VERTEX_POINT('',#618);
#211=VERTEX_POINT('',#619);
#212=VERTEX_POINT('',#621);
#213=VERTEX_POINT('',#623);
#214=VERTEX_POINT('',#627);
#215=VERTEX_POINT('',#628);
#216=VERTEX_POINT('',#630);
#217=VERTEX_POINT('',#633);
#218=VERTEX_POINT('',#635);
#219=VERTEX_POINT('',#637);
#220=VERTEX_POINT('',#639);
#221=VERTEX_POINT('',#641);
#222=VERTEX_POINT('',#645);
#223=VERTEX_POINT('',#646);
#224=VERTEX_POINT('',#648);
#225=VERTEX_POINT('',#650);
#226=VERTEX_POINT('',#654);
#227=VERTEX_POINT('',#656);
#228=VERTEX_POINT('',#660);
#229=VERTEX_POINT('',#662);
#230=VERTEX_POINT('',#666);
#231=VERTEX_POINT('',#670);
#232=VERTEX_POINT('',#671);
#233=VERTEX_POINT('',#673);
#234=VERTEX_POINT('',#675);
#235=VERTEX_POINT('',#679);
#236=VERTEX_POINT('',#681);
#237=VERTEX_POINT('',#685);
#238=VERTEX_POINT('',#687);
#239=VERTEX_POINT('',#699);
#240=VERTEX_POINT('',#700);
#241=VERTEX_POINT('',#705);
#242=VERTEX_POINT('',#709);
#243=VERTEX_POINT('',#713);
#244=VERTEX_POINT('',#717);
#245=VERTEX_POINT('',#721);
#246=LINE('',#608,#302);
#247=LINE('',#611,#303);
#248=LINE('',#613,#304);
#249=LINE('',#615,#305);
#250=LINE('',#617,#306);
#251=LINE('',#620,#307);
#252=LINE('',#622,#308);
#253=LINE('',#624,#309);
#254=LINE('',#626,#310);
#255=LINE('',#629,#311);
#256=LINE('',#631,#312);
#257=LINE('',#632,#313);
#258=LINE('',#634,#314);
#259=LINE('',#636,#315);
#260=LINE('',#638,#316);
#261=LINE('',#640,#317);
#262=LINE('',#642,#318);
#263=LINE('',#644,#319);
#264=LINE('',#647,#320);
#265=LINE('',#649,#321);
#266=LINE('',#651,#322);
#267=LINE('',#653,#323);
#268=LINE('',#655,#324);
#269=LINE('',#657,#325);
#270=LINE('',#659,#326);
#271=LINE('',#661,#327);
#272=LINE('',#663,#328);
#273=LINE('',#665,#329);
#274=LINE('',#669,#330);
#275=LINE('',#672,#331);
#276=LINE('',#674,#332);
#277=LINE('',#676,#333);
#278=LINE('',#678,#334);
#279=LINE('',#680,#335);
#280=LINE('',#682,#336);
#281=LINE('',#684,#337);
#282=LINE('',#686,#338);
#283=LINE('',#688,#339);
#284=LINE('',#690,#340);
#285=LINE('',#691,#341);
#286=LINE('',#693,#342);
#287=LINE('',#694,#343);
#288=LINE('',#698,#344);
#289=LINE('',#701,#345);
#290=LINE('',#704,#346);
#291=LINE('',#706,#347);
#292=LINE('',#708,#348);
#293=LINE('',#710,#349);
#294=LINE('',#712,#350);
#295=LINE('',#714,#351);
#296=LINE('',#716,#352);
#297=LINE('',#718,#353);
#298=LINE('',#720,#354);
#299=LINE('',#722,#355);
#300=LINE('',#724,#356);
#301=LINE('',#727,#357);
#302=VECTOR('',#498,1000.);
#303=VECTOR('',#499,1000.);
#304=VECTOR('',#500,1000.);
#305=VECTOR('',#501,1000.);
#306=VECTOR('',#504,1000.);
#307=VECTOR('',#505,1000.);
#308=VECTOR('',#506,1000.);
#309=VECTOR('',#507,1000.);
#310=VECTOR('',#510,1000.);
#311=VECTOR('',#511,1000.);
#312=VECTOR('',#512,1000.);
#313=VECTOR('',#513,1000.);
#314=VECTOR('',#514,1000.);
#315=VECTOR('',#515,1000.);
#316=VECTOR('',#516,1000.);
#317=VECTOR('',#517,1000.);
#318=VECTOR('',#518,1000.);
#319=VECTOR('',#521,1000.);
#320=VECTOR('',#522,1000.);
#321=VECTOR('',#523,1000.);
#322=VECTOR('',#524,1000.);
#323=VECTOR('',#527,1000.);
#324=VECTOR('',#528,1000.);
#325=VECTOR('',#529,1000.);
#326=VECTOR('',#532,1000.);
#327=VECTOR('',#533,1000.);
#328=VECTOR('',#534,1000.);
#329=VECTOR('',#537,1000.);
#330=VECTOR('',#542,1000.);
#331=VECTOR('',#543,1000.);
#332=VECTOR('',#544,1000.);
#333=VECTOR('',#545,1000.);
#334=VECTOR('',#548,1000.);
#335=VECTOR('',#549,1000.);
#336=VECTOR('',#550,1000.);
#337=VECTOR('',#553,1000.);
#338=VECTOR('',#554,1000.);
#339=VECTOR('',#555,1000.);
#340=VECTOR('',#558,1000.);
#341=VECTOR('',#559,1000.);
#342=VECTOR('',#562,1000.);
#343=VECTOR('',#563,1000.);
#344=VECTOR('',#570,1000.);
#345=VECTOR('',#571,1000.);
#346=VECTOR('',#576,1000.);
#347=VECTOR('',#577,1000.);
#348=VECTOR('',#580,1000.);
#349=VECTOR('',#581,1000.);
#350=VECTOR('',#584,1000.);
#351=VECTOR('',#585,1000.);
#352=VECTOR('',#588,1000.);
#353=VECTOR('',#589,1000.);
#354=VECTOR('',#592,1000.);
#355=VECTOR('',#593,1000.);
#356=VECTOR('',#596,1000.);
#357=VECTOR('',#601,1000.);
#358=EDGE_LOOP('',(#26,#27,#28,#29));
#359=EDGE_LOOP('',(#30,#31,#32,#33));
#360=EDGE_LOOP('',(#34,#35,#36,#37,#38,#39,#40,#41,#42,#43));
#361=EDGE_LOOP('',(#44,#45,#46,#47));
#362=EDGE_LOOP('',(#48,#49,#50,#51));
#363=EDGE_LOOP('',(#52,#53,#54,#55));
#364=EDGE_LOOP('',(#56,#57,#58,#59,#60,#61));
#365=EDGE_LOOP('',(#62,#63,#64,#65));
#366=EDGE_LOOP('',(#66,#67,#68,#69));
#367=EDGE_LOOP('',(#70,#71,#72,#73));
#368=EDGE_LOOP('',(#74,#75,#76,#77));
#369=EDGE_LOOP('',(#78,#79,#80,#81));
#370=EDGE_LOOP('',(#82,#83,#84,#85));
#371=EDGE_LOOP('',(#86,#87,#88,#89));
#372=EDGE_LOOP('',(#90,#91,#92,#93));
#373=EDGE_LOOP('',(#94,#95,#96,#97));
#374=EDGE_LOOP('',(#98,#99,#100,#101,#102));
#375=EDGE_LOOP('',(#103,#104,#105,#106));
#376=EDGE_LOOP('',(#107,#108,#109,#110));
#377=EDGE_LOOP('',(#111,#112,#113,#114));
#378=EDGE_LOOP('',(#115,#116,#117,#118));
#379=EDGE_LOOP('',(#119,#120,#121,#122));
#380=EDGE_LOOP('',(#123,#124,#125,#126,#127));
#381=EDGE_LOOP('',(#128,#129,#130,#131,#132,#133,#134,#135,#136,#137));
#382=EDGE_LOOP('',(#138,#139,#140,#141));
#383=EDGE_LOOP('',(#142,#143,#144,#145));
#384=FACE_BOUND('',#358,.T.);
#385=FACE_BOUND('',#359,.T.);
#386=FACE_BOUND('',#360,.T.);
#387=FACE_BOUND('',#361,.T.);
#388=FACE_BOUND('',#362,.T.);
#389=FACE_BOUND('',#363,.T.);
#390=FACE_BOUND('',#364,.T.);
#391=FACE_BOUND('',#365,.T.);
#392=FACE_BOUND('',#366,.T.);
#393=FACE_BOUND('',#367,.T.);
#394=FACE_BOUND('',#368,.T.);
#395=FACE_BOUND('',#369,.T.);
#396=FACE_BOUND('',#370,.T.);
#397=FACE_BOUND('',#371,.T.);
#398=FACE_BOUND('',#372,.T.);
#399=FACE_BOUND('',#373,.T.);
#400=FACE_BOUND('',#374,.T.);
#401=FACE_BOUND('',#375,.T.);
#402=FACE_BOUND('',#376,.T.);
#403=FACE_BOUND('',#377,.T.);
#404=FACE_BOUND('',#378,.T.);
#405=FACE_BOUND('',#379,.T.);
#406=FACE_BOUND('',#380,.T.);
#407=FACE_BOUND('',#381,.T.);
#408=FACE_BOUND('',#382,.T.);
#409=FACE_BOUND('',#383,.T.);
#410=PLANE('',#467);
#411=PLANE('',#468);
#412=PLANE('',#469);
#413=PLANE('',#470);
#414=PLANE('',#471);
#415=PLANE('',#472);
#416=PLANE('',#475);
#417=PLANE('',#476);
#418=PLANE('',#477);
#419=PLANE('',#478);
#420=PLANE('',#479);
#421=PLANE('',#480);
#422=PLANE('',#481);
#423=PLANE('',#482);
#424=PLANE('',#484);
#425=PLANE('',#485);
#426=PLANE('',#486);
#427=PLANE('',#487);
#428=PLANE('',#488);
#429=PLANE('',#489);
#430=PLANE('',#491);
#431=ADVANCED_FACE('',(#384),#410,.F.);
#432=ADVANCED_FACE('',(#385),#411,.F.);
#433=ADVANCED_FACE('',(#386),#412,.T.);
#434=ADVANCED_FACE('',(#387),#413,.F.);
#435=ADVANCED_FACE('',(#388),#414,.F.);
#436=ADVANCED_FACE('',(#389,#390),#415,.F.);
#437=ADVANCED_FACE('',(#391),#416,.T.);
#438=ADVANCED_FACE('',(#392),#417,.T.);
#439=ADVANCED_FACE('',(#393),#418,.T.);
#440=ADVANCED_FACE('',(#394),#419,.T.);
#441=ADVANCED_FACE('',(#395),#420,.F.);
#442=ADVANCED_FACE('',(#396,#397),#421,.T.);
#443=ADVANCED_FACE('',(#398,#399),#422,.F.);
#444=ADVANCED_FACE('',(#400),#423,.F.);
#445=ADVANCED_FACE('',(#401),#424,.F.);
#446=ADVANCED_FACE('',(#402),#425,.F.);
#447=ADVANCED_FACE('',(#403),#426,.F.);
#448=ADVANCED_FACE('',(#404),#427,.F.);
#449=ADVANCED_FACE('',(#405),#428,.F.);
#450=ADVANCED_FACE('',(#406),#429,.F.);
#451=ADVANCED_FACE('',(#407),#430,.F.);
#452=ADVANCED_FACE('',(#408),#20,.T.);
#453=ADVANCED_FACE('',(#409),#21,.T.);
#454=CLOSED_SHELL('',(#431,#432,#433,#434,#435,#436,#437,#438,#439,#440,
#441,#442,#443,#444,#445,#446,#447,#448,#449,#450,#451,#452,#453));
#455=STYLED_ITEM('',(#456),#463);
#456=PRESENTATION_STYLE_ASSIGNMENT((#457));
#457=SURFACE_STYLE_USAGE(.BOTH.,#458);
#458=SURFACE_SIDE_STYLE('',(#459));
#459=SURFACE_STYLE_FILL_AREA(#460);
#460=FILL_AREA_STYLE('',(#461));
#461=FILL_AREA_STYLE_COLOUR('',#462);
#462=COLOUR_RGB('',0.0549019612371922,0.0549019612371922,0.062745101749897);
#463=MANIFOLD_SOLID_BREP('093050',#454);
#464=SHAPE_DEFINITION_REPRESENTATION(#736,#465);
#465=SHAPE_REPRESENTATION('093050',(#466),#731);
#466=AXIS2_PLACEMENT_3D('',#606,#494,#495);
#467=AXIS2_PLACEMENT_3D('',#607,#496,#497);
#468=AXIS2_PLACEMENT_3D('',#616,#502,#503);
#469=AXIS2_PLACEMENT_3D('',#625,#508,#509);
#470=AXIS2_PLACEMENT_3D('',#643,#519,#520);
#471=AXIS2_PLACEMENT_3D('',#652,#525,#526);
#472=AXIS2_PLACEMENT_3D('',#658,#530,#531);
#473=AXIS2_PLACEMENT_3D('',#664,#535,#536);
#474=AXIS2_PLACEMENT_3D('',#667,#538,#539);
#475=AXIS2_PLACEMENT_3D('',#668,#540,#541);
#476=AXIS2_PLACEMENT_3D('',#677,#546,#547);
#477=AXIS2_PLACEMENT_3D('',#683,#551,#552);
#478=AXIS2_PLACEMENT_3D('',#689,#556,#557);
#479=AXIS2_PLACEMENT_3D('',#692,#560,#561);
#480=AXIS2_PLACEMENT_3D('',#695,#564,#565);
#481=AXIS2_PLACEMENT_3D('',#696,#566,#567);
#482=AXIS2_PLACEMENT_3D('',#697,#568,#569);
#483=AXIS2_PLACEMENT_3D('',#702,#572,#573);
#484=AXIS2_PLACEMENT_3D('',#703,#574,#575);
#485=AXIS2_PLACEMENT_3D('',#707,#578,#579);
#486=AXIS2_PLACEMENT_3D('',#711,#582,#583);
#487=AXIS2_PLACEMENT_3D('',#715,#586,#587);
#488=AXIS2_PLACEMENT_3D('',#719,#590,#591);
#489=AXIS2_PLACEMENT_3D('',#723,#594,#595);
#490=AXIS2_PLACEMENT_3D('',#725,#597,#598);
#491=AXIS2_PLACEMENT_3D('',#726,#599,#600);
#492=AXIS2_PLACEMENT_3D('',#728,#602,#603);
#493=AXIS2_PLACEMENT_3D('',#729,#604,#605);
#494=DIRECTION('',(0.,0.,1.));
#495=DIRECTION('',(1.,0.,0.));
#496=DIRECTION('',(0.,0.,1.));
#497=DIRECTION('',(1.,0.,0.));
#498=DIRECTION('',(0.,1.,0.));
#499=DIRECTION('',(-1.,0.,0.));
#500=DIRECTION('',(0.,1.,0.));
#501=DIRECTION('',(-1.,0.,0.));
#502=DIRECTION('',(0.,0.,-1.));
#503=DIRECTION('',(-1.,0.,0.));
#504=DIRECTION('',(0.,1.,0.));
#505=DIRECTION('',(-1.,0.,0.));
#506=DIRECTION('',(0.,-1.,0.));
#507=DIRECTION('',(-1.,0.,0.));
#508=DIRECTION('',(1.,0.,0.));
#509=DIRECTION('',(0.,0.,-1.));
#510=DIRECTION('',(0.,0.,1.));
#511=DIRECTION('',(0.,1.,0.));
#512=DIRECTION('',(0.,0.,1.));
#513=DIRECTION('',(0.,0.,1.));
#514=DIRECTION('',(0.,-1.,0.));
#515=DIRECTION('',(0.,-0.8,-0.6));
#516=DIRECTION('',(0.,0.,-1.));
#517=DIRECTION('',(0.,0.8,-0.6));
#518=DIRECTION('',(0.,1.,0.));
#519=DIRECTION('',(0.,-1.,0.));
#520=DIRECTION('',(0.,0.,-1.));
#521=DIRECTION('',(-1.,0.,0.));
#522=DIRECTION('',(0.,0.,-1.));
#523=DIRECTION('',(-1.,0.,0.));
#524=DIRECTION('',(0.,0.,-1.));
#525=DIRECTION('',(1.,0.,0.));
#526=DIRECTION('',(0.,0.,-1.));
#527=DIRECTION('',(0.,-1.,0.));
#528=DIRECTION('',(0.,0.,-1.));
#529=DIRECTION('',(0.,-1.,0.));
#530=DIRECTION('',(0.,1.,0.));
#531=DIRECTION('',(0.,0.,1.));
#532=DIRECTION('',(1.,0.,0.));
#533=DIRECTION('',(0.,0.,-1.));
#534=DIRECTION('',(1.,0.,0.));
#535=DIRECTION('',(0.,1.,0.));
#536=DIRECTION('',(1.,0.,0.));
#537=DIRECTION('',(0.,0.,1.));
#538=DIRECTION('',(0.,1.,0.));
#539=DIRECTION('',(1.,0.,0.));
#540=DIRECTION('',(0.,-1.,0.));
#541=DIRECTION('',(0.,0.,-1.));
#542=DIRECTION('',(-1.,0.,0.));
#543=DIRECTION('',(0.,0.,-1.));
#544=DIRECTION('',(-1.,0.,0.));
#545=DIRECTION('',(0.,0.,-1.));
#546=DIRECTION('',(-1.,0.,0.));
#547=DIRECTION('',(0.,0.,1.));
#548=DIRECTION('',(0.,1.,0.));
#549=DIRECTION('',(0.,0.,-1.));
#550=DIRECTION('',(0.,1.,0.));
#551=DIRECTION('',(0.,1.,0.));
#552=DIRECTION('',(0.,0.,1.));
#553=DIRECTION('',(1.,0.,0.));
#554=DIRECTION('',(0.,0.,-1.));
#555=DIRECTION('',(1.,0.,0.));
#556=DIRECTION('',(1.,0.,0.));
#557=DIRECTION('',(0.,0.,-1.));
#558=DIRECTION('',(0.,-1.,0.));
#559=DIRECTION('',(0.,-1.,0.));
#560=DIRECTION('',(-1.,0.,0.));
#561=DIRECTION('',(0.,0.,1.));
#562=DIRECTION('',(0.,1.,0.));
#563=DIRECTION('',(0.,1.,0.));
#564=DIRECTION('',(0.,0.,1.));
#565=DIRECTION('',(1.,0.,0.));
#566=DIRECTION('',(0.,0.,1.));
#567=DIRECTION('',(1.,0.,0.));
#568=DIRECTION('',(0.,-1.,0.));
#569=DIRECTION('',(0.,0.,-1.));
#570=DIRECTION('',(0.,0.,1.));
#571=DIRECTION('',(-1.,0.,0.));
#572=DIRECTION('',(0.,1.,0.));
#573=DIRECTION('',(1.,0.,0.));
#574=DIRECTION('',(0.,0.,-1.));
#575=DIRECTION('',(-1.,0.,0.));
#576=DIRECTION('',(0.,-1.,0.));
#577=DIRECTION('',(-1.,0.,0.));
#578=DIRECTION('',(0.,0.6,-0.8));
#579=DIRECTION('',(0.,0.8,0.6));
#580=DIRECTION('',(0.,-0.8,-0.6));
#581=DIRECTION('',(-1.,0.,0.));
#582=DIRECTION('',(0.,1.,0.));
#583=DIRECTION('',(0.,0.,1.));
#584=DIRECTION('',(0.,0.,-1.));
#585=DIRECTION('',(-1.,0.,0.));
#586=DIRECTION('',(0.,0.6,0.8));
#587=DIRECTION('',(0.,-0.8,0.6));
#588=DIRECTION('',(0.,0.8,-0.6));
#589=DIRECTION('',(-1.,0.,0.));
#590=DIRECTION('',(0.,0.,1.));
#591=DIRECTION('',(1.,0.,0.));
#592=DIRECTION('',(0.,1.,0.));
#593=DIRECTION('',(-1.,0.,0.));
#594=DIRECTION('',(0.,-1.,0.));
#595=DIRECTION('',(0.,0.,-1.));
#596=DIRECTION('',(0.,0.,1.));
#597=DIRECTION('',(0.,1.,0.));
#598=DIRECTION('',(1.,0.,0.));
#599=DIRECTION('',(1.,0.,0.));
#600=DIRECTION('',(0.,0.,-1.));
#601=DIRECTION('',(0.,1.,0.));
#602=DIRECTION('',(0.,1.,0.));
#603=DIRECTION('',(0.,0.,1.));
#604=DIRECTION('',(0.,1.,0.));
#605=DIRECTION('',(0.,0.,1.));
#606=CARTESIAN_POINT('',(0.,0.,0.));
#607=CARTESIAN_POINT('',(5.,-5.9,-5.));
#608=CARTESIAN_POINT('',(3.06161699786838E-16,-5.9,-5.));
#609=CARTESIAN_POINT('',(3.06161699786838E-16,-5.9,-5.));
#610=CARTESIAN_POINT('',(3.06161699786838E-16,0.,-5.));
#611=CARTESIAN_POINT('',(5.,-5.9,-5.));
#612=CARTESIAN_POINT('',(-5.,-5.9,-5.));
#613=CARTESIAN_POINT('',(-5.,-5.9,-5.));
#614=CARTESIAN_POINT('',(-5.,0.,-5.));
#615=CARTESIAN_POINT('',(5.,0.,-5.));
#616=CARTESIAN_POINT('',(5.,0.,5.));
#617=CARTESIAN_POINT('',(-1.78584683734892E-15,-5.9,5.));
#618=CARTESIAN_POINT('',(-1.78584683734892E-15,-5.9,5.));
#619=CARTESIAN_POINT('',(-1.78584683734892E-15,0.,5.));
#620=CARTESIAN_POINT('',(5.,-5.9,5.));
#621=CARTESIAN_POINT('',(5.,-5.9,5.));
#622=CARTESIAN_POINT('',(5.,0.,5.));
#623=CARTESIAN_POINT('',(5.,0.,5.));
#624=CARTESIAN_POINT('',(5.,0.,5.));
#625=CARTESIAN_POINT('',(5.,0.,0.));
#626=CARTESIAN_POINT('',(5.,-5.9,-8.));
#627=CARTESIAN_POINT('',(5.,-5.9,-8.));
#628=CARTESIAN_POINT('',(5.,-5.9,0.));
#629=CARTESIAN_POINT('',(5.,-5.9,0.));
#630=CARTESIAN_POINT('',(5.,0.,0.));
#631=CARTESIAN_POINT('',(5.,0.,-5.));
#632=CARTESIAN_POINT('',(5.,-5.9,5.));
#633=CARTESIAN_POINT('',(5.,-5.9,8.));
#634=CARTESIAN_POINT('',(5.,-5.9,8.));
#635=CARTESIAN_POINT('',(5.,-6.9,8.));
#636=CARTESIAN_POINT('',(5.,-6.9,8.));
#637=CARTESIAN_POINT('',(5.,-10.9,5.));
#638=CARTESIAN_POINT('',(5.,-10.9,5.));
#639=CARTESIAN_POINT('',(5.,-10.9,-5.));
#640=CARTESIAN_POINT('',(5.,-10.9,-5.));
#641=CARTESIAN_POINT('',(5.,-6.9,-8.));
#642=CARTESIAN_POINT('',(5.,-6.9,-8.));
#643=CARTESIAN_POINT('',(9.5,9.,9.5));
#644=CARTESIAN_POINT('',(9.5,9.,-9.5));
#645=CARTESIAN_POINT('',(9.5,9.,-9.5));
#646=CARTESIAN_POINT('',(-9.5,9.,-9.5));
#647=CARTESIAN_POINT('',(-9.5,9.,9.5));
#648=CARTESIAN_POINT('',(-9.5,9.,9.5));
#649=CARTESIAN_POINT('',(9.5,9.,9.5));
#650=CARTESIAN_POINT('',(9.5,9.,9.5));
#651=CARTESIAN_POINT('',(9.5,9.,9.5));
#652=CARTESIAN_POINT('',(-9.5,9.,9.5));
#653=CARTESIAN_POINT('',(-9.5,9.,-9.5));
#654=CARTESIAN_POINT('',(-9.5,0.,-9.5));
#655=CARTESIAN_POINT('',(-9.5,0.,9.5));
#656=CARTESIAN_POINT('',(-9.5,0.,9.5));
#657=CARTESIAN_POINT('',(-9.5,9.,9.5));
#658=CARTESIAN_POINT('',(-9.5,0.,9.5));
#659=CARTESIAN_POINT('',(-9.5,0.,-9.5));
#660=CARTESIAN_POINT('',(9.5,0.,-9.5));
#661=CARTESIAN_POINT('',(9.5,0.,9.5));
#662=CARTESIAN_POINT('',(9.5,0.,9.5));
#663=CARTESIAN_POINT('',(-9.5,0.,9.5));
#664=CARTESIAN_POINT('',(0.,0.,4.33680868994202E-16));
#665=CARTESIAN_POINT('',(-5.,0.,-5.));
#666=CARTESIAN_POINT('',(-5.,0.,-1.78642530579475E-16));
#667=CARTESIAN_POINT('',(-8.67361737988404E-16,0.,4.33680868994202E-16));
#668=CARTESIAN_POINT('',(6.65,7.,9.5));
#669=CARTESIAN_POINT('',(6.65,7.,-9.5));
#670=CARTESIAN_POINT('',(6.65,7.,-9.5));
#671=CARTESIAN_POINT('',(-6.65,7.,-9.5));
#672=CARTESIAN_POINT('',(6.65,7.,9.5));
#673=CARTESIAN_POINT('',(6.65,7.,9.5));
#674=CARTESIAN_POINT('',(6.65,7.,9.5));
#675=CARTESIAN_POINT('',(-6.65,7.,9.5));
#676=CARTESIAN_POINT('',(-6.65,7.,9.5));
#677=CARTESIAN_POINT('',(6.65,2.,9.5));
#678=CARTESIAN_POINT('',(6.65,2.,-9.5));
#679=CARTESIAN_POINT('',(6.65,2.,-9.5));
#680=CARTESIAN_POINT('',(6.65,2.,9.5));
#681=CARTESIAN_POINT('',(6.65,2.,9.5));
#682=CARTESIAN_POINT('',(6.65,2.,9.5));
#683=CARTESIAN_POINT('',(-6.65,2.,9.5));
#684=CARTESIAN_POINT('',(-6.65,2.,-9.5));
#685=CARTESIAN_POINT('',(-6.65,2.,-9.5));
#686=CARTESIAN_POINT('',(-6.65,2.,9.5));
#687=CARTESIAN_POINT('',(-6.65,2.,9.5));
#688=CARTESIAN_POINT('',(-6.65,2.,9.5));
#689=CARTESIAN_POINT('',(-6.65,7.,9.5));
#690=CARTESIAN_POINT('',(-6.65,7.,-9.5));
#691=CARTESIAN_POINT('',(-6.65,7.,9.5));
#692=CARTESIAN_POINT('',(9.5,0.,9.5));
#693=CARTESIAN_POINT('',(9.5,0.,-9.5));
#694=CARTESIAN_POINT('',(9.5,0.,9.5));
#695=CARTESIAN_POINT('',(0.,0.,9.5));
#696=CARTESIAN_POINT('',(0.,0.,-9.5));
#697=CARTESIAN_POINT('',(5.,-5.9,5.));
#698=CARTESIAN_POINT('',(-5.,-5.9,5.));
#699=CARTESIAN_POINT('',(-5.,-5.9,-1.78642530579475E-16));
#700=CARTESIAN_POINT('',(-5.,-5.9,8.));
#701=CARTESIAN_POINT('',(5.,-5.9,8.));
#702=CARTESIAN_POINT('',(-8.67361737988404E-16,-5.9,4.33680868994202E-16));
#703=CARTESIAN_POINT('',(5.,-5.9,8.));
#704=CARTESIAN_POINT('',(-5.,-5.9,8.));
#705=CARTESIAN_POINT('',(-5.,-6.9,8.));
#706=CARTESIAN_POINT('',(5.,-6.9,8.));
#707=CARTESIAN_POINT('',(5.,-6.9,8.));
#708=CARTESIAN_POINT('',(-5.,-6.9,8.));
#709=CARTESIAN_POINT('',(-5.,-10.9,5.));
#710=CARTESIAN_POINT('',(5.,-10.9,5.));
#711=CARTESIAN_POINT('',(5.,-10.9,5.));
#712=CARTESIAN_POINT('',(-5.,-10.9,5.));
#713=CARTESIAN_POINT('',(-5.,-10.9,-5.));
#714=CARTESIAN_POINT('',(5.,-10.9,-5.));
#715=CARTESIAN_POINT('',(5.,-10.9,-5.));
#716=CARTESIAN_POINT('',(-5.,-10.9,-5.));
#717=CARTESIAN_POINT('',(-5.,-6.9,-8.));
#718=CARTESIAN_POINT('',(5.,-6.9,-8.));
#719=CARTESIAN_POINT('',(5.,-6.9,-8.));
#720=CARTESIAN_POINT('',(-5.,-6.9,-8.));
#721=CARTESIAN_POINT('',(-5.,-5.9,-8.));
#722=CARTESIAN_POINT('',(5.,-5.9,-8.));
#723=CARTESIAN_POINT('',(5.,-5.9,-8.));
#724=CARTESIAN_POINT('',(-5.,-5.9,-8.));
#725=CARTESIAN_POINT('',(0.,-5.9,4.33680868994202E-16));
#726=CARTESIAN_POINT('',(-5.,0.,0.));
#727=CARTESIAN_POINT('',(-5.,-5.9,-1.78642530579475E-16));
#728=CARTESIAN_POINT('',(-8.67361737988404E-16,-5.9,4.33680868994202E-16));
#729=CARTESIAN_POINT('',(0.,-5.9,4.33680868994202E-16));
#730=MECHANICAL_DESIGN_GEOMETRIC_PRESENTATION_REPRESENTATION('',(#455),
#731);
#731=(
GEOMETRIC_REPRESENTATION_CONTEXT(3)
GLOBAL_UNCERTAINTY_ASSIGNED_CONTEXT((#732))
GLOBAL_UNIT_ASSIGNED_CONTEXT((#735,#734,#733))
REPRESENTATION_CONTEXT('093050','TOP_LEVEL_ASSEMBLY_PART')
);
#732=UNCERTAINTY_MEASURE_WITH_UNIT(LENGTH_MEASURE(0.005),#735,
'DISTANCE_ACCURACY_VALUE','Maximum Tolerance applied to model');
#733=(
NAMED_UNIT(*)
SI_UNIT($,.STERADIAN.)
SOLID_ANGLE_UNIT()
);
#734=(
NAMED_UNIT(*)
PLANE_ANGLE_UNIT()
SI_UNIT($,.RADIAN.)
);
#735=(
LENGTH_UNIT()
NAMED_UNIT(*)
SI_UNIT(.MILLI.,.METRE.)
);
#736=PRODUCT_DEFINITION_SHAPE('','',#737);
#737=PRODUCT_DEFINITION('','',#739,#738);
#738=PRODUCT_DEFINITION_CONTEXT('',#745,'design');
#739=PRODUCT_DEFINITION_FORMATION_WITH_SPECIFIED_SOURCE('','',#741,
 .NOT_KNOWN.);
#740=PRODUCT_RELATED_PRODUCT_CATEGORY('','',(#741));
#741=PRODUCT('093050','093050','093050',(#743));
#742=PRODUCT_CATEGORY('','');
#743=PRODUCT_CONTEXT('',#745,'mechanical');
#744=APPLICATION_PROTOCOL_DEFINITION('international standard',
'automotive_design',2010,#745);
#745=APPLICATION_CONTEXT(
'core data for automotive mechanical design processes');
ENDSEC;
END-ISO-10303-21;
