ISO-10303-21;
HEADER;
/* Generated by software containing ST-Developer
 * from STEP Tools, Inc. (www.steptools.com) 
 */
/* OPTION: using custom renumber hook */

FILE_DESCRIPTION(
/* description */ ('STEP AP214'),
/* implementation_level */ '2;1');

FILE_NAME(
/* name */ '093169SW',
/* time_stamp */ '2022-11-24T09:45:41+01:00',
/* author */ ('License CC BY-ND 4.0'),
/* organization */ ('CADENAS'),
/* preprocessor_version */ 'ST-DEVELOPER v18.102',
/* originating_system */ 'PARTsolutions',
/* authorisation */ '  ');

FILE_SCHEMA (('AUTOMOTIVE_DESIGN {1 0 10303 214 3 1 1}'));
ENDSEC;

DATA;
#10=PROPERTY_DEFINITION_REPRESENTATION(#14,#12);
#11=PROPERTY_DEFINITION_REPRESENTATION(#15,#13);
#12=REPRESENTATION('',(#16),#631);
#13=REPRESENTATION('',(#17),#631);
#14=PROPERTY_DEFINITION('pmi validation property','',#636);
#15=PROPERTY_DEFINITION('pmi validation property','',#636);
#16=VALUE_REPRESENTATION_ITEM('number of annotations',COUNT_MEASURE(0.));
#17=VALUE_REPRESENTATION_ITEM('number of views',COUNT_MEASURE(0.));
#18=SHAPE_REPRESENTATION_RELATIONSHIP('','',#379,#19);
#19=ADVANCED_BREP_SHAPE_REPRESENTATION('',(#377),#631);
#20=LINE('',#533,#52);
#21=LINE('',#538,#53);
#22=LINE('',#542,#54);
#23=LINE('',#546,#55);
#24=LINE('',#550,#56);
#25=LINE('',#554,#57);
#26=LINE('',#558,#58);
#27=LINE('',#562,#59);
#28=LINE('',#569,#60);
#29=LINE('',#573,#61);
#30=LINE('',#577,#62);
#31=LINE('',#581,#63);
#32=LINE('',#585,#64);
#33=LINE('',#589,#65);
#34=LINE('',#593,#66);
#35=LINE('',#597,#67);
#36=LINE('',#599,#68);
#37=LINE('',#600,#69);
#38=LINE('',#602,#70);
#39=LINE('',#604,#71);
#40=LINE('',#606,#72);
#41=LINE('',#608,#73);
#42=LINE('',#610,#74);
#43=LINE('',#612,#75);
#44=LINE('',#614,#76);
#45=LINE('',#616,#77);
#46=LINE('',#618,#78);
#47=LINE('',#620,#79);
#48=LINE('',#622,#80);
#49=LINE('',#624,#81);
#50=LINE('',#626,#82);
#51=LINE('',#628,#83);
#52=VECTOR('',#428,1000.);
#53=VECTOR('',#431,1000.);
#54=VECTOR('',#434,1000.);
#55=VECTOR('',#437,1000.);
#56=VECTOR('',#440,1000.);
#57=VECTOR('',#443,1000.);
#58=VECTOR('',#446,1000.);
#59=VECTOR('',#449,1000.);
#60=VECTOR('',#456,1000.);
#61=VECTOR('',#459,1000.);
#62=VECTOR('',#462,1000.);
#63=VECTOR('',#465,1000.);
#64=VECTOR('',#468,1000.);
#65=VECTOR('',#471,1000.);
#66=VECTOR('',#474,1000.);
#67=VECTOR('',#477,1000.);
#68=VECTOR('',#480,1000.);
#69=VECTOR('',#481,1000.);
#70=VECTOR('',#484,1000.);
#71=VECTOR('',#487,1000.);
#72=VECTOR('',#490,1000.);
#73=VECTOR('',#493,1000.);
#74=VECTOR('',#496,1000.);
#75=VECTOR('',#499,1000.);
#76=VECTOR('',#502,1000.);
#77=VECTOR('',#505,1000.);
#78=VECTOR('',#508,1000.);
#79=VECTOR('',#511,1000.);
#80=VECTOR('',#514,1000.);
#81=VECTOR('',#517,1000.);
#82=VECTOR('',#520,1000.);
#83=VECTOR('',#523,1000.);
#84=PLANE('',#384);
#85=PLANE('',#393);
#86=PLANE('',#402);
#87=PLANE('',#404);
#88=PLANE('',#406);
#89=PLANE('',#408);
#90=PLANE('',#410);
#91=PLANE('',#412);
#92=PLANE('',#414);
#93=PLANE('',#416);
#94=ORIENTED_EDGE('',*,*,#194,.T.);
#95=ORIENTED_EDGE('',*,*,#195,.F.);
#96=ORIENTED_EDGE('',*,*,#196,.F.);
#97=ORIENTED_EDGE('',*,*,#197,.F.);
#98=ORIENTED_EDGE('',*,*,#198,.F.);
#99=ORIENTED_EDGE('',*,*,#199,.F.);
#100=ORIENTED_EDGE('',*,*,#200,.F.);
#101=ORIENTED_EDGE('',*,*,#201,.F.);
#102=ORIENTED_EDGE('',*,*,#202,.F.);
#103=ORIENTED_EDGE('',*,*,#203,.F.);
#104=ORIENTED_EDGE('',*,*,#204,.F.);
#105=ORIENTED_EDGE('',*,*,#205,.F.);
#106=ORIENTED_EDGE('',*,*,#206,.F.);
#107=ORIENTED_EDGE('',*,*,#207,.F.);
#108=ORIENTED_EDGE('',*,*,#208,.F.);
#109=ORIENTED_EDGE('',*,*,#209,.F.);
#110=ORIENTED_EDGE('',*,*,#210,.F.);
#111=ORIENTED_EDGE('',*,*,#211,.F.);
#112=ORIENTED_EDGE('',*,*,#194,.F.);
#113=ORIENTED_EDGE('',*,*,#212,.T.);
#114=ORIENTED_EDGE('',*,*,#213,.T.);
#115=ORIENTED_EDGE('',*,*,#214,.T.);
#116=ORIENTED_EDGE('',*,*,#215,.T.);
#117=ORIENTED_EDGE('',*,*,#216,.T.);
#118=ORIENTED_EDGE('',*,*,#217,.T.);
#119=ORIENTED_EDGE('',*,*,#218,.T.);
#120=ORIENTED_EDGE('',*,*,#219,.T.);
#121=ORIENTED_EDGE('',*,*,#220,.T.);
#122=ORIENTED_EDGE('',*,*,#221,.T.);
#123=ORIENTED_EDGE('',*,*,#222,.T.);
#124=ORIENTED_EDGE('',*,*,#223,.T.);
#125=ORIENTED_EDGE('',*,*,#224,.T.);
#126=ORIENTED_EDGE('',*,*,#225,.T.);
#127=ORIENTED_EDGE('',*,*,#226,.T.);
#128=ORIENTED_EDGE('',*,*,#227,.T.);
#129=ORIENTED_EDGE('',*,*,#195,.T.);
#130=ORIENTED_EDGE('',*,*,#196,.T.);
#131=ORIENTED_EDGE('',*,*,#228,.F.);
#132=ORIENTED_EDGE('',*,*,#213,.F.);
#133=ORIENTED_EDGE('',*,*,#229,.T.);
#134=ORIENTED_EDGE('',*,*,#197,.T.);
#135=ORIENTED_EDGE('',*,*,#229,.F.);
#136=ORIENTED_EDGE('',*,*,#212,.F.);
#137=ORIENTED_EDGE('',*,*,#230,.T.);
#138=ORIENTED_EDGE('',*,*,#198,.T.);
#139=ORIENTED_EDGE('',*,*,#230,.F.);
#140=ORIENTED_EDGE('',*,*,#227,.F.);
#141=ORIENTED_EDGE('',*,*,#231,.T.);
#142=ORIENTED_EDGE('',*,*,#199,.T.);
#143=ORIENTED_EDGE('',*,*,#231,.F.);
#144=ORIENTED_EDGE('',*,*,#226,.F.);
#145=ORIENTED_EDGE('',*,*,#232,.T.);
#146=ORIENTED_EDGE('',*,*,#200,.T.);
#147=ORIENTED_EDGE('',*,*,#232,.F.);
#148=ORIENTED_EDGE('',*,*,#225,.F.);
#149=ORIENTED_EDGE('',*,*,#233,.T.);
#150=ORIENTED_EDGE('',*,*,#201,.T.);
#151=ORIENTED_EDGE('',*,*,#233,.F.);
#152=ORIENTED_EDGE('',*,*,#224,.F.);
#153=ORIENTED_EDGE('',*,*,#234,.T.);
#154=ORIENTED_EDGE('',*,*,#202,.T.);
#155=ORIENTED_EDGE('',*,*,#234,.F.);
#156=ORIENTED_EDGE('',*,*,#223,.F.);
#157=ORIENTED_EDGE('',*,*,#235,.T.);
#158=ORIENTED_EDGE('',*,*,#203,.T.);
#159=ORIENTED_EDGE('',*,*,#235,.F.);
#160=ORIENTED_EDGE('',*,*,#222,.F.);
#161=ORIENTED_EDGE('',*,*,#236,.T.);
#162=ORIENTED_EDGE('',*,*,#204,.T.);
#163=ORIENTED_EDGE('',*,*,#236,.F.);
#164=ORIENTED_EDGE('',*,*,#221,.F.);
#165=ORIENTED_EDGE('',*,*,#237,.T.);
#166=ORIENTED_EDGE('',*,*,#205,.T.);
#167=ORIENTED_EDGE('',*,*,#237,.F.);
#168=ORIENTED_EDGE('',*,*,#220,.F.);
#169=ORIENTED_EDGE('',*,*,#238,.T.);
#170=ORIENTED_EDGE('',*,*,#206,.T.);
#171=ORIENTED_EDGE('',*,*,#238,.F.);
#172=ORIENTED_EDGE('',*,*,#219,.F.);
#173=ORIENTED_EDGE('',*,*,#239,.T.);
#174=ORIENTED_EDGE('',*,*,#207,.T.);
#175=ORIENTED_EDGE('',*,*,#239,.F.);
#176=ORIENTED_EDGE('',*,*,#218,.F.);
#177=ORIENTED_EDGE('',*,*,#240,.T.);
#178=ORIENTED_EDGE('',*,*,#208,.T.);
#179=ORIENTED_EDGE('',*,*,#240,.F.);
#180=ORIENTED_EDGE('',*,*,#217,.F.);
#181=ORIENTED_EDGE('',*,*,#241,.T.);
#182=ORIENTED_EDGE('',*,*,#209,.T.);
#183=ORIENTED_EDGE('',*,*,#241,.F.);
#184=ORIENTED_EDGE('',*,*,#216,.F.);
#185=ORIENTED_EDGE('',*,*,#242,.T.);
#186=ORIENTED_EDGE('',*,*,#210,.T.);
#187=ORIENTED_EDGE('',*,*,#242,.F.);
#188=ORIENTED_EDGE('',*,*,#215,.F.);
#189=ORIENTED_EDGE('',*,*,#243,.T.);
#190=ORIENTED_EDGE('',*,*,#211,.T.);
#191=ORIENTED_EDGE('',*,*,#243,.F.);
#192=ORIENTED_EDGE('',*,*,#214,.F.);
#193=ORIENTED_EDGE('',*,*,#228,.T.);
#194=EDGE_CURVE('',#244,#244,#278,.T.);
#195=EDGE_CURVE('',#245,#245,#279,.T.);
#196=EDGE_CURVE('',#246,#247,#20,.T.);
#197=EDGE_CURVE('',#248,#246,#280,.F.);
#198=EDGE_CURVE('',#249,#248,#21,.T.);
#199=EDGE_CURVE('',#250,#249,#281,.F.);
#200=EDGE_CURVE('',#251,#250,#22,.T.);
#201=EDGE_CURVE('',#252,#251,#282,.F.);
#202=EDGE_CURVE('',#253,#252,#23,.T.);
#203=EDGE_CURVE('',#254,#253,#283,.F.);
#204=EDGE_CURVE('',#255,#254,#24,.T.);
#205=EDGE_CURVE('',#256,#255,#284,.F.);
#206=EDGE_CURVE('',#257,#256,#25,.T.);
#207=EDGE_CURVE('',#258,#257,#285,.F.);
#208=EDGE_CURVE('',#259,#258,#26,.T.);
#209=EDGE_CURVE('',#260,#259,#286,.F.);
#210=EDGE_CURVE('',#261,#260,#27,.T.);
#211=EDGE_CURVE('',#247,#261,#287,.F.);
#212=EDGE_CURVE('',#262,#263,#288,.F.);
#213=EDGE_CURVE('',#263,#264,#28,.T.);
#214=EDGE_CURVE('',#264,#265,#289,.F.);
#215=EDGE_CURVE('',#265,#266,#29,.T.);
#216=EDGE_CURVE('',#266,#267,#290,.F.);
#217=EDGE_CURVE('',#267,#268,#30,.T.);
#218=EDGE_CURVE('',#268,#269,#291,.F.);
#219=EDGE_CURVE('',#269,#270,#31,.T.);
#220=EDGE_CURVE('',#270,#271,#292,.F.);
#221=EDGE_CURVE('',#271,#272,#32,.T.);
#222=EDGE_CURVE('',#272,#273,#293,.F.);
#223=EDGE_CURVE('',#273,#274,#33,.T.);
#224=EDGE_CURVE('',#274,#275,#294,.F.);
#225=EDGE_CURVE('',#275,#276,#34,.T.);
#226=EDGE_CURVE('',#276,#277,#295,.F.);
#227=EDGE_CURVE('',#277,#262,#35,.T.);
#228=EDGE_CURVE('',#264,#247,#36,.T.);
#229=EDGE_CURVE('',#263,#246,#37,.T.);
#230=EDGE_CURVE('',#262,#248,#38,.T.);
#231=EDGE_CURVE('',#277,#249,#39,.T.);
#232=EDGE_CURVE('',#276,#250,#40,.T.);
#233=EDGE_CURVE('',#275,#251,#41,.T.);
#234=EDGE_CURVE('',#274,#252,#42,.T.);
#235=EDGE_CURVE('',#273,#253,#43,.T.);
#236=EDGE_CURVE('',#272,#254,#44,.T.);
#237=EDGE_CURVE('',#271,#255,#45,.T.);
#238=EDGE_CURVE('',#270,#256,#46,.T.);
#239=EDGE_CURVE('',#269,#257,#47,.T.);
#240=EDGE_CURVE('',#268,#258,#48,.T.);
#241=EDGE_CURVE('',#267,#259,#49,.T.);
#242=EDGE_CURVE('',#266,#260,#50,.T.);
#243=EDGE_CURVE('',#265,#261,#51,.T.);
#244=VERTEX_POINT('',#529);
#245=VERTEX_POINT('',#531);
#246=VERTEX_POINT('',#534);
#247=VERTEX_POINT('',#535);
#248=VERTEX_POINT('',#537);
#249=VERTEX_POINT('',#539);
#250=VERTEX_POINT('',#541);
#251=VERTEX_POINT('',#543);
#252=VERTEX_POINT('',#545);
#253=VERTEX_POINT('',#547);
#254=VERTEX_POINT('',#549);
#255=VERTEX_POINT('',#551);
#256=VERTEX_POINT('',#553);
#257=VERTEX_POINT('',#555);
#258=VERTEX_POINT('',#557);
#259=VERTEX_POINT('',#559);
#260=VERTEX_POINT('',#561);
#261=VERTEX_POINT('',#563);
#262=VERTEX_POINT('',#567);
#263=VERTEX_POINT('',#568);
#264=VERTEX_POINT('',#570);
#265=VERTEX_POINT('',#572);
#266=VERTEX_POINT('',#574);
#267=VERTEX_POINT('',#576);
#268=VERTEX_POINT('',#578);
#269=VERTEX_POINT('',#580);
#270=VERTEX_POINT('',#582);
#271=VERTEX_POINT('',#584);
#272=VERTEX_POINT('',#586);
#273=VERTEX_POINT('',#588);
#274=VERTEX_POINT('',#590);
#275=VERTEX_POINT('',#592);
#276=VERTEX_POINT('',#594);
#277=VERTEX_POINT('',#596);
#278=CIRCLE('',#382,5.);
#279=CIRCLE('',#383,5.);
#280=CIRCLE('',#385,0.630000000000006);
#281=CIRCLE('',#386,2.05);
#282=CIRCLE('',#387,0.630000000000006);
#283=CIRCLE('',#388,2.05);
#284=CIRCLE('',#389,0.630000000000006);
#285=CIRCLE('',#390,2.05);
#286=CIRCLE('',#391,0.630000000000006);
#287=CIRCLE('',#392,2.05);
#288=CIRCLE('',#394,0.630000000000006);
#289=CIRCLE('',#395,2.05);
#290=CIRCLE('',#396,0.630000000000006);
#291=CIRCLE('',#397,2.05);
#292=CIRCLE('',#398,0.630000000000006);
#293=CIRCLE('',#399,2.05);
#294=CIRCLE('',#400,0.630000000000006);
#295=CIRCLE('',#401,2.05);
#296=EDGE_LOOP('',(#94));
#297=EDGE_LOOP('',(#95));
#298=EDGE_LOOP('',(#96,#97,#98,#99,#100,#101,#102,#103,#104,#105,#106,#107,
#108,#109,#110,#111));
#299=EDGE_LOOP('',(#112));
#300=EDGE_LOOP('',(#113,#114,#115,#116,#117,#118,#119,#120,#121,#122,#123,
#124,#125,#126,#127,#128));
#301=EDGE_LOOP('',(#129));
#302=EDGE_LOOP('',(#130,#131,#132,#133));
#303=EDGE_LOOP('',(#134,#135,#136,#137));
#304=EDGE_LOOP('',(#138,#139,#140,#141));
#305=EDGE_LOOP('',(#142,#143,#144,#145));
#306=EDGE_LOOP('',(#146,#147,#148,#149));
#307=EDGE_LOOP('',(#150,#151,#152,#153));
#308=EDGE_LOOP('',(#154,#155,#156,#157));
#309=EDGE_LOOP('',(#158,#159,#160,#161));
#310=EDGE_LOOP('',(#162,#163,#164,#165));
#311=EDGE_LOOP('',(#166,#167,#168,#169));
#312=EDGE_LOOP('',(#170,#171,#172,#173));
#313=EDGE_LOOP('',(#174,#175,#176,#177));
#314=EDGE_LOOP('',(#178,#179,#180,#181));
#315=EDGE_LOOP('',(#182,#183,#184,#185));
#316=EDGE_LOOP('',(#186,#187,#188,#189));
#317=EDGE_LOOP('',(#190,#191,#192,#193));
#318=FACE_BOUND('',#296,.T.);
#319=FACE_BOUND('',#297,.T.);
#320=FACE_BOUND('',#298,.T.);
#321=FACE_BOUND('',#299,.T.);
#322=FACE_BOUND('',#300,.T.);
#323=FACE_BOUND('',#301,.T.);
#324=FACE_BOUND('',#302,.T.);
#325=FACE_BOUND('',#303,.T.);
#326=FACE_BOUND('',#304,.T.);
#327=FACE_BOUND('',#305,.T.);
#328=FACE_BOUND('',#306,.T.);
#329=FACE_BOUND('',#307,.T.);
#330=FACE_BOUND('',#308,.T.);
#331=FACE_BOUND('',#309,.T.);
#332=FACE_BOUND('',#310,.T.);
#333=FACE_BOUND('',#311,.T.);
#334=FACE_BOUND('',#312,.T.);
#335=FACE_BOUND('',#313,.T.);
#336=FACE_BOUND('',#314,.T.);
#337=FACE_BOUND('',#315,.T.);
#338=FACE_BOUND('',#316,.T.);
#339=FACE_BOUND('',#317,.T.);
#340=CYLINDRICAL_SURFACE('',#381,5.);
#341=CYLINDRICAL_SURFACE('',#403,0.630000000000006);
#342=CYLINDRICAL_SURFACE('',#405,2.05);
#343=CYLINDRICAL_SURFACE('',#407,0.630000000000006);
#344=CYLINDRICAL_SURFACE('',#409,2.05);
#345=CYLINDRICAL_SURFACE('',#411,0.630000000000006);
#346=CYLINDRICAL_SURFACE('',#413,2.05);
#347=CYLINDRICAL_SURFACE('',#415,0.630000000000006);
#348=CYLINDRICAL_SURFACE('',#417,2.05);
#349=ADVANCED_FACE('',(#318,#319),#340,.T.);
#350=ADVANCED_FACE('',(#320,#321),#84,.F.);
#351=ADVANCED_FACE('',(#322,#323),#85,.T.);
#352=ADVANCED_FACE('',(#324),#86,.T.);
#353=ADVANCED_FACE('',(#325),#341,.F.);
#354=ADVANCED_FACE('',(#326),#87,.T.);
#355=ADVANCED_FACE('',(#327),#342,.F.);
#356=ADVANCED_FACE('',(#328),#88,.T.);
#357=ADVANCED_FACE('',(#329),#343,.F.);
#358=ADVANCED_FACE('',(#330),#89,.T.);
#359=ADVANCED_FACE('',(#331),#344,.F.);
#360=ADVANCED_FACE('',(#332),#90,.T.);
#361=ADVANCED_FACE('',(#333),#345,.F.);
#362=ADVANCED_FACE('',(#334),#91,.T.);
#363=ADVANCED_FACE('',(#335),#346,.F.);
#364=ADVANCED_FACE('',(#336),#92,.T.);
#365=ADVANCED_FACE('',(#337),#347,.F.);
#366=ADVANCED_FACE('',(#338),#93,.T.);
#367=ADVANCED_FACE('',(#339),#348,.F.);
#368=CLOSED_SHELL('',(#349,#350,#351,#352,#353,#354,#355,#356,#357,#358,
#359,#360,#361,#362,#363,#364,#365,#366,#367));
#369=STYLED_ITEM('',(#370),#377);
#370=PRESENTATION_STYLE_ASSIGNMENT((#371));
#371=SURFACE_STYLE_USAGE(.BOTH.,#372);
#372=SURFACE_SIDE_STYLE('',(#373));
#373=SURFACE_STYLE_FILL_AREA(#374);
#374=FILL_AREA_STYLE('',(#375));
#375=FILL_AREA_STYLE_COLOUR('',#376);
#376=COLOUR_RGB('',0.0549019612371922,0.0549019612371922,0.062745101749897);
#377=MANIFOLD_SOLID_BREP('093169SW',#368);
#378=SHAPE_DEFINITION_REPRESENTATION(#636,#379);
#379=SHAPE_REPRESENTATION('093169SW',(#380),#631);
#380=AXIS2_PLACEMENT_3D('',#526,#418,#419);
#381=AXIS2_PLACEMENT_3D('',#527,#420,#421);
#382=AXIS2_PLACEMENT_3D('',#528,#422,#423);
#383=AXIS2_PLACEMENT_3D('',#530,#424,#425);
#384=AXIS2_PLACEMENT_3D('',#532,#426,#427);
#385=AXIS2_PLACEMENT_3D('',#536,#429,#430);
#386=AXIS2_PLACEMENT_3D('',#540,#432,#433);
#387=AXIS2_PLACEMENT_3D('',#544,#435,#436);
#388=AXIS2_PLACEMENT_3D('',#548,#438,#439);
#389=AXIS2_PLACEMENT_3D('',#552,#441,#442);
#390=AXIS2_PLACEMENT_3D('',#556,#444,#445);
#391=AXIS2_PLACEMENT_3D('',#560,#447,#448);
#392=AXIS2_PLACEMENT_3D('',#564,#450,#451);
#393=AXIS2_PLACEMENT_3D('',#565,#452,#453);
#394=AXIS2_PLACEMENT_3D('',#566,#454,#455);
#395=AXIS2_PLACEMENT_3D('',#571,#457,#458);
#396=AXIS2_PLACEMENT_3D('',#575,#460,#461);
#397=AXIS2_PLACEMENT_3D('',#579,#463,#464);
#398=AXIS2_PLACEMENT_3D('',#583,#466,#467);
#399=AXIS2_PLACEMENT_3D('',#587,#469,#470);
#400=AXIS2_PLACEMENT_3D('',#591,#472,#473);
#401=AXIS2_PLACEMENT_3D('',#595,#475,#476);
#402=AXIS2_PLACEMENT_3D('',#598,#478,#479);
#403=AXIS2_PLACEMENT_3D('',#601,#482,#483);
#404=AXIS2_PLACEMENT_3D('',#603,#485,#486);
#405=AXIS2_PLACEMENT_3D('',#605,#488,#489);
#406=AXIS2_PLACEMENT_3D('',#607,#491,#492);
#407=AXIS2_PLACEMENT_3D('',#609,#494,#495);
#408=AXIS2_PLACEMENT_3D('',#611,#497,#498);
#409=AXIS2_PLACEMENT_3D('',#613,#500,#501);
#410=AXIS2_PLACEMENT_3D('',#615,#503,#504);
#411=AXIS2_PLACEMENT_3D('',#617,#506,#507);
#412=AXIS2_PLACEMENT_3D('',#619,#509,#510);
#413=AXIS2_PLACEMENT_3D('',#621,#512,#513);
#414=AXIS2_PLACEMENT_3D('',#623,#515,#516);
#415=AXIS2_PLACEMENT_3D('',#625,#518,#519);
#416=AXIS2_PLACEMENT_3D('',#627,#521,#522);
#417=AXIS2_PLACEMENT_3D('',#629,#524,#525);
#418=DIRECTION('',(0.,0.,1.));
#419=DIRECTION('',(1.,0.,0.));
#420=DIRECTION('',(0.,0.,1.));
#421=DIRECTION('',(1.,0.,0.));
#422=DIRECTION('',(0.,0.,1.));
#423=DIRECTION('',(1.,0.,0.));
#424=DIRECTION('',(0.,0.,1.));
#425=DIRECTION('',(1.,0.,0.));
#426=DIRECTION('',(0.,0.,1.));
#427=DIRECTION('',(1.,0.,0.));
#428=DIRECTION('',(0.707106781186578,0.707106781186517,0.));
#429=DIRECTION('',(0.,0.,1.));
#430=DIRECTION('',(1.,0.,0.));
#431=DIRECTION('',(-0.70710678118654,-0.707106781186556,0.));
#432=DIRECTION('',(0.,0.,1.));
#433=DIRECTION('',(1.,0.,0.));
#434=DIRECTION('',(-0.707106781186517,0.707106781186578,0.));
#435=DIRECTION('',(0.,0.,1.));
#436=DIRECTION('',(1.,0.,0.));
#437=DIRECTION('',(0.707106781186556,-0.70710678118654,0.));
#438=DIRECTION('',(0.,0.,1.));
#439=DIRECTION('',(1.,0.,0.));
#440=DIRECTION('',(-0.707106781186578,-0.707106781186517,0.));
#441=DIRECTION('',(0.,0.,1.));
#442=DIRECTION('',(1.,0.,0.));
#443=DIRECTION('',(0.707106781186539,0.707106781186557,0.));
#444=DIRECTION('',(0.,0.,1.));
#445=DIRECTION('',(1.,0.,0.));
#446=DIRECTION('',(0.707106781186517,-0.707106781186578,0.));
#447=DIRECTION('',(0.,0.,1.));
#448=DIRECTION('',(1.,0.,0.));
#449=DIRECTION('',(-0.707106781186556,0.707106781186539,0.));
#450=DIRECTION('',(0.,0.,1.));
#451=DIRECTION('',(1.,0.,0.));
#452=DIRECTION('',(0.,0.,1.));
#453=DIRECTION('',(1.,0.,0.));
#454=DIRECTION('',(0.,0.,1.));
#455=DIRECTION('',(1.,0.,0.));
#456=DIRECTION('',(0.707106781186578,0.707106781186517,0.));
#457=DIRECTION('',(0.,0.,1.));
#458=DIRECTION('',(1.,0.,0.));
#459=DIRECTION('',(-0.707106781186556,0.707106781186539,0.));
#460=DIRECTION('',(0.,0.,1.));
#461=DIRECTION('',(1.,0.,0.));
#462=DIRECTION('',(0.707106781186517,-0.707106781186578,0.));
#463=DIRECTION('',(0.,0.,1.));
#464=DIRECTION('',(1.,0.,0.));
#465=DIRECTION('',(0.707106781186539,0.707106781186557,0.));
#466=DIRECTION('',(0.,0.,1.));
#467=DIRECTION('',(1.,0.,0.));
#468=DIRECTION('',(-0.707106781186578,-0.707106781186517,0.));
#469=DIRECTION('',(0.,0.,1.));
#470=DIRECTION('',(1.,0.,0.));
#471=DIRECTION('',(0.707106781186556,-0.70710678118654,0.));
#472=DIRECTION('',(0.,0.,1.));
#473=DIRECTION('',(1.,0.,0.));
#474=DIRECTION('',(-0.707106781186517,0.707106781186578,0.));
#475=DIRECTION('',(0.,0.,1.));
#476=DIRECTION('',(1.,0.,0.));
#477=DIRECTION('',(-0.70710678118654,-0.707106781186556,0.));
#478=DIRECTION('',(0.707106781186517,-0.707106781186578,0.));
#479=DIRECTION('',(0.707106781186578,0.707106781186517,0.));
#480=DIRECTION('',(0.,0.,-1.));
#481=DIRECTION('',(0.,0.,-1.));
#482=DIRECTION('',(0.,0.,-1.));
#483=DIRECTION('',(-1.,0.,0.));
#484=DIRECTION('',(0.,0.,-1.));
#485=DIRECTION('',(-0.707106781186556,0.70710678118654,0.));
#486=DIRECTION('',(-0.70710678118654,-0.707106781186556,0.));
#487=DIRECTION('',(0.,0.,-1.));
#488=DIRECTION('',(0.,0.,-1.));
#489=DIRECTION('',(-1.,0.,0.));
#490=DIRECTION('',(0.,0.,-1.));
#491=DIRECTION('',(0.707106781186578,0.707106781186517,0.));
#492=DIRECTION('',(-0.707106781186517,0.707106781186578,0.));
#493=DIRECTION('',(0.,0.,-1.));
#494=DIRECTION('',(0.,0.,-1.));
#495=DIRECTION('',(-1.,0.,0.));
#496=DIRECTION('',(0.,0.,-1.));
#497=DIRECTION('',(-0.70710678118654,-0.707106781186556,0.));
#498=DIRECTION('',(0.707106781186556,-0.70710678118654,0.));
#499=DIRECTION('',(0.,0.,-1.));
#500=DIRECTION('',(0.,0.,-1.));
#501=DIRECTION('',(-1.,0.,0.));
#502=DIRECTION('',(0.,0.,-1.));
#503=DIRECTION('',(-0.707106781186517,0.707106781186578,0.));
#504=DIRECTION('',(-0.707106781186578,-0.707106781186517,0.));
#505=DIRECTION('',(0.,0.,-1.));
#506=DIRECTION('',(0.,0.,-1.));
#507=DIRECTION('',(-1.,0.,0.));
#508=DIRECTION('',(0.,0.,-1.));
#509=DIRECTION('',(0.707106781186557,-0.707106781186539,0.));
#510=DIRECTION('',(0.707106781186539,0.707106781186557,0.));
#511=DIRECTION('',(0.,0.,-1.));
#512=DIRECTION('',(0.,0.,-1.));
#513=DIRECTION('',(-1.,0.,0.));
#514=DIRECTION('',(0.,0.,-1.));
#515=DIRECTION('',(-0.707106781186578,-0.707106781186517,0.));
#516=DIRECTION('',(0.707106781186517,-0.707106781186578,0.));
#517=DIRECTION('',(0.,0.,-1.));
#518=DIRECTION('',(0.,0.,-1.));
#519=DIRECTION('',(-1.,0.,0.));
#520=DIRECTION('',(0.,0.,-1.));
#521=DIRECTION('',(0.707106781186539,0.707106781186556,0.));
#522=DIRECTION('',(-0.707106781186556,0.707106781186539,0.));
#523=DIRECTION('',(0.,0.,-1.));
#524=DIRECTION('',(0.,0.,-1.));
#525=DIRECTION('',(-1.,0.,0.));
#526=CARTESIAN_POINT('',(0.,0.,0.));
#527=CARTESIAN_POINT('',(0.,0.,-0.5));
#528=CARTESIAN_POINT('',(0.,0.,-0.5));
#529=CARTESIAN_POINT('',(5.,0.,-0.5));
#530=CARTESIAN_POINT('',(0.,0.,0.));
#531=CARTESIAN_POINT('',(5.,0.,0.));
#532=CARTESIAN_POINT('',(0.,0.,-0.5));
#533=CARTESIAN_POINT('',(-0.445477272147447,0.445477272147485,-0.5));
#534=CARTESIAN_POINT('',(-1.98343452122825,-1.09247997693319,-0.5));
#535=CARTESIAN_POINT('',(-1.82489744018916,-0.933942895894104,-0.5));
#536=CARTESIAN_POINT('',(-1.53795724908074,-1.53795724908073,-0.5));
#537=CARTESIAN_POINT('',(-1.09247997693321,-1.98343452122826,-0.5));
#538=CARTESIAN_POINT('',(0.445477272147514,-0.445477272147504,-0.5));
#539=CARTESIAN_POINT('',(-0.933942895894106,-1.82489744018916,-0.5));
#540=CARTESIAN_POINT('',(-2.16840434497101E-16,3.03576608295941E-15,-0.5));
#541=CARTESIAN_POINT('',(0.933942895894105,-1.82489744018916,-0.5));
#542=CARTESIAN_POINT('',(-0.445477272147485,-0.445477272147447,-0.5));
#543=CARTESIAN_POINT('',(1.09247997693319,-1.98343452122825,-0.5));
#544=CARTESIAN_POINT('',(1.53795724908073,-1.53795724908074,-0.5));
#545=CARTESIAN_POINT('',(1.98343452122826,-1.09247997693321,-0.5));
#546=CARTESIAN_POINT('',(0.445477272147504,0.445477272147514,-0.5));
#547=CARTESIAN_POINT('',(1.82489744018916,-0.933942895894106,-0.5));
#548=CARTESIAN_POINT('',(-1.51788304147971E-15,-5.42101086242752E-16,-0.5));
#549=CARTESIAN_POINT('',(1.82489744018915,0.933942895894106,-0.5));
#550=CARTESIAN_POINT('',(0.445477272147447,-0.445477272147485,-0.5));
#551=CARTESIAN_POINT('',(1.98343452122825,1.09247997693319,-0.5));
#552=CARTESIAN_POINT('',(1.53795724908074,1.53795724908073,-0.5));
#553=CARTESIAN_POINT('',(1.09247997693321,1.98343452122826,-0.5));
#554=CARTESIAN_POINT('',(-0.445477272147513,0.445477272147502,-0.5));
#555=CARTESIAN_POINT('',(0.933942895894105,1.82489744018915,-0.5));
#556=CARTESIAN_POINT('',(3.25260651745651E-16,-6.50521303491303E-16,-0.5));
#557=CARTESIAN_POINT('',(-0.933942895894105,1.82489744018916,-0.5));
#558=CARTESIAN_POINT('',(0.445477272147485,0.445477272147447,-0.5));
#559=CARTESIAN_POINT('',(-1.09247997693319,1.98343452122825,-0.5));
#560=CARTESIAN_POINT('',(-1.53795724908073,1.53795724908074,-0.5));
#561=CARTESIAN_POINT('',(-1.98343452122826,1.09247997693321,-0.5));
#562=CARTESIAN_POINT('',(-0.445477272147503,-0.445477272147514,-0.5));
#563=CARTESIAN_POINT('',(-1.82489744018916,0.933942895894105,-0.5));
#564=CARTESIAN_POINT('',(2.16840434497101E-15,1.62630325872826E-16,-0.5));
#565=CARTESIAN_POINT('',(0.,0.,0.));
#566=CARTESIAN_POINT('',(-1.53795724908074,-1.53795724908073,0.));
#567=CARTESIAN_POINT('',(-1.09247997693321,-1.98343452122826,0.));
#568=CARTESIAN_POINT('',(-1.98343452122825,-1.09247997693319,0.));
#569=CARTESIAN_POINT('',(-0.445477272147447,0.445477272147485,0.));
#570=CARTESIAN_POINT('',(-1.82489744018916,-0.933942895894104,0.));
#571=CARTESIAN_POINT('',(2.16840434497101E-15,1.62630325872826E-16,0.));
#572=CARTESIAN_POINT('',(-1.82489744018916,0.933942895894106,0.));
#573=CARTESIAN_POINT('',(-0.445477272147503,-0.445477272147514,0.));
#574=CARTESIAN_POINT('',(-1.98343452122826,1.09247997693321,0.));
#575=CARTESIAN_POINT('',(-1.53795724908073,1.53795724908074,0.));
#576=CARTESIAN_POINT('',(-1.09247997693319,1.98343452122825,0.));
#577=CARTESIAN_POINT('',(0.445477272147485,0.445477272147447,0.));
#578=CARTESIAN_POINT('',(-0.933942895894105,1.82489744018916,0.));
#579=CARTESIAN_POINT('',(3.25260651745651E-16,-6.50521303491303E-16,0.));
#580=CARTESIAN_POINT('',(0.933942895894105,1.82489744018915,0.));
#581=CARTESIAN_POINT('',(-0.445477272147513,0.445477272147502,0.));
#582=CARTESIAN_POINT('',(1.09247997693321,1.98343452122826,0.));
#583=CARTESIAN_POINT('',(1.53795724908074,1.53795724908073,0.));
#584=CARTESIAN_POINT('',(1.98343452122825,1.09247997693319,0.));
#585=CARTESIAN_POINT('',(0.445477272147447,-0.445477272147485,0.));
#586=CARTESIAN_POINT('',(1.82489744018915,0.933942895894106,0.));
#587=CARTESIAN_POINT('',(-1.51788304147971E-15,-5.42101086242752E-16,0.));
#588=CARTESIAN_POINT('',(1.82489744018916,-0.933942895894106,0.));
#589=CARTESIAN_POINT('',(0.445477272147504,0.445477272147514,0.));
#590=CARTESIAN_POINT('',(1.98343452122826,-1.09247997693321,0.));
#591=CARTESIAN_POINT('',(1.53795724908073,-1.53795724908074,0.));
#592=CARTESIAN_POINT('',(1.09247997693319,-1.98343452122825,0.));
#593=CARTESIAN_POINT('',(-0.445477272147485,-0.445477272147447,0.));
#594=CARTESIAN_POINT('',(0.933942895894105,-1.82489744018916,0.));
#595=CARTESIAN_POINT('',(-2.16840434497101E-16,3.03576608295941E-15,0.));
#596=CARTESIAN_POINT('',(-0.933942895894106,-1.82489744018916,0.));
#597=CARTESIAN_POINT('',(0.445477272147514,-0.445477272147504,0.));
#598=CARTESIAN_POINT('',(-1.82489744018916,-0.933942895894105,1.));
#599=CARTESIAN_POINT('',(-1.82489744018916,-0.933942895894104,1.));
#600=CARTESIAN_POINT('',(-1.98343452122825,-1.09247997693319,1.));
#601=CARTESIAN_POINT('',(-1.53795724908074,-1.53795724908073,1.));
#602=CARTESIAN_POINT('',(-1.09247997693321,-1.98343452122826,1.));
#603=CARTESIAN_POINT('',(-1.09247997693321,-1.98343452122826,1.));
#604=CARTESIAN_POINT('',(-0.933942895894106,-1.82489744018916,1.));
#605=CARTESIAN_POINT('',(-2.16840434497101E-16,3.03576608295941E-15,1.));
#606=CARTESIAN_POINT('',(0.933942895894105,-1.82489744018916,1.));
#607=CARTESIAN_POINT('',(0.933942895894105,-1.82489744018916,1.));
#608=CARTESIAN_POINT('',(1.09247997693319,-1.98343452122825,1.));
#609=CARTESIAN_POINT('',(1.53795724908073,-1.53795724908074,1.));
#610=CARTESIAN_POINT('',(1.98343452122826,-1.09247997693321,1.));
#611=CARTESIAN_POINT('',(1.98343452122826,-1.09247997693321,1.));
#612=CARTESIAN_POINT('',(1.82489744018916,-0.933942895894106,1.));
#613=CARTESIAN_POINT('',(-1.51788304147971E-15,-5.42101086242752E-16,1.));
#614=CARTESIAN_POINT('',(1.82489744018915,0.933942895894106,1.));
#615=CARTESIAN_POINT('',(1.82489744018916,0.933942895894105,1.));
#616=CARTESIAN_POINT('',(1.98343452122825,1.09247997693319,1.));
#617=CARTESIAN_POINT('',(1.53795724908074,1.53795724908073,1.));
#618=CARTESIAN_POINT('',(1.09247997693321,1.98343452122826,1.));
#619=CARTESIAN_POINT('',(1.09247997693321,1.98343452122826,1.));
#620=CARTESIAN_POINT('',(0.933942895894105,1.82489744018915,1.));
#621=CARTESIAN_POINT('',(3.25260651745651E-16,-6.50521303491303E-16,1.));
#622=CARTESIAN_POINT('',(-0.933942895894105,1.82489744018916,1.));
#623=CARTESIAN_POINT('',(-0.933942895894105,1.82489744018915,1.));
#624=CARTESIAN_POINT('',(-1.09247997693319,1.98343452122825,1.));
#625=CARTESIAN_POINT('',(-1.53795724908073,1.53795724908074,1.));
#626=CARTESIAN_POINT('',(-1.98343452122826,1.09247997693321,1.));
#627=CARTESIAN_POINT('',(-1.98343452122826,1.09247997693321,1.));
#628=CARTESIAN_POINT('',(-1.82489744018916,0.933942895894105,1.));
#629=CARTESIAN_POINT('',(2.16840434497101E-15,1.62630325872826E-16,1.));
#630=MECHANICAL_DESIGN_GEOMETRIC_PRESENTATION_REPRESENTATION('',(#369),
#631);
#631=(
GEOMETRIC_REPRESENTATION_CONTEXT(3)
GLOBAL_UNCERTAINTY_ASSIGNED_CONTEXT((#632))
GLOBAL_UNIT_ASSIGNED_CONTEXT((#635,#634,#633))
REPRESENTATION_CONTEXT('093169SW','TOP_LEVEL_ASSEMBLY_PART')
);
#632=UNCERTAINTY_MEASURE_WITH_UNIT(LENGTH_MEASURE(0.005),#635,
'DISTANCE_ACCURACY_VALUE','Maximum Tolerance applied to model');
#633=(
NAMED_UNIT(*)
SI_UNIT($,.STERADIAN.)
SOLID_ANGLE_UNIT()
);
#634=(
NAMED_UNIT(*)
PLANE_ANGLE_UNIT()
SI_UNIT($,.RADIAN.)
);
#635=(
LENGTH_UNIT()
NAMED_UNIT(*)
SI_UNIT(.MILLI.,.METRE.)
);
#636=PRODUCT_DEFINITION_SHAPE('','',#637);
#637=PRODUCT_DEFINITION('','',#639,#638);
#638=PRODUCT_DEFINITION_CONTEXT('',#645,'design');
#639=PRODUCT_DEFINITION_FORMATION_WITH_SPECIFIED_SOURCE('','',#641,
 .NOT_KNOWN.);
#640=PRODUCT_RELATED_PRODUCT_CATEGORY('','',(#641));
#641=PRODUCT('093169SW','093169SW','093169SW',(#643));
#642=PRODUCT_CATEGORY('','');
#643=PRODUCT_CONTEXT('',#645,'mechanical');
#644=APPLICATION_PROTOCOL_DEFINITION('international standard',
'automotive_design',2010,#645);
#645=APPLICATION_CONTEXT(
'core data for automotive mechanical design processes');
ENDSEC;
END-ISO-10303-21;
