ISO-10303-21;
HEADER;
/* Generated by software containing ST-Developer
 * from STEP Tools, Inc. (www.steptools.com) 
 */

FILE_DESCRIPTION(
/* description */ ('STEP AP214'),
/* implementation_level */ '2;1');

FILE_NAME(
/* name */ 
'C:\\Users\\b.steehouwer\\Desktop\\Producten\\ISB profielsysteem\\CAD-
files\\Afdekmaterialen\\Afdekprofielen\\1025063.stp',
/* time_stamp */ '2024-05-21T16:11:51+02:00',
/* author */ ('b.steehouwer'),
/* organization */ (''),
/* preprocessor_version */ 'ST-DEVELOPER v18.1',
/* originating_system */ 'Autodesk Inventor 2021',
/* authorisation */ '');

FILE_SCHEMA (('AUTOMOTIVE_DESIGN { 1 0 10303 214 3 1 1 }'));
ENDSEC;

DATA;
#10=MECHANICAL_DESIGN_GEOMETRIC_PRESENTATION_REPRESENTATION('',(#13),#671);
#11=SHAPE_REPRESENTATION_RELATIONSHIP('SRR','None',#678,#12);
#12=ADVANCED_BREP_SHAPE_REPRESENTATION('',(#14),#670);
#13=STYLED_ITEM('',(#687),#14);
#14=MANIFOLD_SOLID_BREP('Solid1',#381);
#15=PLANE('',#413);
#16=PLANE('',#414);
#17=PLANE('',#415);
#18=PLANE('',#422);
#19=PLANE('',#426);
#20=PLANE('',#430);
#21=PLANE('',#431);
#22=PLANE('',#438);
#23=PLANE('',#439);
#24=PLANE('',#440);
#25=FACE_OUTER_BOUND('',#45,.T.);
#26=FACE_OUTER_BOUND('',#46,.T.);
#27=FACE_OUTER_BOUND('',#47,.T.);
#28=FACE_OUTER_BOUND('',#48,.T.);
#29=FACE_OUTER_BOUND('',#49,.T.);
#30=FACE_OUTER_BOUND('',#50,.T.);
#31=FACE_OUTER_BOUND('',#51,.T.);
#32=FACE_OUTER_BOUND('',#52,.T.);
#33=FACE_OUTER_BOUND('',#53,.T.);
#34=FACE_OUTER_BOUND('',#54,.T.);
#35=FACE_OUTER_BOUND('',#55,.T.);
#36=FACE_OUTER_BOUND('',#56,.T.);
#37=FACE_OUTER_BOUND('',#57,.T.);
#38=FACE_OUTER_BOUND('',#58,.T.);
#39=FACE_OUTER_BOUND('',#59,.T.);
#40=FACE_OUTER_BOUND('',#60,.T.);
#41=FACE_OUTER_BOUND('',#61,.T.);
#42=FACE_OUTER_BOUND('',#62,.T.);
#43=FACE_OUTER_BOUND('',#63,.T.);
#44=FACE_OUTER_BOUND('',#64,.T.);
#45=EDGE_LOOP('',(#243,#244,#245,#246));
#46=EDGE_LOOP('',(#247,#248,#249,#250));
#47=EDGE_LOOP('',(#251,#252,#253,#254));
#48=EDGE_LOOP('',(#255,#256,#257,#258));
#49=EDGE_LOOP('',(#259,#260,#261,#262));
#50=EDGE_LOOP('',(#263,#264,#265,#266));
#51=EDGE_LOOP('',(#267,#268,#269,#270));
#52=EDGE_LOOP('',(#271,#272,#273,#274));
#53=EDGE_LOOP('',(#275,#276,#277,#278));
#54=EDGE_LOOP('',(#279,#280,#281,#282));
#55=EDGE_LOOP('',(#283,#284,#285,#286));
#56=EDGE_LOOP('',(#287,#288,#289,#290));
#57=EDGE_LOOP('',(#291,#292,#293,#294));
#58=EDGE_LOOP('',(#295,#296,#297,#298));
#59=EDGE_LOOP('',(#299,#300,#301,#302));
#60=EDGE_LOOP('',(#303,#304,#305,#306));
#61=EDGE_LOOP('',(#307,#308,#309,#310));
#62=EDGE_LOOP('',(#311,#312,#313,#314));
#63=EDGE_LOOP('',(#315,#316,#317,#318,#319,#320,#321,#322,#323,#324,#325,
#326,#327,#328,#329,#330,#331,#332));
#64=EDGE_LOOP('',(#333,#334,#335,#336,#337,#338,#339,#340,#341,#342,#343,
#344,#345,#346,#347,#348,#349,#350));
#65=LINE('',#563,#99);
#66=LINE('',#566,#100);
#67=LINE('',#572,#101);
#68=LINE('',#575,#102);
#69=LINE('',#581,#103);
#70=LINE('',#584,#104);
#71=LINE('',#589,#105);
#72=LINE('',#593,#106);
#73=LINE('',#595,#107);
#74=LINE('',#596,#108);
#75=LINE('',#599,#109);
#76=LINE('',#601,#110);
#77=LINE('',#602,#111);
#78=LINE('',#605,#112);
#79=LINE('',#607,#113);
#80=LINE('',#608,#114);
#81=LINE('',#613,#115);
#82=LINE('',#619,#116);
#83=LINE('',#623,#117);
#84=LINE('',#625,#118);
#85=LINE('',#626,#119);
#86=LINE('',#632,#120);
#87=LINE('',#634,#121);
#88=LINE('',#635,#122);
#89=LINE('',#640,#123);
#90=LINE('',#643,#124);
#91=LINE('',#644,#125);
#92=LINE('',#647,#126);
#93=LINE('',#649,#127);
#94=LINE('',#650,#128);
#95=LINE('',#655,#129);
#96=LINE('',#661,#130);
#97=LINE('',#664,#131);
#98=LINE('',#665,#132);
#99=VECTOR('',#447,1000.);
#100=VECTOR('',#450,1000.);
#101=VECTOR('',#455,1000.);
#102=VECTOR('',#458,1000.);
#103=VECTOR('',#463,1000.);
#104=VECTOR('',#466,1000.);
#105=VECTOR('',#471,1000.);
#106=VECTOR('',#476,1000.);
#107=VECTOR('',#477,1000.);
#108=VECTOR('',#478,1000.);
#109=VECTOR('',#481,1000.);
#110=VECTOR('',#482,1000.);
#111=VECTOR('',#483,1000.);
#112=VECTOR('',#486,1000.);
#113=VECTOR('',#487,1000.);
#114=VECTOR('',#488,1000.);
#115=VECTOR('',#493,1000.);
#116=VECTOR('',#500,1000.);
#117=VECTOR('',#505,1000.);
#118=VECTOR('',#506,1000.);
#119=VECTOR('',#507,1000.);
#120=VECTOR('',#516,1000.);
#121=VECTOR('',#517,1000.);
#122=VECTOR('',#518,1000.);
#123=VECTOR('',#523,1000.);
#124=VECTOR('',#528,1000.);
#125=VECTOR('',#529,1000.);
#126=VECTOR('',#532,1000.);
#127=VECTOR('',#533,1000.);
#128=VECTOR('',#534,1000.);
#129=VECTOR('',#539,1000.);
#130=VECTOR('',#546,1000.);
#131=VECTOR('',#551,1000.);
#132=VECTOR('',#552,1000.);
#133=CIRCLE('',#402,0.7);
#134=CIRCLE('',#403,0.7);
#135=CIRCLE('',#405,0.25);
#136=CIRCLE('',#406,0.25);
#137=CIRCLE('',#408,0.5);
#138=CIRCLE('',#409,0.5);
#139=CIRCLE('',#411,0.249999999999999);
#140=CIRCLE('',#412,0.249999999999999);
#141=CIRCLE('',#417,0.249999999999999);
#142=CIRCLE('',#418,0.249999999999999);
#143=CIRCLE('',#420,0.7);
#144=CIRCLE('',#421,0.7);
#145=CIRCLE('',#424,0.25);
#146=CIRCLE('',#425,0.25);
#147=CIRCLE('',#428,0.249999999999999);
#148=CIRCLE('',#429,0.249999999999999);
#149=CIRCLE('',#433,0.5);
#150=CIRCLE('',#434,0.5);
#151=CIRCLE('',#436,0.25);
#152=CIRCLE('',#437,0.25);
#153=VERTEX_POINT('',#559);
#154=VERTEX_POINT('',#560);
#155=VERTEX_POINT('',#562);
#156=VERTEX_POINT('',#564);
#157=VERTEX_POINT('',#568);
#158=VERTEX_POINT('',#569);
#159=VERTEX_POINT('',#571);
#160=VERTEX_POINT('',#573);
#161=VERTEX_POINT('',#577);
#162=VERTEX_POINT('',#578);
#163=VERTEX_POINT('',#580);
#164=VERTEX_POINT('',#582);
#165=VERTEX_POINT('',#586);
#166=VERTEX_POINT('',#588);
#167=VERTEX_POINT('',#592);
#168=VERTEX_POINT('',#594);
#169=VERTEX_POINT('',#598);
#170=VERTEX_POINT('',#600);
#171=VERTEX_POINT('',#604);
#172=VERTEX_POINT('',#606);
#173=VERTEX_POINT('',#610);
#174=VERTEX_POINT('',#612);
#175=VERTEX_POINT('',#616);
#176=VERTEX_POINT('',#618);
#177=VERTEX_POINT('',#622);
#178=VERTEX_POINT('',#624);
#179=VERTEX_POINT('',#631);
#180=VERTEX_POINT('',#633);
#181=VERTEX_POINT('',#637);
#182=VERTEX_POINT('',#639);
#183=VERTEX_POINT('',#646);
#184=VERTEX_POINT('',#648);
#185=VERTEX_POINT('',#652);
#186=VERTEX_POINT('',#654);
#187=VERTEX_POINT('',#658);
#188=VERTEX_POINT('',#660);
#189=EDGE_CURVE('',#153,#154,#133,.T.);
#190=EDGE_CURVE('',#153,#155,#65,.T.);
#191=EDGE_CURVE('',#155,#156,#134,.T.);
#192=EDGE_CURVE('',#154,#156,#66,.T.);
#193=EDGE_CURVE('',#157,#158,#135,.T.);
#194=EDGE_CURVE('',#157,#159,#67,.T.);
#195=EDGE_CURVE('',#159,#160,#136,.T.);
#196=EDGE_CURVE('',#158,#160,#68,.T.);
#197=EDGE_CURVE('',#161,#162,#137,.T.);
#198=EDGE_CURVE('',#161,#163,#69,.T.);
#199=EDGE_CURVE('',#163,#164,#138,.T.);
#200=EDGE_CURVE('',#162,#164,#70,.T.);
#201=EDGE_CURVE('',#156,#165,#139,.T.);
#202=EDGE_CURVE('',#166,#165,#71,.T.);
#203=EDGE_CURVE('',#154,#166,#140,.T.);
#204=EDGE_CURVE('',#165,#167,#72,.T.);
#205=EDGE_CURVE('',#168,#167,#73,.T.);
#206=EDGE_CURVE('',#166,#168,#74,.T.);
#207=EDGE_CURVE('',#167,#169,#75,.T.);
#208=EDGE_CURVE('',#170,#169,#76,.T.);
#209=EDGE_CURVE('',#168,#170,#77,.T.);
#210=EDGE_CURVE('',#169,#171,#78,.T.);
#211=EDGE_CURVE('',#172,#171,#79,.T.);
#212=EDGE_CURVE('',#170,#172,#80,.T.);
#213=EDGE_CURVE('',#171,#173,#141,.T.);
#214=EDGE_CURVE('',#174,#173,#81,.T.);
#215=EDGE_CURVE('',#172,#174,#142,.T.);
#216=EDGE_CURVE('',#173,#175,#143,.T.);
#217=EDGE_CURVE('',#176,#175,#82,.T.);
#218=EDGE_CURVE('',#174,#176,#144,.T.);
#219=EDGE_CURVE('',#175,#177,#83,.T.);
#220=EDGE_CURVE('',#178,#177,#84,.T.);
#221=EDGE_CURVE('',#176,#178,#85,.T.);
#222=EDGE_CURVE('',#177,#163,#145,.T.);
#223=EDGE_CURVE('',#178,#161,#146,.T.);
#224=EDGE_CURVE('',#164,#179,#86,.T.);
#225=EDGE_CURVE('',#180,#179,#87,.T.);
#226=EDGE_CURVE('',#162,#180,#88,.T.);
#227=EDGE_CURVE('',#179,#181,#147,.T.);
#228=EDGE_CURVE('',#182,#181,#89,.T.);
#229=EDGE_CURVE('',#180,#182,#148,.T.);
#230=EDGE_CURVE('',#181,#159,#90,.T.);
#231=EDGE_CURVE('',#182,#157,#91,.T.);
#232=EDGE_CURVE('',#160,#183,#92,.T.);
#233=EDGE_CURVE('',#184,#183,#93,.T.);
#234=EDGE_CURVE('',#158,#184,#94,.T.);
#235=EDGE_CURVE('',#183,#185,#149,.T.);
#236=EDGE_CURVE('',#186,#185,#95,.T.);
#237=EDGE_CURVE('',#184,#186,#150,.T.);
#238=EDGE_CURVE('',#185,#187,#151,.T.);
#239=EDGE_CURVE('',#188,#187,#96,.T.);
#240=EDGE_CURVE('',#186,#188,#152,.T.);
#241=EDGE_CURVE('',#187,#155,#97,.T.);
#242=EDGE_CURVE('',#188,#153,#98,.T.);
#243=ORIENTED_EDGE('',*,*,#189,.F.);
#244=ORIENTED_EDGE('',*,*,#190,.T.);
#245=ORIENTED_EDGE('',*,*,#191,.T.);
#246=ORIENTED_EDGE('',*,*,#192,.F.);
#247=ORIENTED_EDGE('',*,*,#193,.F.);
#248=ORIENTED_EDGE('',*,*,#194,.T.);
#249=ORIENTED_EDGE('',*,*,#195,.T.);
#250=ORIENTED_EDGE('',*,*,#196,.F.);
#251=ORIENTED_EDGE('',*,*,#197,.F.);
#252=ORIENTED_EDGE('',*,*,#198,.T.);
#253=ORIENTED_EDGE('',*,*,#199,.T.);
#254=ORIENTED_EDGE('',*,*,#200,.F.);
#255=ORIENTED_EDGE('',*,*,#201,.T.);
#256=ORIENTED_EDGE('',*,*,#202,.F.);
#257=ORIENTED_EDGE('',*,*,#203,.F.);
#258=ORIENTED_EDGE('',*,*,#192,.T.);
#259=ORIENTED_EDGE('',*,*,#204,.T.);
#260=ORIENTED_EDGE('',*,*,#205,.F.);
#261=ORIENTED_EDGE('',*,*,#206,.F.);
#262=ORIENTED_EDGE('',*,*,#202,.T.);
#263=ORIENTED_EDGE('',*,*,#207,.T.);
#264=ORIENTED_EDGE('',*,*,#208,.F.);
#265=ORIENTED_EDGE('',*,*,#209,.F.);
#266=ORIENTED_EDGE('',*,*,#205,.T.);
#267=ORIENTED_EDGE('',*,*,#210,.T.);
#268=ORIENTED_EDGE('',*,*,#211,.F.);
#269=ORIENTED_EDGE('',*,*,#212,.F.);
#270=ORIENTED_EDGE('',*,*,#208,.T.);
#271=ORIENTED_EDGE('',*,*,#213,.T.);
#272=ORIENTED_EDGE('',*,*,#214,.F.);
#273=ORIENTED_EDGE('',*,*,#215,.F.);
#274=ORIENTED_EDGE('',*,*,#211,.T.);
#275=ORIENTED_EDGE('',*,*,#216,.T.);
#276=ORIENTED_EDGE('',*,*,#217,.F.);
#277=ORIENTED_EDGE('',*,*,#218,.F.);
#278=ORIENTED_EDGE('',*,*,#214,.T.);
#279=ORIENTED_EDGE('',*,*,#219,.T.);
#280=ORIENTED_EDGE('',*,*,#220,.F.);
#281=ORIENTED_EDGE('',*,*,#221,.F.);
#282=ORIENTED_EDGE('',*,*,#217,.T.);
#283=ORIENTED_EDGE('',*,*,#222,.T.);
#284=ORIENTED_EDGE('',*,*,#198,.F.);
#285=ORIENTED_EDGE('',*,*,#223,.F.);
#286=ORIENTED_EDGE('',*,*,#220,.T.);
#287=ORIENTED_EDGE('',*,*,#224,.T.);
#288=ORIENTED_EDGE('',*,*,#225,.F.);
#289=ORIENTED_EDGE('',*,*,#226,.F.);
#290=ORIENTED_EDGE('',*,*,#200,.T.);
#291=ORIENTED_EDGE('',*,*,#227,.T.);
#292=ORIENTED_EDGE('',*,*,#228,.F.);
#293=ORIENTED_EDGE('',*,*,#229,.F.);
#294=ORIENTED_EDGE('',*,*,#225,.T.);
#295=ORIENTED_EDGE('',*,*,#230,.T.);
#296=ORIENTED_EDGE('',*,*,#194,.F.);
#297=ORIENTED_EDGE('',*,*,#231,.F.);
#298=ORIENTED_EDGE('',*,*,#228,.T.);
#299=ORIENTED_EDGE('',*,*,#232,.T.);
#300=ORIENTED_EDGE('',*,*,#233,.F.);
#301=ORIENTED_EDGE('',*,*,#234,.F.);
#302=ORIENTED_EDGE('',*,*,#196,.T.);
#303=ORIENTED_EDGE('',*,*,#235,.T.);
#304=ORIENTED_EDGE('',*,*,#236,.F.);
#305=ORIENTED_EDGE('',*,*,#237,.F.);
#306=ORIENTED_EDGE('',*,*,#233,.T.);
#307=ORIENTED_EDGE('',*,*,#238,.T.);
#308=ORIENTED_EDGE('',*,*,#239,.F.);
#309=ORIENTED_EDGE('',*,*,#240,.F.);
#310=ORIENTED_EDGE('',*,*,#236,.T.);
#311=ORIENTED_EDGE('',*,*,#241,.T.);
#312=ORIENTED_EDGE('',*,*,#190,.F.);
#313=ORIENTED_EDGE('',*,*,#242,.F.);
#314=ORIENTED_EDGE('',*,*,#239,.T.);
#315=ORIENTED_EDGE('',*,*,#203,.T.);
#316=ORIENTED_EDGE('',*,*,#206,.T.);
#317=ORIENTED_EDGE('',*,*,#209,.T.);
#318=ORIENTED_EDGE('',*,*,#212,.T.);
#319=ORIENTED_EDGE('',*,*,#215,.T.);
#320=ORIENTED_EDGE('',*,*,#218,.T.);
#321=ORIENTED_EDGE('',*,*,#221,.T.);
#322=ORIENTED_EDGE('',*,*,#223,.T.);
#323=ORIENTED_EDGE('',*,*,#197,.T.);
#324=ORIENTED_EDGE('',*,*,#226,.T.);
#325=ORIENTED_EDGE('',*,*,#229,.T.);
#326=ORIENTED_EDGE('',*,*,#231,.T.);
#327=ORIENTED_EDGE('',*,*,#193,.T.);
#328=ORIENTED_EDGE('',*,*,#234,.T.);
#329=ORIENTED_EDGE('',*,*,#237,.T.);
#330=ORIENTED_EDGE('',*,*,#240,.T.);
#331=ORIENTED_EDGE('',*,*,#242,.T.);
#332=ORIENTED_EDGE('',*,*,#189,.T.);
#333=ORIENTED_EDGE('',*,*,#201,.F.);
#334=ORIENTED_EDGE('',*,*,#191,.F.);
#335=ORIENTED_EDGE('',*,*,#241,.F.);
#336=ORIENTED_EDGE('',*,*,#238,.F.);
#337=ORIENTED_EDGE('',*,*,#235,.F.);
#338=ORIENTED_EDGE('',*,*,#232,.F.);
#339=ORIENTED_EDGE('',*,*,#195,.F.);
#340=ORIENTED_EDGE('',*,*,#230,.F.);
#341=ORIENTED_EDGE('',*,*,#227,.F.);
#342=ORIENTED_EDGE('',*,*,#224,.F.);
#343=ORIENTED_EDGE('',*,*,#199,.F.);
#344=ORIENTED_EDGE('',*,*,#222,.F.);
#345=ORIENTED_EDGE('',*,*,#219,.F.);
#346=ORIENTED_EDGE('',*,*,#216,.F.);
#347=ORIENTED_EDGE('',*,*,#213,.F.);
#348=ORIENTED_EDGE('',*,*,#210,.F.);
#349=ORIENTED_EDGE('',*,*,#207,.F.);
#350=ORIENTED_EDGE('',*,*,#204,.F.);
#351=CYLINDRICAL_SURFACE('',#401,0.7);
#352=CYLINDRICAL_SURFACE('',#404,0.25);
#353=CYLINDRICAL_SURFACE('',#407,0.5);
#354=CYLINDRICAL_SURFACE('',#410,0.249999999999999);
#355=CYLINDRICAL_SURFACE('',#416,0.249999999999999);
#356=CYLINDRICAL_SURFACE('',#419,0.7);
#357=CYLINDRICAL_SURFACE('',#423,0.25);
#358=CYLINDRICAL_SURFACE('',#427,0.249999999999999);
#359=CYLINDRICAL_SURFACE('',#432,0.5);
#360=CYLINDRICAL_SURFACE('',#435,0.25);
#361=ADVANCED_FACE('',(#25),#351,.T.);
#362=ADVANCED_FACE('',(#26),#352,.T.);
#363=ADVANCED_FACE('',(#27),#353,.F.);
#364=ADVANCED_FACE('',(#28),#354,.T.);
#365=ADVANCED_FACE('',(#29),#15,.F.);
#366=ADVANCED_FACE('',(#30),#16,.F.);
#367=ADVANCED_FACE('',(#31),#17,.F.);
#368=ADVANCED_FACE('',(#32),#355,.T.);
#369=ADVANCED_FACE('',(#33),#356,.T.);
#370=ADVANCED_FACE('',(#34),#18,.F.);
#371=ADVANCED_FACE('',(#35),#357,.T.);
#372=ADVANCED_FACE('',(#36),#19,.F.);
#373=ADVANCED_FACE('',(#37),#358,.T.);
#374=ADVANCED_FACE('',(#38),#20,.F.);
#375=ADVANCED_FACE('',(#39),#21,.F.);
#376=ADVANCED_FACE('',(#40),#359,.F.);
#377=ADVANCED_FACE('',(#41),#360,.T.);
#378=ADVANCED_FACE('',(#42),#22,.F.);
#379=ADVANCED_FACE('',(#43),#23,.T.);
#380=ADVANCED_FACE('',(#44),#24,.F.);
#381=CLOSED_SHELL('',(#361,#362,#363,#364,#365,#366,#367,#368,#369,#370,
#371,#372,#373,#374,#375,#376,#377,#378,#379,#380));
#382=DERIVED_UNIT_ELEMENT(#384,1.);
#383=DERIVED_UNIT_ELEMENT(#673,-3.);
#384=(
MASS_UNIT()
NAMED_UNIT(*)
SI_UNIT($,.GRAM.)
);
#385=DERIVED_UNIT((#382,#383));
#386=MEASURE_REPRESENTATION_ITEM('density measure',
POSITIVE_RATIO_MEASURE(1.),#385);
#387=PROPERTY_DEFINITION_REPRESENTATION(#392,#389);
#388=PROPERTY_DEFINITION_REPRESENTATION(#393,#390);
#389=REPRESENTATION('material name',(#391),#670);
#390=REPRESENTATION('density',(#386),#670);
#391=DESCRIPTIVE_REPRESENTATION_ITEM('Generic','Generic');
#392=PROPERTY_DEFINITION('material property','material name',#680);
#393=PROPERTY_DEFINITION('material property','density of part',#680);
#394=DATE_TIME_ROLE('creation_date');
#395=APPLIED_DATE_AND_TIME_ASSIGNMENT(#396,#394,(#680));
#396=DATE_AND_TIME(#397,#398);
#397=CALENDAR_DATE(2021,16,9);
#398=LOCAL_TIME(13,27,49.,#399);
#399=COORDINATED_UNIVERSAL_TIME_OFFSET(0,0,.BEHIND.);
#400=AXIS2_PLACEMENT_3D('placement',#557,#441,#442);
#401=AXIS2_PLACEMENT_3D('',#558,#443,#444);
#402=AXIS2_PLACEMENT_3D('',#561,#445,#446);
#403=AXIS2_PLACEMENT_3D('',#565,#448,#449);
#404=AXIS2_PLACEMENT_3D('',#567,#451,#452);
#405=AXIS2_PLACEMENT_3D('',#570,#453,#454);
#406=AXIS2_PLACEMENT_3D('',#574,#456,#457);
#407=AXIS2_PLACEMENT_3D('',#576,#459,#460);
#408=AXIS2_PLACEMENT_3D('',#579,#461,#462);
#409=AXIS2_PLACEMENT_3D('',#583,#464,#465);
#410=AXIS2_PLACEMENT_3D('',#585,#467,#468);
#411=AXIS2_PLACEMENT_3D('',#587,#469,#470);
#412=AXIS2_PLACEMENT_3D('',#590,#472,#473);
#413=AXIS2_PLACEMENT_3D('',#591,#474,#475);
#414=AXIS2_PLACEMENT_3D('',#597,#479,#480);
#415=AXIS2_PLACEMENT_3D('',#603,#484,#485);
#416=AXIS2_PLACEMENT_3D('',#609,#489,#490);
#417=AXIS2_PLACEMENT_3D('',#611,#491,#492);
#418=AXIS2_PLACEMENT_3D('',#614,#494,#495);
#419=AXIS2_PLACEMENT_3D('',#615,#496,#497);
#420=AXIS2_PLACEMENT_3D('',#617,#498,#499);
#421=AXIS2_PLACEMENT_3D('',#620,#501,#502);
#422=AXIS2_PLACEMENT_3D('',#621,#503,#504);
#423=AXIS2_PLACEMENT_3D('',#627,#508,#509);
#424=AXIS2_PLACEMENT_3D('',#628,#510,#511);
#425=AXIS2_PLACEMENT_3D('',#629,#512,#513);
#426=AXIS2_PLACEMENT_3D('',#630,#514,#515);
#427=AXIS2_PLACEMENT_3D('',#636,#519,#520);
#428=AXIS2_PLACEMENT_3D('',#638,#521,#522);
#429=AXIS2_PLACEMENT_3D('',#641,#524,#525);
#430=AXIS2_PLACEMENT_3D('',#642,#526,#527);
#431=AXIS2_PLACEMENT_3D('',#645,#530,#531);
#432=AXIS2_PLACEMENT_3D('',#651,#535,#536);
#433=AXIS2_PLACEMENT_3D('',#653,#537,#538);
#434=AXIS2_PLACEMENT_3D('',#656,#540,#541);
#435=AXIS2_PLACEMENT_3D('',#657,#542,#543);
#436=AXIS2_PLACEMENT_3D('',#659,#544,#545);
#437=AXIS2_PLACEMENT_3D('',#662,#547,#548);
#438=AXIS2_PLACEMENT_3D('',#663,#549,#550);
#439=AXIS2_PLACEMENT_3D('',#666,#553,#554);
#440=AXIS2_PLACEMENT_3D('',#667,#555,#556);
#441=DIRECTION('axis',(0.,0.,1.));
#442=DIRECTION('refdir',(1.,0.,0.));
#443=DIRECTION('center_axis',(0.,0.,-1.));
#444=DIRECTION('ref_axis',(-1.,0.,0.));
#445=DIRECTION('center_axis',(0.,0.,1.));
#446=DIRECTION('ref_axis',(1.,0.,0.));
#447=DIRECTION('',(0.,0.,-1.));
#448=DIRECTION('center_axis',(0.,0.,1.));
#449=DIRECTION('ref_axis',(1.,0.,0.));
#450=DIRECTION('',(0.,0.,-1.));
#451=DIRECTION('center_axis',(0.,0.,-1.));
#452=DIRECTION('ref_axis',(-1.,0.,0.));
#453=DIRECTION('center_axis',(0.,0.,1.));
#454=DIRECTION('ref_axis',(1.,0.,0.));
#455=DIRECTION('',(0.,0.,-1.));
#456=DIRECTION('center_axis',(0.,0.,1.));
#457=DIRECTION('ref_axis',(1.,0.,0.));
#458=DIRECTION('',(0.,0.,-1.));
#459=DIRECTION('center_axis',(0.,0.,-1.));
#460=DIRECTION('ref_axis',(-1.,0.,0.));
#461=DIRECTION('center_axis',(0.,0.,-1.));
#462=DIRECTION('ref_axis',(-1.,0.,0.));
#463=DIRECTION('',(0.,0.,-1.));
#464=DIRECTION('center_axis',(0.,0.,-1.));
#465=DIRECTION('ref_axis',(-1.,0.,0.));
#466=DIRECTION('',(0.,0.,-1.));
#467=DIRECTION('center_axis',(0.,0.,-1.));
#468=DIRECTION('ref_axis',(-1.,0.,0.));
#469=DIRECTION('center_axis',(0.,0.,1.));
#470=DIRECTION('ref_axis',(1.,0.,0.));
#471=DIRECTION('',(0.,0.,-1.));
#472=DIRECTION('center_axis',(0.,0.,1.));
#473=DIRECTION('ref_axis',(1.,0.,0.));
#474=DIRECTION('center_axis',(-1.,0.,0.));
#475=DIRECTION('ref_axis',(0.,0.,1.));
#476=DIRECTION('',(0.,1.,0.));
#477=DIRECTION('',(0.,0.,-1.));
#478=DIRECTION('',(0.,1.,0.));
#479=DIRECTION('center_axis',(0.,1.,0.));
#480=DIRECTION('ref_axis',(0.,0.,1.));
#481=DIRECTION('',(1.,0.,0.));
#482=DIRECTION('',(0.,0.,-1.));
#483=DIRECTION('',(1.,0.,0.));
#484=DIRECTION('center_axis',(1.,0.,0.));
#485=DIRECTION('ref_axis',(0.,0.,-1.));
#486=DIRECTION('',(0.,-1.,0.));
#487=DIRECTION('',(0.,0.,-1.));
#488=DIRECTION('',(0.,-1.,0.));
#489=DIRECTION('center_axis',(0.,0.,-1.));
#490=DIRECTION('ref_axis',(-1.,0.,0.));
#491=DIRECTION('center_axis',(0.,0.,1.));
#492=DIRECTION('ref_axis',(-1.,0.,0.));
#493=DIRECTION('',(0.,0.,-1.));
#494=DIRECTION('center_axis',(0.,0.,1.));
#495=DIRECTION('ref_axis',(-1.,0.,0.));
#496=DIRECTION('center_axis',(0.,0.,-1.));
#497=DIRECTION('ref_axis',(0.959449124851262,-0.281881849046987,0.));
#498=DIRECTION('center_axis',(0.,0.,1.));
#499=DIRECTION('ref_axis',(-1.,0.,0.));
#500=DIRECTION('',(0.,0.,-1.));
#501=DIRECTION('center_axis',(0.,0.,1.));
#502=DIRECTION('ref_axis',(-1.,0.,0.));
#503=DIRECTION('center_axis',(-1.,0.,0.));
#504=DIRECTION('ref_axis',(0.,0.,1.));
#505=DIRECTION('',(0.,1.,0.));
#506=DIRECTION('',(0.,0.,-1.));
#507=DIRECTION('',(0.,1.,0.));
#508=DIRECTION('center_axis',(0.,0.,-1.));
#509=DIRECTION('ref_axis',(-1.,0.,0.));
#510=DIRECTION('center_axis',(0.,0.,1.));
#511=DIRECTION('ref_axis',(1.,0.,0.));
#512=DIRECTION('center_axis',(0.,0.,1.));
#513=DIRECTION('ref_axis',(1.,0.,0.));
#514=DIRECTION('center_axis',(-0.707106781186544,0.707106781186551,0.));
#515=DIRECTION('ref_axis',(-0.707106781186551,-0.707106781186544,0.));
#516=DIRECTION('',(0.707106781186551,0.707106781186544,0.));
#517=DIRECTION('',(0.,0.,-1.));
#518=DIRECTION('',(0.707106781186551,0.707106781186544,0.));
#519=DIRECTION('center_axis',(0.,0.,-1.));
#520=DIRECTION('ref_axis',(0.923879532511288,0.382683432365086,0.));
#521=DIRECTION('center_axis',(0.,0.,1.));
#522=DIRECTION('ref_axis',(1.,0.,0.));
#523=DIRECTION('',(0.,0.,-1.));
#524=DIRECTION('center_axis',(0.,0.,1.));
#525=DIRECTION('ref_axis',(1.,0.,0.));
#526=DIRECTION('center_axis',(0.,-1.,0.));
#527=DIRECTION('ref_axis',(0.,0.,-1.));
#528=DIRECTION('',(-1.,0.,0.));
#529=DIRECTION('',(-1.,0.,0.));
#530=DIRECTION('center_axis',(0.707106781186544,0.707106781186551,0.));
#531=DIRECTION('ref_axis',(-0.707106781186551,0.707106781186544,0.));
#532=DIRECTION('',(0.707106781186551,-0.707106781186544,0.));
#533=DIRECTION('',(0.,0.,-1.));
#534=DIRECTION('',(0.707106781186551,-0.707106781186544,0.));
#535=DIRECTION('center_axis',(0.,0.,-1.));
#536=DIRECTION('ref_axis',(0.99961262434149,-0.0278316592591787,0.));
#537=DIRECTION('center_axis',(0.,0.,-1.));
#538=DIRECTION('ref_axis',(1.,0.,0.));
#539=DIRECTION('',(0.,0.,-1.));
#540=DIRECTION('center_axis',(0.,0.,-1.));
#541=DIRECTION('ref_axis',(1.,0.,0.));
#542=DIRECTION('center_axis',(0.,0.,-1.));
#543=DIRECTION('ref_axis',(-1.,0.,0.));
#544=DIRECTION('center_axis',(0.,0.,1.));
#545=DIRECTION('ref_axis',(-1.,0.,0.));
#546=DIRECTION('',(0.,0.,-1.));
#547=DIRECTION('center_axis',(0.,0.,1.));
#548=DIRECTION('ref_axis',(-1.,0.,0.));
#549=DIRECTION('center_axis',(1.,0.,0.));
#550=DIRECTION('ref_axis',(0.,0.,-1.));
#551=DIRECTION('',(0.,-1.,0.));
#552=DIRECTION('',(0.,-1.,0.));
#553=DIRECTION('center_axis',(0.,0.,1.));
#554=DIRECTION('ref_axis',(1.,0.,0.));
#555=DIRECTION('center_axis',(0.,0.,1.));
#556=DIRECTION('ref_axis',(1.,0.,0.));
#557=CARTESIAN_POINT('',(0.,0.,0.));
#558=CARTESIAN_POINT('Origin',(-3.45,-3.61125178063039,2000.));
#559=CARTESIAN_POINT('',(-3.95,-3.12135383207376,2000.));
#560=CARTESIAN_POINT('',(-3.60555555555556,-4.29374901076089,2000.));
#561=CARTESIAN_POINT('Origin',(-3.45,-3.61125178063039,2000.));
#562=CARTESIAN_POINT('',(-3.95,-3.12135383207376,0.));
#563=CARTESIAN_POINT('',(-3.95,-3.12135383207376,2000.));
#564=CARTESIAN_POINT('',(-3.60555555555556,-4.29374901076089,0.));
#565=CARTESIAN_POINT('Origin',(-3.45,-3.61125178063039,0.));
#566=CARTESIAN_POINT('',(-3.60555555555556,-4.29374901076089,2000.));
#567=CARTESIAN_POINT('Origin',(-4.3,-0.250000000000001,2000.));
#568=CARTESIAN_POINT('',(-4.3,-1.02999206386123E-15,2000.));
#569=CARTESIAN_POINT('',(-4.47677669529664,-0.426776695296638,2000.));
#570=CARTESIAN_POINT('Origin',(-4.3,-0.250000000000001,2000.));
#571=CARTESIAN_POINT('',(-4.3,-1.02999206386123E-15,0.));
#572=CARTESIAN_POINT('',(-4.3,-1.02999206386123E-15,2000.));
#573=CARTESIAN_POINT('',(-4.47677669529664,-0.426776695296638,0.));
#574=CARTESIAN_POINT('Origin',(-4.3,-0.250000000000001,0.));
#575=CARTESIAN_POINT('',(-4.47677669529664,-0.426776695296638,2000.));
#576=CARTESIAN_POINT('Origin',(4.2,-1.41066017177981,2000.));
#577=CARTESIAN_POINT('',(3.86666666666667,-1.78333816802978,2000.));
#578=CARTESIAN_POINT('',(3.84644660940673,-1.05710678118654,2000.));
#579=CARTESIAN_POINT('Origin',(4.2,-1.41066017177981,2000.));
#580=CARTESIAN_POINT('',(3.86666666666667,-1.78333816802978,0.));
#581=CARTESIAN_POINT('',(3.86666666666667,-1.78333816802978,2000.));
#582=CARTESIAN_POINT('',(3.84644660940673,-1.05710678118654,0.));
#583=CARTESIAN_POINT('Origin',(4.2,-1.41066017177981,0.));
#584=CARTESIAN_POINT('',(3.84644660940673,-1.05710678118654,2000.));
#585=CARTESIAN_POINT('Origin',(-3.55,-4.05,2000.));
#586=CARTESIAN_POINT('',(-3.3,-4.05,0.));
#587=CARTESIAN_POINT('Origin',(-3.55,-4.05,0.));
#588=CARTESIAN_POINT('',(-3.3,-4.05,2000.));
#589=CARTESIAN_POINT('',(-3.3,-4.05,2000.));
#590=CARTESIAN_POINT('Origin',(-3.55,-4.05,2000.));
#591=CARTESIAN_POINT('Origin',(-3.3,-4.05,2000.));
#592=CARTESIAN_POINT('',(-3.3,-0.950000000000001,0.));
#593=CARTESIAN_POINT('',(-3.3,-4.05,0.));
#594=CARTESIAN_POINT('',(-3.3,-0.950000000000001,2000.));
#595=CARTESIAN_POINT('',(-3.3,-0.950000000000001,2000.));
#596=CARTESIAN_POINT('',(-3.3,-4.05,2000.));
#597=CARTESIAN_POINT('Origin',(-3.3,-0.950000000000001,2000.));
#598=CARTESIAN_POINT('',(3.3,-0.950000000000001,0.));
#599=CARTESIAN_POINT('',(-3.3,-0.950000000000001,0.));
#600=CARTESIAN_POINT('',(3.3,-0.950000000000001,2000.));
#601=CARTESIAN_POINT('',(3.3,-0.950000000000001,2000.));
#602=CARTESIAN_POINT('',(-3.3,-0.950000000000001,2000.));
#603=CARTESIAN_POINT('Origin',(3.3,-4.05,2000.));
#604=CARTESIAN_POINT('',(3.3,-4.05,0.));
#605=CARTESIAN_POINT('',(3.3,-4.05,0.));
#606=CARTESIAN_POINT('',(3.3,-4.05,2000.));
#607=CARTESIAN_POINT('',(3.3,-4.05,2000.));
#608=CARTESIAN_POINT('',(3.3,-4.05,2000.));
#609=CARTESIAN_POINT('Origin',(3.55,-4.05,2000.));
#610=CARTESIAN_POINT('',(3.60555555555556,-4.29374901076089,0.));
#611=CARTESIAN_POINT('Origin',(3.55,-4.05,0.));
#612=CARTESIAN_POINT('',(3.60555555555556,-4.29374901076089,2000.));
#613=CARTESIAN_POINT('',(3.60555555555556,-4.29374901076089,2000.));
#614=CARTESIAN_POINT('Origin',(3.55,-4.05,2000.));
#615=CARTESIAN_POINT('Origin',(3.45,-3.61125178063039,2000.));
#616=CARTESIAN_POINT('',(3.95,-3.12135383207376,0.));
#617=CARTESIAN_POINT('Origin',(3.45,-3.61125178063039,0.));
#618=CARTESIAN_POINT('',(3.95,-3.12135383207376,2000.));
#619=CARTESIAN_POINT('',(3.95,-3.12135383207376,2000.));
#620=CARTESIAN_POINT('Origin',(3.45,-3.61125178063039,2000.));
#621=CARTESIAN_POINT('Origin',(3.95,-1.96967716615476,2000.));
#622=CARTESIAN_POINT('',(3.95,-1.96967716615476,0.));
#623=CARTESIAN_POINT('',(3.95,-1.96967716615476,0.));
#624=CARTESIAN_POINT('',(3.95,-1.96967716615476,2000.));
#625=CARTESIAN_POINT('',(3.95,-1.96967716615476,2000.));
#626=CARTESIAN_POINT('',(3.95,-1.96967716615476,2000.));
#627=CARTESIAN_POINT('Origin',(3.7,-1.96967716615476,2000.));
#628=CARTESIAN_POINT('Origin',(3.7,-1.96967716615476,0.));
#629=CARTESIAN_POINT('Origin',(3.7,-1.96967716615476,2000.));
#630=CARTESIAN_POINT('Origin',(4.47677669529664,-0.426776695296639,2000.));
#631=CARTESIAN_POINT('',(4.47677669529664,-0.426776695296639,0.));
#632=CARTESIAN_POINT('',(4.47677669529664,-0.426776695296639,0.));
#633=CARTESIAN_POINT('',(4.47677669529664,-0.426776695296639,2000.));
#634=CARTESIAN_POINT('',(4.47677669529664,-0.426776695296639,2000.));
#635=CARTESIAN_POINT('',(4.47677669529664,-0.426776695296639,2000.));
#636=CARTESIAN_POINT('Origin',(4.3,-0.249999999999999,2000.));
#637=CARTESIAN_POINT('',(4.3,3.79470760369927E-16,0.));
#638=CARTESIAN_POINT('Origin',(4.3,-0.249999999999999,0.));
#639=CARTESIAN_POINT('',(4.3,3.79470760369927E-16,2000.));
#640=CARTESIAN_POINT('',(4.3,3.79470760369927E-16,2000.));
#641=CARTESIAN_POINT('Origin',(4.3,-0.249999999999999,2000.));
#642=CARTESIAN_POINT('Origin',(4.3,-1.02999206386123E-15,2000.));
#643=CARTESIAN_POINT('',(4.3,-1.02999206386123E-15,0.));
#644=CARTESIAN_POINT('',(4.3,-1.02999206386123E-15,2000.));
#645=CARTESIAN_POINT('Origin',(-4.47677669529664,-0.426776695296639,2000.));
#646=CARTESIAN_POINT('',(-3.84644660940673,-1.05710678118654,0.));
#647=CARTESIAN_POINT('',(-4.47677669529664,-0.426776695296639,0.));
#648=CARTESIAN_POINT('',(-3.84644660940673,-1.05710678118654,2000.));
#649=CARTESIAN_POINT('',(-3.84644660940673,-1.05710678118654,2000.));
#650=CARTESIAN_POINT('',(-4.47677669529664,-0.426776695296639,2000.));
#651=CARTESIAN_POINT('Origin',(-4.2,-1.41066017177981,2000.));
#652=CARTESIAN_POINT('',(-3.86666666666667,-1.78333816802978,0.));
#653=CARTESIAN_POINT('Origin',(-4.2,-1.41066017177981,0.));
#654=CARTESIAN_POINT('',(-3.86666666666667,-1.78333816802978,2000.));
#655=CARTESIAN_POINT('',(-3.86666666666667,-1.78333816802978,2000.));
#656=CARTESIAN_POINT('Origin',(-4.2,-1.41066017177981,2000.));
#657=CARTESIAN_POINT('Origin',(-3.7,-1.96967716615476,2000.));
#658=CARTESIAN_POINT('',(-3.95,-1.96967716615476,0.));
#659=CARTESIAN_POINT('Origin',(-3.7,-1.96967716615476,0.));
#660=CARTESIAN_POINT('',(-3.95,-1.96967716615476,2000.));
#661=CARTESIAN_POINT('',(-3.95,-1.96967716615476,2000.));
#662=CARTESIAN_POINT('Origin',(-3.7,-1.96967716615476,2000.));
#663=CARTESIAN_POINT('Origin',(-3.95,-1.96967716615476,2000.));
#664=CARTESIAN_POINT('',(-3.95,-1.96967716615476,0.));
#665=CARTESIAN_POINT('',(-3.95,-1.96967716615476,2000.));
#666=CARTESIAN_POINT('Origin',(-3.55,-4.05,2000.));
#667=CARTESIAN_POINT('Origin',(-3.55,-4.05,0.));
#668=UNCERTAINTY_MEASURE_WITH_UNIT(LENGTH_MEASURE(0.01),#672,
'DISTANCE_ACCURACY_VALUE',
'Maximum model space distance between geometric entities at asserted c
onnectivities');
#669=UNCERTAINTY_MEASURE_WITH_UNIT(LENGTH_MEASURE(0.01),#672,
'DISTANCE_ACCURACY_VALUE',
'Maximum model space distance between geometric entities at asserted c
onnectivities');
#670=(
GEOMETRIC_REPRESENTATION_CONTEXT(3)
GLOBAL_UNCERTAINTY_ASSIGNED_CONTEXT((#668))
GLOBAL_UNIT_ASSIGNED_CONTEXT((#672,#674,#675))
REPRESENTATION_CONTEXT('','3D')
);
#671=(
GEOMETRIC_REPRESENTATION_CONTEXT(3)
GLOBAL_UNCERTAINTY_ASSIGNED_CONTEXT((#669))
GLOBAL_UNIT_ASSIGNED_CONTEXT((#672,#674,#675))
REPRESENTATION_CONTEXT('','3D')
);
#672=(
LENGTH_UNIT()
NAMED_UNIT(*)
SI_UNIT(.MILLI.,.METRE.)
);
#673=(
LENGTH_UNIT()
NAMED_UNIT(*)
SI_UNIT(.CENTI.,.METRE.)
);
#674=(
NAMED_UNIT(*)
PLANE_ANGLE_UNIT()
SI_UNIT($,.RADIAN.)
);
#675=(
NAMED_UNIT(*)
SI_UNIT($,.STERADIAN.)
SOLID_ANGLE_UNIT()
);
#676=SHAPE_DEFINITION_REPRESENTATION(#677,#678);
#677=PRODUCT_DEFINITION_SHAPE('',$,#680);
#678=SHAPE_REPRESENTATION('',(#400),#670);
#679=PRODUCT_DEFINITION_CONTEXT('part definition',#684,'design');
#680=PRODUCT_DEFINITION('1025063','1025063',#681,#679);
#681=PRODUCT_DEFINITION_FORMATION('ANY',$,#686);
#682=PRODUCT_RELATED_PRODUCT_CATEGORY('1025063','1025063',(#686));
#683=APPLICATION_PROTOCOL_DEFINITION('international standard',
'automotive_design',2009,#684);
#684=APPLICATION_CONTEXT(
'Core Data for Automotive Mechanical Design Process');
#685=PRODUCT_CONTEXT('part definition',#684,'mechanical');
#686=PRODUCT('1025063','1025063','STEP AP214',(#685));
#687=PRESENTATION_STYLE_ASSIGNMENT((#688));
#688=SURFACE_STYLE_USAGE(.BOTH.,#691);
#689=SURFACE_STYLE_RENDERING_WITH_PROPERTIES($,#695,(#690));
#690=SURFACE_STYLE_TRANSPARENT(0.);
#691=SURFACE_SIDE_STYLE('',(#692,#689));
#692=SURFACE_STYLE_FILL_AREA(#693);
#693=FILL_AREA_STYLE('',(#694));
#694=FILL_AREA_STYLE_COLOUR('',#695);
#695=COLOUR_RGB('',0.866666666666667,0.909803921568627,1.);
ENDSEC;
END-ISO-10303-21;
