ISO-10303-21;
HEADER;
/* Generated by software containing ST-Developer
 * from STEP Tools, Inc. (www.steptools.com) 
 */

FILE_DESCRIPTION(
/* description */ ('STEP AP214'),
/* implementation_level */ '2;1');

FILE_NAME(
/* name */ 
'C:\\Users\\b.steehouwer\\Desktop\\Producten\\ISB profielsysteem\\CAD-
files\\Bevestigingsmaterialen\\T-sleuf moer dubbel\\1025051.stp',
/* time_stamp */ '2024-05-01T08:56:19+02:00',
/* author */ ('b.steehouwer'),
/* organization */ ('CADENAS'),
/* preprocessor_version */ 'ST-DEVELOPER v18.1',
/* originating_system */ 'Autodesk Inventor 2021',
/* authorisation */ ' ');

FILE_SCHEMA (('AUTOMOTIVE_DESIGN { 1 0 10303 214 3 1 1 }'));
ENDSEC;

DATA;
#10=MECHANICAL_DESIGN_GEOMETRIC_PRESENTATION_REPRESENTATION('',(#13),#503);
#11=SHAPE_REPRESENTATION_RELATIONSHIP('SRR','None',#510,#12);
#12=ADVANCED_BREP_SHAPE_REPRESENTATION('',(#14),#502);
#13=STYLED_ITEM('',(#520),#14);
#14=MANIFOLD_SOLID_BREP('Solid1',#251);
#15=FACE_BOUND('',#46,.T.);
#16=FACE_BOUND('',#47,.T.);
#17=PLANE('',#276);
#18=PLANE('',#281);
#19=PLANE('',#288);
#20=PLANE('',#290);
#21=PLANE('',#293);
#22=PLANE('',#296);
#23=FACE_OUTER_BOUND('',#35,.T.);
#24=FACE_OUTER_BOUND('',#36,.T.);
#25=FACE_OUTER_BOUND('',#37,.T.);
#26=FACE_OUTER_BOUND('',#38,.T.);
#27=FACE_OUTER_BOUND('',#39,.T.);
#28=FACE_OUTER_BOUND('',#40,.T.);
#29=FACE_OUTER_BOUND('',#41,.T.);
#30=FACE_OUTER_BOUND('',#42,.T.);
#31=FACE_OUTER_BOUND('',#43,.T.);
#32=FACE_OUTER_BOUND('',#44,.T.);
#33=FACE_OUTER_BOUND('',#45,.T.);
#34=FACE_OUTER_BOUND('',#48,.T.);
#35=EDGE_LOOP('',(#161,#162,#163,#164,#165,#166,#167,#168));
#36=EDGE_LOOP('',(#169,#170,#171,#172,#173,#174));
#37=EDGE_LOOP('',(#175,#176,#177,#178,#179,#180));
#38=EDGE_LOOP('',(#181,#182,#183,#184));
#39=EDGE_LOOP('',(#185,#186,#187,#188,#189,#190,#191,#192));
#40=EDGE_LOOP('',(#193,#194,#195,#196));
#41=EDGE_LOOP('',(#197,#198,#199,#200));
#42=EDGE_LOOP('',(#201,#202,#203,#204,#205));
#43=EDGE_LOOP('',(#206,#207,#208,#209,#210));
#44=EDGE_LOOP('',(#211,#212,#213,#214,#215,#216,#217,#218));
#45=EDGE_LOOP('',(#219,#220,#221,#222));
#46=EDGE_LOOP('',(#223));
#47=EDGE_LOOP('',(#224));
#48=EDGE_LOOP('',(#225,#226,#227,#228,#229,#230,#231,#232));
#49=B_SPLINE_CURVE_WITH_KNOTS('',3,(#382,#383,#384,#385,#386,#387,#388,
#389,#390,#391,#392,#393,#394,#395,#396),.UNSPECIFIED.,.F.,.F.,(4,2,2,3,
2,2,4),(-0.230087303019949,-0.186234831516288,-0.093117415758144,0.,0.093117415758144,
0.186234831516288,0.23008730301995),.UNSPECIFIED.);
#50=B_SPLINE_CURVE_WITH_KNOTS('',3,(#400,#401,#402,#403,#404,#405,#406,
#407,#408,#409,#410,#411,#412,#413),.UNSPECIFIED.,.F.,.F.,(4,2,2,2,2,2,
4),(-1.02217079413183,-0.978318322628167,-0.885200906870023,-0.792083491111879,
-0.698966075353735,-0.605848659595591,-0.561996188091931),.UNSPECIFIED.);
#51=B_SPLINE_CURVE_WITH_KNOTS('',3,(#447,#448,#449,#450,#451,#452,#453,
#454,#455,#456,#457,#458,#459,#460,#461),.UNSPECIFIED.,.F.,.F.,(4,2,2,3,
2,2,4),(-0.230087303019949,-0.186234831516288,-0.0931174157581438,0.,0.0931174157581439,
0.186234831516288,0.23008730301995),.UNSPECIFIED.);
#52=B_SPLINE_CURVE_WITH_KNOTS('',3,(#481,#482,#483,#484,#485,#486,#487,
#488,#489,#490,#491,#492,#493,#494),.UNSPECIFIED.,.F.,.F.,(4,2,2,2,2,2,
4),(0.561996188091931,0.60584865959559,0.698966075353734,0.792083491111878,
0.885200906870022,0.978318322628166,1.02217079413183),.UNSPECIFIED.);
#53=LINE('',#378,#69);
#54=LINE('',#418,#70);
#55=LINE('',#424,#71);
#56=LINE('',#431,#72);
#57=LINE('',#437,#73);
#58=LINE('',#442,#74);
#59=LINE('',#443,#75);
#60=LINE('',#462,#76);
#61=LINE('',#463,#77);
#62=LINE('',#464,#78);
#63=LINE('',#466,#79);
#64=LINE('',#468,#80);
#65=LINE('',#469,#81);
#66=LINE('',#475,#82);
#67=LINE('',#479,#83);
#68=LINE('',#499,#84);
#69=VECTOR('',#305,2.4585);
#70=VECTOR('',#314,1000.);
#71=VECTOR('',#319,1000.);
#72=VECTOR('',#326,1000.);
#73=VECTOR('',#331,1000.);
#74=VECTOR('',#338,1000.);
#75=VECTOR('',#339,1000.);
#76=VECTOR('',#342,1000.);
#77=VECTOR('',#343,1000.);
#78=VECTOR('',#344,1000.);
#79=VECTOR('',#347,1000.);
#80=VECTOR('',#350,1000.);
#81=VECTOR('',#351,1000.);
#82=VECTOR('',#358,1000.);
#83=VECTOR('',#363,1000.);
#84=VECTOR('',#372,2.4585);
#85=CIRCLE('',#272,2.4585);
#86=CIRCLE('',#273,2.4585);
#87=CIRCLE('',#274,2.4585);
#88=CIRCLE('',#275,2.4585);
#89=CIRCLE('',#277,0.5);
#90=CIRCLE('',#278,15.);
#91=CIRCLE('',#279,15.);
#92=CIRCLE('',#280,0.5);
#93=CIRCLE('',#282,0.5);
#94=CIRCLE('',#283,15.);
#95=CIRCLE('',#284,15.);
#96=CIRCLE('',#285,0.5);
#97=CIRCLE('',#291,2.4585);
#98=CIRCLE('',#292,2.4585);
#99=CIRCLE('',#294,2.4585);
#100=CIRCLE('',#297,2.4585);
#101=VERTEX_POINT('',#375);
#102=VERTEX_POINT('',#377);
#103=VERTEX_POINT('',#379);
#104=VERTEX_POINT('',#381);
#105=VERTEX_POINT('',#397);
#106=VERTEX_POINT('',#399);
#107=VERTEX_POINT('',#416);
#108=VERTEX_POINT('',#417);
#109=VERTEX_POINT('',#419);
#110=VERTEX_POINT('',#421);
#111=VERTEX_POINT('',#423);
#112=VERTEX_POINT('',#425);
#113=VERTEX_POINT('',#429);
#114=VERTEX_POINT('',#430);
#115=VERTEX_POINT('',#432);
#116=VERTEX_POINT('',#434);
#117=VERTEX_POINT('',#436);
#118=VERTEX_POINT('',#438);
#119=VERTEX_POINT('',#445);
#120=VERTEX_POINT('',#446);
#121=VERTEX_POINT('',#471);
#122=VERTEX_POINT('',#473);
#123=VERTEX_POINT('',#477);
#124=VERTEX_POINT('',#496);
#125=EDGE_CURVE('',#101,#101,#85,.T.);
#126=EDGE_CURVE('',#101,#102,#53,.T.);
#127=EDGE_CURVE('',#103,#102,#86,.T.);
#128=EDGE_CURVE('',#103,#104,#49,.T.);
#129=EDGE_CURVE('',#105,#104,#87,.T.);
#130=EDGE_CURVE('',#105,#106,#50,.T.);
#131=EDGE_CURVE('',#102,#106,#88,.T.);
#132=EDGE_CURVE('',#107,#108,#54,.T.);
#133=EDGE_CURVE('',#108,#109,#89,.T.);
#134=EDGE_CURVE('',#109,#110,#90,.T.);
#135=EDGE_CURVE('',#110,#111,#55,.T.);
#136=EDGE_CURVE('',#111,#112,#91,.T.);
#137=EDGE_CURVE('',#112,#107,#92,.T.);
#138=EDGE_CURVE('',#113,#114,#56,.T.);
#139=EDGE_CURVE('',#115,#113,#93,.T.);
#140=EDGE_CURVE('',#116,#115,#94,.T.);
#141=EDGE_CURVE('',#117,#116,#57,.T.);
#142=EDGE_CURVE('',#118,#117,#95,.T.);
#143=EDGE_CURVE('',#114,#118,#96,.T.);
#144=EDGE_CURVE('',#107,#113,#58,.T.);
#145=EDGE_CURVE('',#112,#115,#59,.T.);
#146=EDGE_CURVE('',#119,#120,#51,.T.);
#147=EDGE_CURVE('',#119,#116,#60,.T.);
#148=EDGE_CURVE('',#111,#104,#61,.T.);
#149=EDGE_CURVE('',#103,#120,#62,.T.);
#150=EDGE_CURVE('',#110,#105,#63,.T.);
#151=EDGE_CURVE('',#109,#118,#64,.T.);
#152=EDGE_CURVE('',#108,#114,#65,.T.);
#153=EDGE_CURVE('',#119,#121,#97,.T.);
#154=EDGE_CURVE('',#121,#122,#98,.T.);
#155=EDGE_CURVE('',#122,#117,#66,.T.);
#156=EDGE_CURVE('',#123,#120,#99,.T.);
#157=EDGE_CURVE('',#106,#123,#67,.T.);
#158=EDGE_CURVE('',#123,#122,#52,.T.);
#159=EDGE_CURVE('',#124,#124,#100,.T.);
#160=EDGE_CURVE('',#124,#121,#68,.T.);
#161=ORIENTED_EDGE('',*,*,#125,.T.);
#162=ORIENTED_EDGE('',*,*,#126,.T.);
#163=ORIENTED_EDGE('',*,*,#127,.F.);
#164=ORIENTED_EDGE('',*,*,#128,.T.);
#165=ORIENTED_EDGE('',*,*,#129,.F.);
#166=ORIENTED_EDGE('',*,*,#130,.T.);
#167=ORIENTED_EDGE('',*,*,#131,.F.);
#168=ORIENTED_EDGE('',*,*,#126,.F.);
#169=ORIENTED_EDGE('',*,*,#132,.T.);
#170=ORIENTED_EDGE('',*,*,#133,.T.);
#171=ORIENTED_EDGE('',*,*,#134,.T.);
#172=ORIENTED_EDGE('',*,*,#135,.T.);
#173=ORIENTED_EDGE('',*,*,#136,.T.);
#174=ORIENTED_EDGE('',*,*,#137,.T.);
#175=ORIENTED_EDGE('',*,*,#138,.F.);
#176=ORIENTED_EDGE('',*,*,#139,.F.);
#177=ORIENTED_EDGE('',*,*,#140,.F.);
#178=ORIENTED_EDGE('',*,*,#141,.F.);
#179=ORIENTED_EDGE('',*,*,#142,.F.);
#180=ORIENTED_EDGE('',*,*,#143,.F.);
#181=ORIENTED_EDGE('',*,*,#139,.T.);
#182=ORIENTED_EDGE('',*,*,#144,.F.);
#183=ORIENTED_EDGE('',*,*,#137,.F.);
#184=ORIENTED_EDGE('',*,*,#145,.T.);
#185=ORIENTED_EDGE('',*,*,#146,.F.);
#186=ORIENTED_EDGE('',*,*,#147,.T.);
#187=ORIENTED_EDGE('',*,*,#140,.T.);
#188=ORIENTED_EDGE('',*,*,#145,.F.);
#189=ORIENTED_EDGE('',*,*,#136,.F.);
#190=ORIENTED_EDGE('',*,*,#148,.T.);
#191=ORIENTED_EDGE('',*,*,#128,.F.);
#192=ORIENTED_EDGE('',*,*,#149,.T.);
#193=ORIENTED_EDGE('',*,*,#129,.T.);
#194=ORIENTED_EDGE('',*,*,#148,.F.);
#195=ORIENTED_EDGE('',*,*,#135,.F.);
#196=ORIENTED_EDGE('',*,*,#150,.T.);
#197=ORIENTED_EDGE('',*,*,#143,.T.);
#198=ORIENTED_EDGE('',*,*,#151,.F.);
#199=ORIENTED_EDGE('',*,*,#133,.F.);
#200=ORIENTED_EDGE('',*,*,#152,.T.);
#201=ORIENTED_EDGE('',*,*,#153,.T.);
#202=ORIENTED_EDGE('',*,*,#154,.T.);
#203=ORIENTED_EDGE('',*,*,#155,.T.);
#204=ORIENTED_EDGE('',*,*,#141,.T.);
#205=ORIENTED_EDGE('',*,*,#147,.F.);
#206=ORIENTED_EDGE('',*,*,#156,.T.);
#207=ORIENTED_EDGE('',*,*,#149,.F.);
#208=ORIENTED_EDGE('',*,*,#127,.T.);
#209=ORIENTED_EDGE('',*,*,#131,.T.);
#210=ORIENTED_EDGE('',*,*,#157,.T.);
#211=ORIENTED_EDGE('',*,*,#158,.F.);
#212=ORIENTED_EDGE('',*,*,#157,.F.);
#213=ORIENTED_EDGE('',*,*,#130,.F.);
#214=ORIENTED_EDGE('',*,*,#150,.F.);
#215=ORIENTED_EDGE('',*,*,#134,.F.);
#216=ORIENTED_EDGE('',*,*,#151,.T.);
#217=ORIENTED_EDGE('',*,*,#142,.T.);
#218=ORIENTED_EDGE('',*,*,#155,.F.);
#219=ORIENTED_EDGE('',*,*,#138,.T.);
#220=ORIENTED_EDGE('',*,*,#152,.F.);
#221=ORIENTED_EDGE('',*,*,#132,.F.);
#222=ORIENTED_EDGE('',*,*,#144,.T.);
#223=ORIENTED_EDGE('',*,*,#159,.F.);
#224=ORIENTED_EDGE('',*,*,#125,.F.);
#225=ORIENTED_EDGE('',*,*,#159,.T.);
#226=ORIENTED_EDGE('',*,*,#160,.T.);
#227=ORIENTED_EDGE('',*,*,#153,.F.);
#228=ORIENTED_EDGE('',*,*,#146,.T.);
#229=ORIENTED_EDGE('',*,*,#156,.F.);
#230=ORIENTED_EDGE('',*,*,#158,.T.);
#231=ORIENTED_EDGE('',*,*,#154,.F.);
#232=ORIENTED_EDGE('',*,*,#160,.F.);
#233=CYLINDRICAL_SURFACE('',#271,2.4585);
#234=CYLINDRICAL_SURFACE('',#286,0.5);
#235=CYLINDRICAL_SURFACE('',#287,15.);
#236=CYLINDRICAL_SURFACE('',#289,0.5);
#237=CYLINDRICAL_SURFACE('',#295,15.);
#238=CYLINDRICAL_SURFACE('',#298,2.4585);
#239=ADVANCED_FACE('',(#23),#233,.F.);
#240=ADVANCED_FACE('',(#24),#17,.T.);
#241=ADVANCED_FACE('',(#25),#18,.F.);
#242=ADVANCED_FACE('',(#26),#234,.T.);
#243=ADVANCED_FACE('',(#27),#235,.T.);
#244=ADVANCED_FACE('',(#28),#19,.F.);
#245=ADVANCED_FACE('',(#29),#236,.T.);
#246=ADVANCED_FACE('',(#30),#20,.F.);
#247=ADVANCED_FACE('',(#31),#21,.F.);
#248=ADVANCED_FACE('',(#32),#237,.T.);
#249=ADVANCED_FACE('',(#33,#15,#16),#22,.F.);
#250=ADVANCED_FACE('',(#34),#238,.F.);
#251=CLOSED_SHELL('',(#239,#240,#241,#242,#243,#244,#245,#246,#247,#248,
#249,#250));
#252=DERIVED_UNIT_ELEMENT(#254,1.);
#253=DERIVED_UNIT_ELEMENT(#505,-3.);
#254=(
MASS_UNIT()
NAMED_UNIT(*)
SI_UNIT($,.GRAM.)
);
#255=DERIVED_UNIT((#252,#253));
#256=MEASURE_REPRESENTATION_ITEM('density measure',
POSITIVE_RATIO_MEASURE(1.),#255);
#257=PROPERTY_DEFINITION_REPRESENTATION(#262,#259);
#258=PROPERTY_DEFINITION_REPRESENTATION(#263,#260);
#259=REPRESENTATION('material name',(#261),#502);
#260=REPRESENTATION('density',(#256),#502);
#261=DESCRIPTIVE_REPRESENTATION_ITEM('Generic','Generic');
#262=PROPERTY_DEFINITION('material property','material name',#512);
#263=PROPERTY_DEFINITION('material property','density of part',#512);
#264=DATE_TIME_ROLE('creation_date');
#265=APPLIED_DATE_AND_TIME_ASSIGNMENT(#266,#264,(#512));
#266=DATE_AND_TIME(#267,#268);
#267=CALENDAR_DATE(2022,4,5);
#268=LOCAL_TIME(11,29,10.,#269);
#269=COORDINATED_UNIVERSAL_TIME_OFFSET(0,0,.BEHIND.);
#270=AXIS2_PLACEMENT_3D('placement',#373,#299,#300);
#271=AXIS2_PLACEMENT_3D('',#374,#301,#302);
#272=AXIS2_PLACEMENT_3D('',#376,#303,#304);
#273=AXIS2_PLACEMENT_3D('',#380,#306,#307);
#274=AXIS2_PLACEMENT_3D('',#398,#308,#309);
#275=AXIS2_PLACEMENT_3D('',#414,#310,#311);
#276=AXIS2_PLACEMENT_3D('',#415,#312,#313);
#277=AXIS2_PLACEMENT_3D('',#420,#315,#316);
#278=AXIS2_PLACEMENT_3D('',#422,#317,#318);
#279=AXIS2_PLACEMENT_3D('',#426,#320,#321);
#280=AXIS2_PLACEMENT_3D('',#427,#322,#323);
#281=AXIS2_PLACEMENT_3D('',#428,#324,#325);
#282=AXIS2_PLACEMENT_3D('',#433,#327,#328);
#283=AXIS2_PLACEMENT_3D('',#435,#329,#330);
#284=AXIS2_PLACEMENT_3D('',#439,#332,#333);
#285=AXIS2_PLACEMENT_3D('',#440,#334,#335);
#286=AXIS2_PLACEMENT_3D('',#441,#336,#337);
#287=AXIS2_PLACEMENT_3D('',#444,#340,#341);
#288=AXIS2_PLACEMENT_3D('',#465,#345,#346);
#289=AXIS2_PLACEMENT_3D('',#467,#348,#349);
#290=AXIS2_PLACEMENT_3D('',#470,#352,#353);
#291=AXIS2_PLACEMENT_3D('',#472,#354,#355);
#292=AXIS2_PLACEMENT_3D('',#474,#356,#357);
#293=AXIS2_PLACEMENT_3D('',#476,#359,#360);
#294=AXIS2_PLACEMENT_3D('',#478,#361,#362);
#295=AXIS2_PLACEMENT_3D('',#480,#364,#365);
#296=AXIS2_PLACEMENT_3D('',#495,#366,#367);
#297=AXIS2_PLACEMENT_3D('',#497,#368,#369);
#298=AXIS2_PLACEMENT_3D('',#498,#370,#371);
#299=DIRECTION('axis',(0.,0.,1.));
#300=DIRECTION('refdir',(1.,0.,0.));
#301=DIRECTION('center_axis',(0.,0.,-1.));
#302=DIRECTION('ref_axis',(1.,0.,0.));
#303=DIRECTION('center_axis',(0.,0.,1.));
#304=DIRECTION('ref_axis',(1.,0.,0.));
#305=DIRECTION('',(0.,0.,-1.));
#306=DIRECTION('center_axis',(0.,0.,1.));
#307=DIRECTION('ref_axis',(1.,0.,0.));
#308=DIRECTION('center_axis',(0.,0.,1.));
#309=DIRECTION('ref_axis',(1.,0.,0.));
#310=DIRECTION('center_axis',(0.,0.,1.));
#311=DIRECTION('ref_axis',(1.,0.,0.));
#312=DIRECTION('center_axis',(1.,0.,0.));
#313=DIRECTION('ref_axis',(0.,0.,-1.));
#314=DIRECTION('',(0.,-1.,0.));
#315=DIRECTION('center_axis',(1.,0.,0.));
#316=DIRECTION('ref_axis',(0.,0.,-1.));
#317=DIRECTION('center_axis',(1.,0.,0.));
#318=DIRECTION('ref_axis',(0.,0.,-1.));
#319=DIRECTION('',(0.,1.,0.));
#320=DIRECTION('center_axis',(1.,0.,0.));
#321=DIRECTION('ref_axis',(0.,0.,-1.));
#322=DIRECTION('center_axis',(1.,0.,0.));
#323=DIRECTION('ref_axis',(0.,0.,-1.));
#324=DIRECTION('center_axis',(1.,0.,0.));
#325=DIRECTION('ref_axis',(0.,0.,-1.));
#326=DIRECTION('',(0.,-1.,0.));
#327=DIRECTION('center_axis',(1.,0.,0.));
#328=DIRECTION('ref_axis',(0.,0.,-1.));
#329=DIRECTION('center_axis',(1.,0.,0.));
#330=DIRECTION('ref_axis',(0.,0.,-1.));
#331=DIRECTION('',(0.,1.,0.));
#332=DIRECTION('center_axis',(1.,0.,0.));
#333=DIRECTION('ref_axis',(0.,0.,-1.));
#334=DIRECTION('center_axis',(1.,0.,0.));
#335=DIRECTION('ref_axis',(0.,0.,-1.));
#336=DIRECTION('center_axis',(1.,0.,0.));
#337=DIRECTION('ref_axis',(0.,0.,1.));
#338=DIRECTION('',(-1.,0.,0.));
#339=DIRECTION('',(-1.,0.,0.));
#340=DIRECTION('center_axis',(1.,0.,0.));
#341=DIRECTION('ref_axis',(0.,0.,1.));
#342=DIRECTION('',(-1.,0.,0.));
#343=DIRECTION('',(-1.,0.,0.));
#344=DIRECTION('',(-1.,0.,0.));
#345=DIRECTION('center_axis',(0.,0.,1.));
#346=DIRECTION('ref_axis',(1.,0.,0.));
#347=DIRECTION('',(-1.,0.,0.));
#348=DIRECTION('center_axis',(1.,0.,0.));
#349=DIRECTION('ref_axis',(0.,0.,1.));
#350=DIRECTION('',(-1.,0.,0.));
#351=DIRECTION('',(-1.,0.,0.));
#352=DIRECTION('center_axis',(0.,0.,1.));
#353=DIRECTION('ref_axis',(1.,0.,0.));
#354=DIRECTION('center_axis',(0.,0.,1.));
#355=DIRECTION('ref_axis',(1.,0.,0.));
#356=DIRECTION('center_axis',(0.,0.,1.));
#357=DIRECTION('ref_axis',(1.,0.,0.));
#358=DIRECTION('',(-1.,0.,0.));
#359=DIRECTION('center_axis',(0.,0.,1.));
#360=DIRECTION('ref_axis',(1.,0.,0.));
#361=DIRECTION('center_axis',(0.,0.,1.));
#362=DIRECTION('ref_axis',(1.,0.,0.));
#363=DIRECTION('',(-1.,0.,0.));
#364=DIRECTION('center_axis',(1.,0.,0.));
#365=DIRECTION('ref_axis',(0.,0.,1.));
#366=DIRECTION('center_axis',(0.,0.,-1.));
#367=DIRECTION('ref_axis',(-1.,0.,0.));
#368=DIRECTION('center_axis',(0.,0.,1.));
#369=DIRECTION('ref_axis',(1.,0.,0.));
#370=DIRECTION('center_axis',(0.,0.,-1.));
#371=DIRECTION('ref_axis',(1.,0.,0.));
#372=DIRECTION('',(0.,0.,-1.));
#373=CARTESIAN_POINT('',(0.,0.,0.));
#374=CARTESIAN_POINT('Origin',(33.2,0.,0.));
#375=CARTESIAN_POINT('',(30.7415,3.01079415570377E-16,0.));
#376=CARTESIAN_POINT('Origin',(33.2,0.,0.));
#377=CARTESIAN_POINT('',(30.7415,3.01079415570377E-16,-7.00000000000007));
#378=CARTESIAN_POINT('',(30.7415,3.01079415570377E-16,0.));
#379=CARTESIAN_POINT('',(31.2517945028233,1.49957246932935,-7.));
#380=CARTESIAN_POINT('Origin',(33.2,0.,-7.));
#381=CARTESIAN_POINT('',(35.1482054971767,1.49957246932935,-7.));
#382=CARTESIAN_POINT('Ctrl Pts',(31.2517945028233,1.49957246932936,-7.00000000000004));
#383=CARTESIAN_POINT('Ctrl Pts',(31.3338618053211,1.60619217136763,-6.92824013844914));
#384=CARTESIAN_POINT('Ctrl Pts',(31.4241207144695,1.70522322819187,-6.85958394980979));
#385=CARTESIAN_POINT('Ctrl Pts',(31.7241881976554,1.98601535701639,-6.66066672107913));
#386=CARTESIAN_POINT('Ctrl Pts',(31.9839375693219,2.15967327725269,-6.5302429856671));
#387=CARTESIAN_POINT('Ctrl Pts',(32.5663299021804,2.39613384915443,-6.34809548511948));
#388=CARTESIAN_POINT('Ctrl Pts',(32.8896086141395,2.4585,-6.29784157234295));
#389=CARTESIAN_POINT('Ctrl Pts',(33.2,2.4585,-6.29784157234295));
#390=CARTESIAN_POINT('Ctrl Pts',(33.5103913858605,2.4585,-6.29784157234295));
#391=CARTESIAN_POINT('Ctrl Pts',(33.8336700978196,2.39613384915443,-6.34809548511948));
#392=CARTESIAN_POINT('Ctrl Pts',(34.4160624306781,2.15967327725269,-6.53024298566711));
#393=CARTESIAN_POINT('Ctrl Pts',(34.6758118023446,1.98601535701639,-6.66066672107913));
#394=CARTESIAN_POINT('Ctrl Pts',(34.9758792855305,1.70522322819187,-6.85958394980979));
#395=CARTESIAN_POINT('Ctrl Pts',(35.0661381946789,1.60619217136763,-6.92824013844914));
#396=CARTESIAN_POINT('Ctrl Pts',(35.1482054971767,1.49957246932937,-7.00000000000004));
#397=CARTESIAN_POINT('',(35.1482054971767,-1.49957246932935,-7.));
#398=CARTESIAN_POINT('Origin',(33.2,0.,-7.));
#399=CARTESIAN_POINT('',(31.2517945028233,-1.49957246932935,-7.));
#400=CARTESIAN_POINT('Ctrl Pts',(35.1482054971767,-1.49957246932938,-7.00000000000007));
#401=CARTESIAN_POINT('Ctrl Pts',(35.0661381946789,-1.60619217136764,-6.92824013844918));
#402=CARTESIAN_POINT('Ctrl Pts',(34.9758792855305,-1.70522322819187,-6.85958394980983));
#403=CARTESIAN_POINT('Ctrl Pts',(34.6758118023446,-1.98601535701639,-6.66066672107917));
#404=CARTESIAN_POINT('Ctrl Pts',(34.4160624306781,-2.15967327725269,-6.53024298566715));
#405=CARTESIAN_POINT('Ctrl Pts',(33.8336700978196,-2.39613384915443,-6.34809548511952));
#406=CARTESIAN_POINT('Ctrl Pts',(33.5103913858605,-2.4585,-6.297841572343));
#407=CARTESIAN_POINT('Ctrl Pts',(32.8896086141395,-2.4585,-6.297841572343));
#408=CARTESIAN_POINT('Ctrl Pts',(32.5663299021804,-2.39613384915443,-6.34809548511952));
#409=CARTESIAN_POINT('Ctrl Pts',(31.9839375693219,-2.15967327725269,-6.53024298566715));
#410=CARTESIAN_POINT('Ctrl Pts',(31.7241881976554,-1.98601535701639,-6.66066672107917));
#411=CARTESIAN_POINT('Ctrl Pts',(31.4241207144695,-1.70522322819187,-6.85958394980983));
#412=CARTESIAN_POINT('Ctrl Pts',(31.3338618053211,-1.60619217136764,-6.92824013844917));
#413=CARTESIAN_POINT('Ctrl Pts',(31.2517945028233,-1.49957246932938,-7.00000000000007));
#414=CARTESIAN_POINT('Origin',(33.2,0.,-7.));
#415=CARTESIAN_POINT('Origin',(38.,-6.34988954724101,-0.5));
#416=CARTESIAN_POINT('',(38.,6.349889547241,3.25260651745651E-16));
#417=CARTESIAN_POINT('',(38.,-6.349889547241,0.));
#418=CARTESIAN_POINT('',(38.,6.349889547241,0.));
#419=CARTESIAN_POINT('',(38.,-6.8059478074907,-0.70496551724138));
#420=CARTESIAN_POINT('Origin',(38.,-6.34988954724101,-0.5));
#421=CARTESIAN_POINT('',(38.,-1.49957246932935,-7.));
#422=CARTESIAN_POINT('Origin',(38.,6.87579999999994,5.44399999999995));
#423=CARTESIAN_POINT('',(38.,1.49957246932935,-7.));
#424=CARTESIAN_POINT('',(38.,-1.49957246932935,-7.));
#425=CARTESIAN_POINT('',(38.,6.80594780749069,-0.704965517241381));
#426=CARTESIAN_POINT('Origin',(38.,-6.87579999999997,5.44399999999997));
#427=CARTESIAN_POINT('Origin',(38.,6.349889547241,-0.500000000000001));
#428=CARTESIAN_POINT('Origin',(-38.,-6.34988954724101,-0.5));
#429=CARTESIAN_POINT('',(-38.,6.349889547241,3.25260651745651E-16));
#430=CARTESIAN_POINT('',(-38.,-6.349889547241,0.));
#431=CARTESIAN_POINT('',(-38.,6.349889547241,0.));
#432=CARTESIAN_POINT('',(-38.,6.80594780749069,-0.704965517241381));
#433=CARTESIAN_POINT('Origin',(-38.,6.349889547241,-0.500000000000001));
#434=CARTESIAN_POINT('',(-38.,1.49957246932935,-7.));
#435=CARTESIAN_POINT('Origin',(-38.,-6.87579999999997,5.44399999999997));
#436=CARTESIAN_POINT('',(-38.,-1.49957246932935,-7.));
#437=CARTESIAN_POINT('',(-38.,-1.49957246932935,-7.));
#438=CARTESIAN_POINT('',(-38.,-6.8059478074907,-0.70496551724138));
#439=CARTESIAN_POINT('Origin',(-38.,6.87579999999994,5.44399999999995));
#440=CARTESIAN_POINT('Origin',(-38.,-6.34988954724101,-0.5));
#441=CARTESIAN_POINT('Origin',(38.,6.349889547241,-0.500000000000001));
#442=CARTESIAN_POINT('',(38.,6.349889547241,3.25260651745651E-16));
#443=CARTESIAN_POINT('',(38.,6.80594780749069,-0.704965517241381));
#444=CARTESIAN_POINT('Origin',(38.,-6.87579999999997,5.44399999999997));
#445=CARTESIAN_POINT('',(-35.1482054971767,1.49957246932935,-7.));
#446=CARTESIAN_POINT('',(-31.2517945028233,1.49957246932935,-7.));
#447=CARTESIAN_POINT('Ctrl Pts',(-35.1482054971767,1.49957246932936,-7.00000000000004));
#448=CARTESIAN_POINT('Ctrl Pts',(-35.0661381946789,1.60619217136763,-6.92824013844914));
#449=CARTESIAN_POINT('Ctrl Pts',(-34.9758792855305,1.70522322819187,-6.85958394980979));
#450=CARTESIAN_POINT('Ctrl Pts',(-34.6758118023446,1.98601535701639,-6.66066672107913));
#451=CARTESIAN_POINT('Ctrl Pts',(-34.4160624306781,2.15967327725269,-6.5302429856671));
#452=CARTESIAN_POINT('Ctrl Pts',(-33.8336700978196,2.39613384915443,-6.34809548511948));
#453=CARTESIAN_POINT('Ctrl Pts',(-33.5103913858605,2.4585,-6.29784157234295));
#454=CARTESIAN_POINT('Ctrl Pts',(-33.2,2.4585,-6.29784157234295));
#455=CARTESIAN_POINT('Ctrl Pts',(-32.8896086141395,2.4585,-6.29784157234295));
#456=CARTESIAN_POINT('Ctrl Pts',(-32.5663299021804,2.39613384915443,-6.34809548511947));
#457=CARTESIAN_POINT('Ctrl Pts',(-31.9839375693219,2.15967327725269,-6.5302429856671));
#458=CARTESIAN_POINT('Ctrl Pts',(-31.7241881976554,1.98601535701639,-6.66066672107913));
#459=CARTESIAN_POINT('Ctrl Pts',(-31.4241207144695,1.70522322819187,-6.85958394980979));
#460=CARTESIAN_POINT('Ctrl Pts',(-31.3338618053211,1.60619217136763,-6.92824013844914));
#461=CARTESIAN_POINT('Ctrl Pts',(-31.2517945028233,1.49957246932936,-7.00000000000004));
#462=CARTESIAN_POINT('',(38.,1.49957246932935,-7.));
#463=CARTESIAN_POINT('',(38.,1.49957246932935,-7.));
#464=CARTESIAN_POINT('',(38.,1.49957246932935,-7.));
#465=CARTESIAN_POINT('Origin',(38.,-1.49957246932935,-7.));
#466=CARTESIAN_POINT('',(38.,-1.49957246932935,-7.));
#467=CARTESIAN_POINT('Origin',(38.,-6.34988954724101,-0.5));
#468=CARTESIAN_POINT('',(38.,-6.8059478074907,-0.70496551724138));
#469=CARTESIAN_POINT('',(38.,-6.349889547241,0.));
#470=CARTESIAN_POINT('Origin',(38.,-1.49957246932935,-7.));
#471=CARTESIAN_POINT('',(-35.6585,3.01079415570377E-16,-7.00000000000007));
#472=CARTESIAN_POINT('Origin',(-33.2,0.,-7.));
#473=CARTESIAN_POINT('',(-35.1482054971767,-1.49957246932935,-7.));
#474=CARTESIAN_POINT('Origin',(-33.2,0.,-7.));
#475=CARTESIAN_POINT('',(38.,-1.49957246932935,-7.));
#476=CARTESIAN_POINT('Origin',(38.,-1.49957246932935,-7.));
#477=CARTESIAN_POINT('',(-31.2517945028233,-1.49957246932935,-7.));
#478=CARTESIAN_POINT('Origin',(-33.2,0.,-7.));
#479=CARTESIAN_POINT('',(38.,-1.49957246932935,-7.));
#480=CARTESIAN_POINT('Origin',(38.,6.87579999999994,5.44399999999995));
#481=CARTESIAN_POINT('Ctrl Pts',(-31.2517945028233,-1.49957246932938,-7.00000000000007));
#482=CARTESIAN_POINT('Ctrl Pts',(-31.3338618053211,-1.60619217136764,-6.92824013844918));
#483=CARTESIAN_POINT('Ctrl Pts',(-31.4241207144695,-1.70522322819187,-6.85958394980983));
#484=CARTESIAN_POINT('Ctrl Pts',(-31.7241881976554,-1.98601535701639,-6.66066672107917));
#485=CARTESIAN_POINT('Ctrl Pts',(-31.9839375693219,-2.15967327725269,-6.53024298566714));
#486=CARTESIAN_POINT('Ctrl Pts',(-32.5663299021804,-2.39613384915443,-6.34809548511952));
#487=CARTESIAN_POINT('Ctrl Pts',(-32.8896086141395,-2.4585,-6.297841572343));
#488=CARTESIAN_POINT('Ctrl Pts',(-33.5103913858605,-2.4585,-6.297841572343));
#489=CARTESIAN_POINT('Ctrl Pts',(-33.8336700978196,-2.39613384915443,-6.34809548511952));
#490=CARTESIAN_POINT('Ctrl Pts',(-34.4160624306781,-2.15967327725269,-6.53024298566715));
#491=CARTESIAN_POINT('Ctrl Pts',(-34.6758118023446,-1.98601535701639,-6.66066672107917));
#492=CARTESIAN_POINT('Ctrl Pts',(-34.9758792855305,-1.70522322819187,-6.85958394980982));
#493=CARTESIAN_POINT('Ctrl Pts',(-35.0661381946789,-1.60619217136763,-6.92824013844918));
#494=CARTESIAN_POINT('Ctrl Pts',(-35.1482054971767,-1.49957246932938,-7.00000000000007));
#495=CARTESIAN_POINT('Origin',(38.,6.349889547241,0.));
#496=CARTESIAN_POINT('',(-35.6585,3.01079415570377E-16,0.));
#497=CARTESIAN_POINT('Origin',(-33.2,0.,0.));
#498=CARTESIAN_POINT('Origin',(-33.2,0.,0.));
#499=CARTESIAN_POINT('',(-35.6585,3.01079415570377E-16,0.));
#500=UNCERTAINTY_MEASURE_WITH_UNIT(LENGTH_MEASURE(0.01),#504,
'DISTANCE_ACCURACY_VALUE',
'Maximum model space distance between geometric entities at asserted c
onnectivities');
#501=UNCERTAINTY_MEASURE_WITH_UNIT(LENGTH_MEASURE(0.01),#504,
'DISTANCE_ACCURACY_VALUE',
'Maximum model space distance between geometric entities at asserted c
onnectivities');
#502=(
GEOMETRIC_REPRESENTATION_CONTEXT(3)
GLOBAL_UNCERTAINTY_ASSIGNED_CONTEXT((#500))
GLOBAL_UNIT_ASSIGNED_CONTEXT((#504,#506,#507))
REPRESENTATION_CONTEXT('','3D')
);
#503=(
GEOMETRIC_REPRESENTATION_CONTEXT(3)
GLOBAL_UNCERTAINTY_ASSIGNED_CONTEXT((#501))
GLOBAL_UNIT_ASSIGNED_CONTEXT((#504,#506,#507))
REPRESENTATION_CONTEXT('','3D')
);
#504=(
LENGTH_UNIT()
NAMED_UNIT(*)
SI_UNIT(.MILLI.,.METRE.)
);
#505=(
LENGTH_UNIT()
NAMED_UNIT(*)
SI_UNIT(.CENTI.,.METRE.)
);
#506=(
NAMED_UNIT(*)
PLANE_ANGLE_UNIT()
SI_UNIT($,.RADIAN.)
);
#507=(
NAMED_UNIT(*)
SI_UNIT($,.STERADIAN.)
SOLID_ANGLE_UNIT()
);
#508=SHAPE_DEFINITION_REPRESENTATION(#509,#510);
#509=PRODUCT_DEFINITION_SHAPE('',$,#512);
#510=SHAPE_REPRESENTATION('',(#270),#502);
#511=PRODUCT_DEFINITION_CONTEXT('part definition',#516,'design');
#512=PRODUCT_DEFINITION('1025051','1025051',#513,#511);
#513=PRODUCT_DEFINITION_FORMATION(' NONE',$,#518);
#514=PRODUCT_RELATED_PRODUCT_CATEGORY('1025051','1025051',(#518));
#515=APPLICATION_PROTOCOL_DEFINITION('international standard',
'automotive_design',2009,#516);
#516=APPLICATION_CONTEXT(
'Core Data for Automotive Mechanical Design Process');
#517=PRODUCT_CONTEXT('part definition',#516,'mechanical');
#518=PRODUCT('1025051','1025051','STEP AP214',(#517));
#519=PRESENTATION_STYLE_ASSIGNMENT((#521));
#520=PRESENTATION_STYLE_ASSIGNMENT((#522));
#521=SURFACE_STYLE_USAGE(.BOTH.,#527);
#522=SURFACE_STYLE_USAGE(.BOTH.,#528);
#523=SURFACE_STYLE_RENDERING_WITH_PROPERTIES($,#535,(#525));
#524=SURFACE_STYLE_RENDERING_WITH_PROPERTIES($,#536,(#526));
#525=SURFACE_STYLE_TRANSPARENT(0.);
#526=SURFACE_STYLE_TRANSPARENT(0.);
#527=SURFACE_SIDE_STYLE('',(#529,#523));
#528=SURFACE_SIDE_STYLE('',(#530,#524));
#529=SURFACE_STYLE_FILL_AREA(#531);
#530=SURFACE_STYLE_FILL_AREA(#532);
#531=FILL_AREA_STYLE('',(#533));
#532=FILL_AREA_STYLE('',(#534));
#533=FILL_AREA_STYLE_COLOUR('',#535);
#534=FILL_AREA_STYLE_COLOUR('',#536);
#535=COLOUR_RGB('',0.749019607843137,0.749019607843137,0.749019607843137);
#536=COLOUR_RGB('',0.729411764705882,0.768627450980392,0.784313725490196);
ENDSEC;
END-ISO-10303-21;
