ISO-10303-21;
HEADER;
/* Generated by software containing ST-Developer
 * from STEP Tools, Inc. (www.steptools.com) 
 */

FILE_DESCRIPTION(
/* description */ ('STEP AP214'),
/* implementation_level */ '2;1');

FILE_NAME(
/* name */ 
'C:\\Users\\b.steehouwer\\Desktop\\Producten\\ISB profielsysteem\\CAD-
files\\Bevestigingsmaterialen\\T-sleuf moer dubbel\\1025052.stp',
/* time_stamp */ '2024-05-01T08:56:13+02:00',
/* author */ ('b.steehouwer'),
/* organization */ (''),
/* preprocessor_version */ 'ST-DEVELOPER v18.1',
/* originating_system */ 'Autodesk Inventor 2021',
/* authorisation */ '');

FILE_SCHEMA (('AUTOMOTIVE_DESIGN { 1 0 10303 214 3 1 1 }'));
ENDSEC;

DATA;
#10=MECHANICAL_DESIGN_GEOMETRIC_PRESENTATION_REPRESENTATION('',(#13),#503);
#11=SHAPE_REPRESENTATION_RELATIONSHIP('SRR','None',#510,#12);
#12=ADVANCED_BREP_SHAPE_REPRESENTATION('',(#14),#502);
#13=STYLED_ITEM('',(#519),#14);
#14=MANIFOLD_SOLID_BREP('Solid1',#251);
#15=FACE_BOUND('',#42,.T.);
#16=FACE_BOUND('',#43,.T.);
#17=PLANE('',#284);
#18=PLANE('',#285);
#19=PLANE('',#289);
#20=PLANE('',#293);
#21=PLANE('',#297);
#22=PLANE('',#298);
#23=FACE_OUTER_BOUND('',#35,.T.);
#24=FACE_OUTER_BOUND('',#36,.T.);
#25=FACE_OUTER_BOUND('',#37,.T.);
#26=FACE_OUTER_BOUND('',#38,.T.);
#27=FACE_OUTER_BOUND('',#39,.T.);
#28=FACE_OUTER_BOUND('',#40,.T.);
#29=FACE_OUTER_BOUND('',#41,.T.);
#30=FACE_OUTER_BOUND('',#44,.T.);
#31=FACE_OUTER_BOUND('',#45,.T.);
#32=FACE_OUTER_BOUND('',#46,.T.);
#33=FACE_OUTER_BOUND('',#47,.T.);
#34=FACE_OUTER_BOUND('',#48,.T.);
#35=EDGE_LOOP('',(#161,#162,#163,#164,#165,#166,#167,#168));
#36=EDGE_LOOP('',(#169,#170,#171,#172,#173,#174,#175,#176));
#37=EDGE_LOOP('',(#177,#178,#179,#180));
#38=EDGE_LOOP('',(#181,#182,#183,#184));
#39=EDGE_LOOP('',(#185,#186,#187,#188,#189));
#40=EDGE_LOOP('',(#190,#191,#192,#193));
#41=EDGE_LOOP('',(#194,#195,#196,#197));
#42=EDGE_LOOP('',(#198));
#43=EDGE_LOOP('',(#199));
#44=EDGE_LOOP('',(#200,#201,#202,#203,#204,#205,#206,#207));
#45=EDGE_LOOP('',(#208,#209,#210,#211,#212));
#46=EDGE_LOOP('',(#213,#214,#215,#216,#217,#218,#219,#220));
#47=EDGE_LOOP('',(#221,#222,#223,#224,#225,#226));
#48=EDGE_LOOP('',(#227,#228,#229,#230,#231,#232));
#49=B_SPLINE_CURVE_WITH_KNOTS('',3,(#382,#383,#384,#385,#386,#387,#388,
#389,#390,#391,#392,#393,#394,#395,#396),.UNSPECIFIED.,.F.,.F.,(4,2,2,3,
2,2,4),(-0.380964608871199,-0.266057621332052,-0.133028810666026,0.,0.125958477697403,
0.251916955394805,0.380226844708579),.UNSPECIFIED.);
#50=B_SPLINE_CURVE_WITH_KNOTS('',3,(#400,#401,#402,#403,#404,#405,#406,
#407,#408,#409,#410,#411,#412,#413),.UNSPECIFIED.,.F.,.F.,(4,2,2,2,2,2,
4),(-1.44853036536258,-1.3202204760488,-1.1942619983514,-1.068303520654,
-0.935274709987972,-0.802245899321946,-0.6873389117828),.UNSPECIFIED.);
#51=B_SPLINE_CURVE_WITH_KNOTS('',3,(#423,#424,#425,#426,#427,#428,#429,
#430,#431,#432,#433,#434,#435,#436,#437),.UNSPECIFIED.,.F.,.F.,(4,2,2,3,
2,2,4),(-0.380226844708579,-0.251916955394806,-0.125958477697403,0.,0.125958477697403,
0.251916955394805,0.380226844708579),.UNSPECIFIED.);
#52=B_SPLINE_CURVE_WITH_KNOTS('',3,(#441,#442,#443,#444,#445,#446,#447,
#448,#449,#450,#451,#452,#453,#454),.UNSPECIFIED.,.F.,.F.,(4,2,2,2,2,2,
4),(-1.44826190157288,-1.31995201225911,-1.19399353456171,-1.0680350568643,
-0.9420765791669,-0.816118101469498,-0.687808212155726),.UNSPECIFIED.);
#53=LINE('',#378,#69);
#54=LINE('',#419,#70);
#55=LINE('',#461,#71);
#56=LINE('',#464,#72);
#57=LINE('',#467,#73);
#58=LINE('',#469,#74);
#59=LINE('',#470,#75);
#60=LINE('',#472,#76);
#61=LINE('',#473,#77);
#62=LINE('',#479,#78);
#63=LINE('',#482,#79);
#64=LINE('',#484,#80);
#65=LINE('',#485,#81);
#66=LINE('',#488,#82);
#67=LINE('',#493,#83);
#68=LINE('',#494,#84);
#69=VECTOR('',#305,3.3);
#70=VECTOR('',#316,3.3);
#71=VECTOR('',#327,1000.);
#72=VECTOR('',#330,1000.);
#73=VECTOR('',#333,1000.);
#74=VECTOR('',#334,1000.);
#75=VECTOR('',#335,1000.);
#76=VECTOR('',#338,1000.);
#77=VECTOR('',#339,1000.);
#78=VECTOR('',#344,1000.);
#79=VECTOR('',#347,1000.);
#80=VECTOR('',#350,1000.);
#81=VECTOR('',#351,1000.);
#82=VECTOR('',#354,1000.);
#83=VECTOR('',#361,1000.);
#84=VECTOR('',#362,1000.);
#85=CIRCLE('',#272,3.3);
#86=CIRCLE('',#273,3.3);
#87=CIRCLE('',#274,3.3);
#88=CIRCLE('',#275,3.3);
#89=CIRCLE('',#277,3.3);
#90=CIRCLE('',#278,3.3);
#91=CIRCLE('',#279,3.3);
#92=CIRCLE('',#280,3.3);
#93=CIRCLE('',#282,0.5);
#94=CIRCLE('',#283,0.5);
#95=CIRCLE('',#287,0.5);
#96=CIRCLE('',#288,0.5);
#97=CIRCLE('',#291,15.);
#98=CIRCLE('',#292,15.);
#99=CIRCLE('',#295,15.);
#100=CIRCLE('',#296,15.);
#101=VERTEX_POINT('',#375);
#102=VERTEX_POINT('',#377);
#103=VERTEX_POINT('',#379);
#104=VERTEX_POINT('',#381);
#105=VERTEX_POINT('',#397);
#106=VERTEX_POINT('',#399);
#107=VERTEX_POINT('',#416);
#108=VERTEX_POINT('',#418);
#109=VERTEX_POINT('',#420);
#110=VERTEX_POINT('',#422);
#111=VERTEX_POINT('',#438);
#112=VERTEX_POINT('',#440);
#113=VERTEX_POINT('',#457);
#114=VERTEX_POINT('',#458);
#115=VERTEX_POINT('',#460);
#116=VERTEX_POINT('',#462);
#117=VERTEX_POINT('',#466);
#118=VERTEX_POINT('',#468);
#119=VERTEX_POINT('',#475);
#120=VERTEX_POINT('',#476);
#121=VERTEX_POINT('',#478);
#122=VERTEX_POINT('',#480);
#123=VERTEX_POINT('',#487);
#124=VERTEX_POINT('',#492);
#125=EDGE_CURVE('',#101,#101,#85,.T.);
#126=EDGE_CURVE('',#101,#102,#53,.T.);
#127=EDGE_CURVE('',#102,#103,#86,.T.);
#128=EDGE_CURVE('',#104,#103,#49,.T.);
#129=EDGE_CURVE('',#104,#105,#87,.T.);
#130=EDGE_CURVE('',#106,#105,#50,.T.);
#131=EDGE_CURVE('',#106,#102,#88,.T.);
#132=EDGE_CURVE('',#107,#107,#89,.T.);
#133=EDGE_CURVE('',#107,#108,#54,.T.);
#134=EDGE_CURVE('',#108,#109,#90,.T.);
#135=EDGE_CURVE('',#110,#109,#51,.T.);
#136=EDGE_CURVE('',#110,#111,#91,.T.);
#137=EDGE_CURVE('',#112,#111,#52,.T.);
#138=EDGE_CURVE('',#112,#108,#92,.T.);
#139=EDGE_CURVE('',#113,#114,#93,.T.);
#140=EDGE_CURVE('',#113,#115,#55,.T.);
#141=EDGE_CURVE('',#115,#116,#94,.T.);
#142=EDGE_CURVE('',#114,#116,#56,.T.);
#143=EDGE_CURVE('',#105,#117,#57,.T.);
#144=EDGE_CURVE('',#104,#118,#58,.T.);
#145=EDGE_CURVE('',#118,#117,#59,.T.);
#146=EDGE_CURVE('',#110,#103,#60,.T.);
#147=EDGE_CURVE('',#111,#106,#61,.T.);
#148=EDGE_CURVE('',#119,#120,#95,.T.);
#149=EDGE_CURVE('',#121,#120,#62,.T.);
#150=EDGE_CURVE('',#122,#121,#96,.T.);
#151=EDGE_CURVE('',#122,#119,#63,.T.);
#152=EDGE_CURVE('',#120,#115,#64,.T.);
#153=EDGE_CURVE('',#121,#113,#65,.T.);
#154=EDGE_CURVE('',#123,#109,#66,.T.);
#155=EDGE_CURVE('',#114,#123,#97,.T.);
#156=EDGE_CURVE('',#116,#118,#98,.T.);
#157=EDGE_CURVE('',#124,#112,#67,.T.);
#158=EDGE_CURVE('',#123,#124,#68,.T.);
#159=EDGE_CURVE('',#117,#119,#99,.T.);
#160=EDGE_CURVE('',#124,#122,#100,.T.);
#161=ORIENTED_EDGE('',*,*,#125,.F.);
#162=ORIENTED_EDGE('',*,*,#126,.T.);
#163=ORIENTED_EDGE('',*,*,#127,.T.);
#164=ORIENTED_EDGE('',*,*,#128,.F.);
#165=ORIENTED_EDGE('',*,*,#129,.T.);
#166=ORIENTED_EDGE('',*,*,#130,.F.);
#167=ORIENTED_EDGE('',*,*,#131,.T.);
#168=ORIENTED_EDGE('',*,*,#126,.F.);
#169=ORIENTED_EDGE('',*,*,#132,.F.);
#170=ORIENTED_EDGE('',*,*,#133,.T.);
#171=ORIENTED_EDGE('',*,*,#134,.T.);
#172=ORIENTED_EDGE('',*,*,#135,.F.);
#173=ORIENTED_EDGE('',*,*,#136,.T.);
#174=ORIENTED_EDGE('',*,*,#137,.F.);
#175=ORIENTED_EDGE('',*,*,#138,.T.);
#176=ORIENTED_EDGE('',*,*,#133,.F.);
#177=ORIENTED_EDGE('',*,*,#139,.F.);
#178=ORIENTED_EDGE('',*,*,#140,.T.);
#179=ORIENTED_EDGE('',*,*,#141,.T.);
#180=ORIENTED_EDGE('',*,*,#142,.F.);
#181=ORIENTED_EDGE('',*,*,#143,.F.);
#182=ORIENTED_EDGE('',*,*,#129,.F.);
#183=ORIENTED_EDGE('',*,*,#144,.T.);
#184=ORIENTED_EDGE('',*,*,#145,.T.);
#185=ORIENTED_EDGE('',*,*,#146,.T.);
#186=ORIENTED_EDGE('',*,*,#127,.F.);
#187=ORIENTED_EDGE('',*,*,#131,.F.);
#188=ORIENTED_EDGE('',*,*,#147,.F.);
#189=ORIENTED_EDGE('',*,*,#136,.F.);
#190=ORIENTED_EDGE('',*,*,#148,.T.);
#191=ORIENTED_EDGE('',*,*,#149,.F.);
#192=ORIENTED_EDGE('',*,*,#150,.F.);
#193=ORIENTED_EDGE('',*,*,#151,.T.);
#194=ORIENTED_EDGE('',*,*,#152,.T.);
#195=ORIENTED_EDGE('',*,*,#140,.F.);
#196=ORIENTED_EDGE('',*,*,#153,.F.);
#197=ORIENTED_EDGE('',*,*,#149,.T.);
#198=ORIENTED_EDGE('',*,*,#125,.T.);
#199=ORIENTED_EDGE('',*,*,#132,.T.);
#200=ORIENTED_EDGE('',*,*,#144,.F.);
#201=ORIENTED_EDGE('',*,*,#128,.T.);
#202=ORIENTED_EDGE('',*,*,#146,.F.);
#203=ORIENTED_EDGE('',*,*,#135,.T.);
#204=ORIENTED_EDGE('',*,*,#154,.F.);
#205=ORIENTED_EDGE('',*,*,#155,.F.);
#206=ORIENTED_EDGE('',*,*,#142,.T.);
#207=ORIENTED_EDGE('',*,*,#156,.T.);
#208=ORIENTED_EDGE('',*,*,#154,.T.);
#209=ORIENTED_EDGE('',*,*,#134,.F.);
#210=ORIENTED_EDGE('',*,*,#138,.F.);
#211=ORIENTED_EDGE('',*,*,#157,.F.);
#212=ORIENTED_EDGE('',*,*,#158,.F.);
#213=ORIENTED_EDGE('',*,*,#147,.T.);
#214=ORIENTED_EDGE('',*,*,#130,.T.);
#215=ORIENTED_EDGE('',*,*,#143,.T.);
#216=ORIENTED_EDGE('',*,*,#159,.T.);
#217=ORIENTED_EDGE('',*,*,#151,.F.);
#218=ORIENTED_EDGE('',*,*,#160,.F.);
#219=ORIENTED_EDGE('',*,*,#157,.T.);
#220=ORIENTED_EDGE('',*,*,#137,.T.);
#221=ORIENTED_EDGE('',*,*,#150,.T.);
#222=ORIENTED_EDGE('',*,*,#153,.T.);
#223=ORIENTED_EDGE('',*,*,#139,.T.);
#224=ORIENTED_EDGE('',*,*,#155,.T.);
#225=ORIENTED_EDGE('',*,*,#158,.T.);
#226=ORIENTED_EDGE('',*,*,#160,.T.);
#227=ORIENTED_EDGE('',*,*,#148,.F.);
#228=ORIENTED_EDGE('',*,*,#159,.F.);
#229=ORIENTED_EDGE('',*,*,#145,.F.);
#230=ORIENTED_EDGE('',*,*,#156,.F.);
#231=ORIENTED_EDGE('',*,*,#141,.F.);
#232=ORIENTED_EDGE('',*,*,#152,.F.);
#233=CYLINDRICAL_SURFACE('',#271,3.3);
#234=CYLINDRICAL_SURFACE('',#276,3.3);
#235=CYLINDRICAL_SURFACE('',#281,0.5);
#236=CYLINDRICAL_SURFACE('',#286,0.5);
#237=CYLINDRICAL_SURFACE('',#290,15.);
#238=CYLINDRICAL_SURFACE('',#294,15.);
#239=ADVANCED_FACE('',(#23),#233,.F.);
#240=ADVANCED_FACE('',(#24),#234,.F.);
#241=ADVANCED_FACE('',(#25),#235,.T.);
#242=ADVANCED_FACE('',(#26),#17,.F.);
#243=ADVANCED_FACE('',(#27),#18,.F.);
#244=ADVANCED_FACE('',(#28),#236,.T.);
#245=ADVANCED_FACE('',(#29,#15,#16),#19,.F.);
#246=ADVANCED_FACE('',(#30),#237,.T.);
#247=ADVANCED_FACE('',(#31),#20,.F.);
#248=ADVANCED_FACE('',(#32),#238,.T.);
#249=ADVANCED_FACE('',(#33),#21,.F.);
#250=ADVANCED_FACE('',(#34),#22,.T.);
#251=CLOSED_SHELL('',(#239,#240,#241,#242,#243,#244,#245,#246,#247,#248,
#249,#250));
#252=DERIVED_UNIT_ELEMENT(#254,1.);
#253=DERIVED_UNIT_ELEMENT(#505,-3.);
#254=(
MASS_UNIT()
NAMED_UNIT(*)
SI_UNIT($,.GRAM.)
);
#255=DERIVED_UNIT((#252,#253));
#256=MEASURE_REPRESENTATION_ITEM('density measure',
POSITIVE_RATIO_MEASURE(1.),#255);
#257=PROPERTY_DEFINITION_REPRESENTATION(#262,#259);
#258=PROPERTY_DEFINITION_REPRESENTATION(#263,#260);
#259=REPRESENTATION('material name',(#261),#502);
#260=REPRESENTATION('density',(#256),#502);
#261=DESCRIPTIVE_REPRESENTATION_ITEM('Generic','Generic');
#262=PROPERTY_DEFINITION('material property','material name',#512);
#263=PROPERTY_DEFINITION('material property','density of part',#512);
#264=DATE_TIME_ROLE('creation_date');
#265=APPLIED_DATE_AND_TIME_ASSIGNMENT(#266,#264,(#512));
#266=DATE_AND_TIME(#267,#268);
#267=CALENDAR_DATE(2014,18,8);
#268=LOCAL_TIME(9,22,25.,#269);
#269=COORDINATED_UNIVERSAL_TIME_OFFSET(0,0,.BEHIND.);
#270=AXIS2_PLACEMENT_3D('placement',#373,#299,#300);
#271=AXIS2_PLACEMENT_3D('',#374,#301,#302);
#272=AXIS2_PLACEMENT_3D('',#376,#303,#304);
#273=AXIS2_PLACEMENT_3D('',#380,#306,#307);
#274=AXIS2_PLACEMENT_3D('',#398,#308,#309);
#275=AXIS2_PLACEMENT_3D('',#414,#310,#311);
#276=AXIS2_PLACEMENT_3D('',#415,#312,#313);
#277=AXIS2_PLACEMENT_3D('',#417,#314,#315);
#278=AXIS2_PLACEMENT_3D('',#421,#317,#318);
#279=AXIS2_PLACEMENT_3D('',#439,#319,#320);
#280=AXIS2_PLACEMENT_3D('',#455,#321,#322);
#281=AXIS2_PLACEMENT_3D('',#456,#323,#324);
#282=AXIS2_PLACEMENT_3D('',#459,#325,#326);
#283=AXIS2_PLACEMENT_3D('',#463,#328,#329);
#284=AXIS2_PLACEMENT_3D('',#465,#331,#332);
#285=AXIS2_PLACEMENT_3D('',#471,#336,#337);
#286=AXIS2_PLACEMENT_3D('',#474,#340,#341);
#287=AXIS2_PLACEMENT_3D('',#477,#342,#343);
#288=AXIS2_PLACEMENT_3D('',#481,#345,#346);
#289=AXIS2_PLACEMENT_3D('',#483,#348,#349);
#290=AXIS2_PLACEMENT_3D('',#486,#352,#353);
#291=AXIS2_PLACEMENT_3D('',#489,#355,#356);
#292=AXIS2_PLACEMENT_3D('',#490,#357,#358);
#293=AXIS2_PLACEMENT_3D('',#491,#359,#360);
#294=AXIS2_PLACEMENT_3D('',#495,#363,#364);
#295=AXIS2_PLACEMENT_3D('',#496,#365,#366);
#296=AXIS2_PLACEMENT_3D('',#497,#367,#368);
#297=AXIS2_PLACEMENT_3D('',#498,#369,#370);
#298=AXIS2_PLACEMENT_3D('',#499,#371,#372);
#299=DIRECTION('axis',(0.,0.,1.));
#300=DIRECTION('refdir',(1.,0.,0.));
#301=DIRECTION('center_axis',(0.,-1.,0.));
#302=DIRECTION('ref_axis',(0.,0.,-1.));
#303=DIRECTION('center_axis',(0.,-1.,0.));
#304=DIRECTION('ref_axis',(0.,0.,-1.));
#305=DIRECTION('',(0.,-1.,0.));
#306=DIRECTION('center_axis',(0.,-1.,0.));
#307=DIRECTION('ref_axis',(0.,0.,-1.));
#308=DIRECTION('center_axis',(0.,-1.,0.));
#309=DIRECTION('ref_axis',(0.,0.,-1.));
#310=DIRECTION('center_axis',(0.,-1.,0.));
#311=DIRECTION('ref_axis',(0.,0.,-1.));
#312=DIRECTION('center_axis',(0.,-1.,0.));
#313=DIRECTION('ref_axis',(0.,0.,-1.));
#314=DIRECTION('center_axis',(0.,-1.,0.));
#315=DIRECTION('ref_axis',(0.,0.,-1.));
#316=DIRECTION('',(0.,-1.,0.));
#317=DIRECTION('center_axis',(0.,-1.,0.));
#318=DIRECTION('ref_axis',(0.,0.,-1.));
#319=DIRECTION('center_axis',(0.,-1.,0.));
#320=DIRECTION('ref_axis',(0.,0.,-1.));
#321=DIRECTION('center_axis',(0.,-1.,0.));
#322=DIRECTION('ref_axis',(0.,0.,-1.));
#323=DIRECTION('center_axis',(0.,0.,-1.));
#324=DIRECTION('ref_axis',(-1.,0.,0.));
#325=DIRECTION('center_axis',(0.,0.,1.));
#326=DIRECTION('ref_axis',(1.,0.,0.));
#327=DIRECTION('',(0.,0.,-1.));
#328=DIRECTION('center_axis',(0.,0.,1.));
#329=DIRECTION('ref_axis',(1.,0.,0.));
#330=DIRECTION('',(0.,0.,-1.));
#331=DIRECTION('center_axis',(0.,1.,0.));
#332=DIRECTION('ref_axis',(0.,0.,1.));
#333=DIRECTION('',(0.,0.,-1.));
#334=DIRECTION('',(0.,0.,-1.));
#335=DIRECTION('',(1.,0.,0.));
#336=DIRECTION('center_axis',(0.,1.,0.));
#337=DIRECTION('ref_axis',(0.,0.,1.));
#338=DIRECTION('',(0.,0.,-1.));
#339=DIRECTION('',(0.,0.,-1.));
#340=DIRECTION('center_axis',(0.,0.,-1.));
#341=DIRECTION('ref_axis',(0.839615963777546,0.543180479555279,0.));
#342=DIRECTION('center_axis',(0.,0.,1.));
#343=DIRECTION('ref_axis',(-1.,0.,0.));
#344=DIRECTION('',(0.,0.,-1.));
#345=DIRECTION('center_axis',(0.,0.,1.));
#346=DIRECTION('ref_axis',(-1.,0.,0.));
#347=DIRECTION('',(0.,0.,-1.));
#348=DIRECTION('center_axis',(1.22719734090387E-16,-1.,0.));
#349=DIRECTION('ref_axis',(1.,1.22719734090387E-16,0.));
#350=DIRECTION('',(-1.,-1.22719734090387E-16,0.));
#351=DIRECTION('',(-1.,-1.22719734090387E-16,0.));
#352=DIRECTION('center_axis',(0.,0.,-1.));
#353=DIRECTION('ref_axis',(-1.,0.,0.));
#354=DIRECTION('',(0.,0.,-1.));
#355=DIRECTION('center_axis',(0.,0.,1.));
#356=DIRECTION('ref_axis',(1.,0.,0.));
#357=DIRECTION('center_axis',(0.,0.,1.));
#358=DIRECTION('ref_axis',(1.,0.,0.));
#359=DIRECTION('center_axis',(0.,1.,0.));
#360=DIRECTION('ref_axis',(0.,0.,1.));
#361=DIRECTION('',(0.,0.,-1.));
#362=DIRECTION('',(1.,0.,0.));
#363=DIRECTION('center_axis',(0.,0.,-1.));
#364=DIRECTION('ref_axis',(-1.,0.,0.));
#365=DIRECTION('center_axis',(0.,0.,1.));
#366=DIRECTION('ref_axis',(-1.,0.,0.));
#367=DIRECTION('center_axis',(0.,0.,1.));
#368=DIRECTION('ref_axis',(-1.,0.,0.));
#369=DIRECTION('center_axis',(0.,0.,-1.));
#370=DIRECTION('ref_axis',(-1.,0.,0.));
#371=DIRECTION('center_axis',(0.,0.,-1.));
#372=DIRECTION('ref_axis',(-1.,0.,0.));
#373=CARTESIAN_POINT('',(0.,0.,0.));
#374=CARTESIAN_POINT('Origin',(2.93915231795365E-15,8.67361737988404E-16,
6.));
#375=CARTESIAN_POINT('',(2.53501887423502E-15,8.67361737988404E-16,9.3));
#376=CARTESIAN_POINT('Origin',(2.93915231795365E-15,8.67361737988404E-16,
6.));
#377=CARTESIAN_POINT('',(2.53501887423502E-15,-7.,9.3));
#378=CARTESIAN_POINT('',(2.53501887423502E-15,8.67361737988404E-16,9.3));
#379=CARTESIAN_POINT('',(-1.5,-7.,8.93938769133981));
#380=CARTESIAN_POINT('Origin',(2.93915231795365E-15,-7.,6.));
#381=CARTESIAN_POINT('',(-1.5,-7.,3.06061230866018));
#382=CARTESIAN_POINT('Ctrl Pts',(-1.5,-7.,3.06061230866018));
#383=CARTESIAN_POINT('Ctrl Pts',(-1.81259669016879,-6.78959175566523,3.22013363911777));
#384=CARTESIAN_POINT('Ctrl Pts',(-2.09613831535802,-6.58103990643348,3.42923355952681));
#385=CARTESIAN_POINT('Ctrl Pts',(-2.60819291521847,-6.18276340213649,3.94128815938726));
#386=CARTESIAN_POINT('Ctrl Pts',(-2.85975297753145,-5.96996505538435,4.29572361375315));
#387=CARTESIAN_POINT('Ctrl Pts',(-3.20586345500904,-5.66543064135909,5.10268124224153));
#388=CARTESIAN_POINT('Ctrl Pts',(-3.3,-5.57685694197527,5.55657063111325));
#389=CARTESIAN_POINT('Ctrl Pts',(-3.3,-5.57685694197527,6.));
#390=CARTESIAN_POINT('Ctrl Pts',(-3.3,-5.57685694197527,6.41986159232468));
#391=CARTESIAN_POINT('Ctrl Pts',(-3.21527904673212,-5.65647889072167,6.85299979506357));
#392=CARTESIAN_POINT('Ctrl Pts',(-2.90000205378243,-5.93512068776356,7.62960711335035));
#393=CARTESIAN_POINT('Ctrl Pts',(-2.66999446221247,-6.13128339742467,7.97432078075315));
#394=CARTESIAN_POINT('Ctrl Pts',(-2.16194687672244,-6.53233735138658,8.52149845231032));
#395=CARTESIAN_POINT('Ctrl Pts',(-1.84844573512304,-6.76546183091833,8.76157222173555));
#396=CARTESIAN_POINT('Ctrl Pts',(-1.5,-7.,8.93938769133981));
#397=CARTESIAN_POINT('',(1.50000000000001,-6.99999999999999,3.06061230866018));
#398=CARTESIAN_POINT('Origin',(2.93915231795365E-15,-7.,6.));
#399=CARTESIAN_POINT('',(1.5,-7.,8.93938769133981));
#400=CARTESIAN_POINT('Ctrl Pts',(1.50000000000001,-7.,8.93938769133981));
#401=CARTESIAN_POINT('Ctrl Pts',(1.84844573512305,-6.76546183091833,8.76157222173555));
#402=CARTESIAN_POINT('Ctrl Pts',(2.16194687672245,-6.53233735138658,8.52149845231032));
#403=CARTESIAN_POINT('Ctrl Pts',(2.66999446221248,-6.13128339742467,7.97432078075315));
#404=CARTESIAN_POINT('Ctrl Pts',(2.90000205378244,-5.93512068776356,7.62960711335035));
#405=CARTESIAN_POINT('Ctrl Pts',(3.21527904673213,-5.65647889072167,6.85299979506357));
#406=CARTESIAN_POINT('Ctrl Pts',(3.3,-5.57685694197527,6.41986159232468));
#407=CARTESIAN_POINT('Ctrl Pts',(3.3,-5.57685694197527,5.55657063111325));
#408=CARTESIAN_POINT('Ctrl Pts',(3.20586345500904,-5.6654306413591,5.10268124224153));
#409=CARTESIAN_POINT('Ctrl Pts',(2.85975297753145,-5.96996505538435,4.29572361375315));
#410=CARTESIAN_POINT('Ctrl Pts',(2.60819291521847,-6.18276340213649,3.94128815938725));
#411=CARTESIAN_POINT('Ctrl Pts',(2.09613831535803,-6.58103990643348,3.42923355952681));
#412=CARTESIAN_POINT('Ctrl Pts',(1.8125966901688,-6.78959175566523,3.22013363911778));
#413=CARTESIAN_POINT('Ctrl Pts',(1.50000000000001,-6.99999999999999,3.06061230866019));
#414=CARTESIAN_POINT('Origin',(2.93915231795365E-15,-7.,6.));
#415=CARTESIAN_POINT('Origin',(0.,8.67361737988404E-16,30.));
#416=CARTESIAN_POINT('',(-4.04133443718627E-16,8.67361737988404E-16,33.3));
#417=CARTESIAN_POINT('Origin',(0.,8.67361737988404E-16,30.));
#418=CARTESIAN_POINT('',(-4.04133443718627E-16,-7.,33.3));
#419=CARTESIAN_POINT('',(-4.04133443718627E-16,8.67361737988404E-16,33.3));
#420=CARTESIAN_POINT('',(-1.49999999999999,-7.,32.9393876913398));
#421=CARTESIAN_POINT('Origin',(0.,-7.,30.));
#422=CARTESIAN_POINT('',(-1.49999999999999,-7.,27.0606123086602));
#423=CARTESIAN_POINT('Ctrl Pts',(-1.5,-7.,27.0606123086602));
#424=CARTESIAN_POINT('Ctrl Pts',(-1.84844573512305,-6.76546183091833,27.2384277782644));
#425=CARTESIAN_POINT('Ctrl Pts',(-2.16194687672245,-6.53233735138658,27.4785015476897));
#426=CARTESIAN_POINT('Ctrl Pts',(-2.66999446221248,-6.13128339742467,28.0256792192469));
#427=CARTESIAN_POINT('Ctrl Pts',(-2.90000205378243,-5.93512068776356,28.3703928866497));
#428=CARTESIAN_POINT('Ctrl Pts',(-3.21527904673213,-5.65647889072166,29.1470002049364));
#429=CARTESIAN_POINT('Ctrl Pts',(-3.3,-5.57685694197527,29.5801384076753));
#430=CARTESIAN_POINT('Ctrl Pts',(-3.3,-5.57685694197527,30.));
#431=CARTESIAN_POINT('Ctrl Pts',(-3.3,-5.57685694197527,30.4198615923247));
#432=CARTESIAN_POINT('Ctrl Pts',(-3.21527904673213,-5.65647889072166,30.8529997950636));
#433=CARTESIAN_POINT('Ctrl Pts',(-2.90000205378243,-5.93512068776356,31.6296071133504));
#434=CARTESIAN_POINT('Ctrl Pts',(-2.66999446221248,-6.13128339742467,31.9743207807532));
#435=CARTESIAN_POINT('Ctrl Pts',(-2.16194687672245,-6.53233735138658,32.5214984523103));
#436=CARTESIAN_POINT('Ctrl Pts',(-1.84844573512304,-6.76546183091833,32.7615722217356));
#437=CARTESIAN_POINT('Ctrl Pts',(-1.5,-7.,32.9393876913398));
#438=CARTESIAN_POINT('',(1.50000000000001,-6.99999999999999,27.0606123086602));
#439=CARTESIAN_POINT('Origin',(0.,-7.,30.));
#440=CARTESIAN_POINT('',(1.5,-7.,32.9393876913398));
#441=CARTESIAN_POINT('Ctrl Pts',(1.50000000000001,-7.,32.9393876913398));
#442=CARTESIAN_POINT('Ctrl Pts',(1.84844573512305,-6.76546183091833,32.7615722217356));
#443=CARTESIAN_POINT('Ctrl Pts',(2.16194687672245,-6.53233735138658,32.5214984523103));
#444=CARTESIAN_POINT('Ctrl Pts',(2.66999446221248,-6.13128339742468,31.9743207807532));
#445=CARTESIAN_POINT('Ctrl Pts',(2.90000205378243,-5.93512068776356,31.6296071133504));
#446=CARTESIAN_POINT('Ctrl Pts',(3.21527904673213,-5.65647889072167,30.8529997950636));
#447=CARTESIAN_POINT('Ctrl Pts',(3.3,-5.57685694197527,30.4198615923247));
#448=CARTESIAN_POINT('Ctrl Pts',(3.3,-5.57685694197527,29.5801384076753));
#449=CARTESIAN_POINT('Ctrl Pts',(3.21527904673213,-5.65647889072167,29.1470002049364));
#450=CARTESIAN_POINT('Ctrl Pts',(2.90000205378243,-5.93512068776356,28.3703928866497));
#451=CARTESIAN_POINT('Ctrl Pts',(2.66999446221248,-6.13128339742468,28.0256792192469));
#452=CARTESIAN_POINT('Ctrl Pts',(2.16194687672245,-6.53233735138658,27.4785015476897));
#453=CARTESIAN_POINT('Ctrl Pts',(1.84844573512305,-6.76546183091833,27.2384277782645));
#454=CARTESIAN_POINT('Ctrl Pts',(1.50000000000002,-6.99999999999999,27.0606123086602));
#455=CARTESIAN_POINT('Origin',(0.,-7.,30.));
#456=CARTESIAN_POINT('Origin',(-6.35,-0.500000000000002,36.));
#457=CARTESIAN_POINT('',(-6.35,-2.49366499671666E-15,36.));
#458=CARTESIAN_POINT('',(-6.80606300184695,-0.7049549666301,36.));
#459=CARTESIAN_POINT('Origin',(-6.35,-0.500000000000002,36.));
#460=CARTESIAN_POINT('',(-6.35,-2.49366499671666E-15,0.));
#461=CARTESIAN_POINT('',(-6.35,-2.49366499671666E-15,36.));
#462=CARTESIAN_POINT('',(-6.80606300184695,-0.7049549666301,0.));
#463=CARTESIAN_POINT('Origin',(-6.35,-0.500000000000002,0.));
#464=CARTESIAN_POINT('',(-6.80606300184695,-0.7049549666301,36.));
#465=CARTESIAN_POINT('Origin',(1.5,-7.,36.));
#466=CARTESIAN_POINT('',(1.50000000000001,-6.99999999999999,0.));
#467=CARTESIAN_POINT('',(1.50000000000001,-6.99999999999999,36.));
#468=CARTESIAN_POINT('',(-1.49999999999999,-7.,0.));
#469=CARTESIAN_POINT('',(-1.49999999999999,-7.,36.));
#470=CARTESIAN_POINT('',(1.5,-7.,0.));
#471=CARTESIAN_POINT('Origin',(1.5,-7.,36.));
#472=CARTESIAN_POINT('',(-1.49999999999999,-7.,36.));
#473=CARTESIAN_POINT('',(1.50000000000001,-6.99999999999999,36.));
#474=CARTESIAN_POINT('Origin',(6.35,-0.5,36.));
#475=CARTESIAN_POINT('',(6.80606300184696,-0.704954966630096,0.));
#476=CARTESIAN_POINT('',(6.35,4.06575814682064E-17,0.));
#477=CARTESIAN_POINT('Origin',(6.35,-0.5,0.));
#478=CARTESIAN_POINT('',(6.35,4.06575814682064E-17,36.));
#479=CARTESIAN_POINT('',(6.35,4.06575814682064E-17,36.));
#480=CARTESIAN_POINT('',(6.80606300184696,-0.704954966630096,36.));
#481=CARTESIAN_POINT('Origin',(6.35,-0.5,36.));
#482=CARTESIAN_POINT('',(6.80606300184696,-0.704954966630096,36.));
#483=CARTESIAN_POINT('Origin',(6.35,4.06575814682064E-17,36.));
#484=CARTESIAN_POINT('',(6.35,4.06575814682064E-17,0.));
#485=CARTESIAN_POINT('',(6.35,4.06575814682064E-17,36.));
#486=CARTESIAN_POINT('Origin',(6.87582705356165,5.44369403227292,36.));
#487=CARTESIAN_POINT('',(-1.49999999999999,-7.,36.));
#488=CARTESIAN_POINT('',(-1.49999999999999,-7.,36.));
#489=CARTESIAN_POINT('Origin',(6.87582705356165,5.44369403227292,36.));
#490=CARTESIAN_POINT('Origin',(6.87582705356165,5.44369403227292,0.));
#491=CARTESIAN_POINT('Origin',(1.5,-7.,36.));
#492=CARTESIAN_POINT('',(1.50000000000001,-6.99999999999999,36.));
#493=CARTESIAN_POINT('',(1.50000000000001,-6.99999999999999,36.));
#494=CARTESIAN_POINT('',(1.5,-7.,36.));
#495=CARTESIAN_POINT('Origin',(-6.87582705356164,5.44369403227292,36.));
#496=CARTESIAN_POINT('Origin',(-6.87582705356164,5.44369403227292,0.));
#497=CARTESIAN_POINT('Origin',(-6.87582705356164,5.44369403227292,36.));
#498=CARTESIAN_POINT('Origin',(6.35,-0.5,36.));
#499=CARTESIAN_POINT('Origin',(6.35,-0.5,0.));
#500=UNCERTAINTY_MEASURE_WITH_UNIT(LENGTH_MEASURE(0.01),#504,
'DISTANCE_ACCURACY_VALUE',
'Maximum model space distance between geometric entities at asserted c
onnectivities');
#501=UNCERTAINTY_MEASURE_WITH_UNIT(LENGTH_MEASURE(0.01),#504,
'DISTANCE_ACCURACY_VALUE',
'Maximum model space distance between geometric entities at asserted c
onnectivities');
#502=(
GEOMETRIC_REPRESENTATION_CONTEXT(3)
GLOBAL_UNCERTAINTY_ASSIGNED_CONTEXT((#500))
GLOBAL_UNIT_ASSIGNED_CONTEXT((#504,#506,#507))
REPRESENTATION_CONTEXT('','3D')
);
#503=(
GEOMETRIC_REPRESENTATION_CONTEXT(3)
GLOBAL_UNCERTAINTY_ASSIGNED_CONTEXT((#501))
GLOBAL_UNIT_ASSIGNED_CONTEXT((#504,#506,#507))
REPRESENTATION_CONTEXT('','3D')
);
#504=(
LENGTH_UNIT()
NAMED_UNIT(*)
SI_UNIT(.MILLI.,.METRE.)
);
#505=(
LENGTH_UNIT()
NAMED_UNIT(*)
SI_UNIT(.CENTI.,.METRE.)
);
#506=(
NAMED_UNIT(*)
PLANE_ANGLE_UNIT()
SI_UNIT($,.RADIAN.)
);
#507=(
NAMED_UNIT(*)
SI_UNIT($,.STERADIAN.)
SOLID_ANGLE_UNIT()
);
#508=SHAPE_DEFINITION_REPRESENTATION(#509,#510);
#509=PRODUCT_DEFINITION_SHAPE('',$,#512);
#510=SHAPE_REPRESENTATION('',(#270),#502);
#511=PRODUCT_DEFINITION_CONTEXT('part definition',#516,'design');
#512=PRODUCT_DEFINITION('1025052','1025052',#513,#511);
#513=PRODUCT_DEFINITION_FORMATION('ANY',$,#518);
#514=PRODUCT_RELATED_PRODUCT_CATEGORY('1025052','1025052',(#518));
#515=APPLICATION_PROTOCOL_DEFINITION('international standard',
'automotive_design',2009,#516);
#516=APPLICATION_CONTEXT(
'Core Data for Automotive Mechanical Design Process');
#517=PRODUCT_CONTEXT('part definition',#516,'mechanical');
#518=PRODUCT('1025052','1025052','STEP AP214',(#517));
#519=PRESENTATION_STYLE_ASSIGNMENT((#520));
#520=SURFACE_STYLE_USAGE(.BOTH.,#523);
#521=SURFACE_STYLE_RENDERING_WITH_PROPERTIES($,#527,(#522));
#522=SURFACE_STYLE_TRANSPARENT(0.);
#523=SURFACE_SIDE_STYLE('',(#524,#521));
#524=SURFACE_STYLE_FILL_AREA(#525);
#525=FILL_AREA_STYLE('',(#526));
#526=FILL_AREA_STYLE_COLOUR('',#527);
#527=COLOUR_RGB('',0.647058823529412,0.619607843137255,0.588235294117647);
ENDSEC;
END-ISO-10303-21;
