ISO-10303-21;
HEADER;
/* Generated by software containing ST-Developer
 * from STEP Tools, Inc. (www.steptools.com) 
 */

FILE_DESCRIPTION(
/* description */ ('STEP AP214'),
/* implementation_level */ '2;1');

FILE_NAME(
/* name */ 
'C:\\Users\\b.steehouwer\\Desktop\\Producten\\ISB profielsysteem\\CAD-
files\\Bevestigingsmaterialen\\T-sleuf moer rhombus\\1025056.stp',
/* time_stamp */ '2024-05-01T08:52:54+02:00',
/* author */ ('b.steehouwer'),
/* organization */ ('CADENAS'),
/* preprocessor_version */ 'ST-DEVELOPER v18.1',
/* originating_system */ 'Autodesk Inventor 2021',
/* authorisation */ ' ');

FILE_SCHEMA (('AUTOMOTIVE_DESIGN { 1 0 10303 214 3 1 1 }'));
ENDSEC;

DATA;
#10=MECHANICAL_DESIGN_GEOMETRIC_PRESENTATION_REPRESENTATION('',(#270,#271,
#272,#273,#274,#275,#276,#277,#278,#279,#280,#281,#282,#283,#284,#285),
#489);
#11=SHAPE_REPRESENTATION_RELATIONSHIP('SRR','None',#496,#12);
#12=ADVANCED_BREP_SHAPE_REPRESENTATION('',(#13),#488);
#13=MANIFOLD_SOLID_BREP('Solid1',#301);
#14=CYLINDRICAL_SURFACE('',#335,2.067);
#15=FACE_BOUND('',#36,.T.);
#16=FACE_BOUND('',#43,.T.);
#17=CIRCLE('',#323,2.067);
#18=CIRCLE('',#330,2.067);
#19=FACE_OUTER_BOUND('',#34,.T.);
#20=FACE_OUTER_BOUND('',#35,.T.);
#21=FACE_OUTER_BOUND('',#37,.T.);
#22=FACE_OUTER_BOUND('',#38,.T.);
#23=FACE_OUTER_BOUND('',#39,.T.);
#24=FACE_OUTER_BOUND('',#40,.T.);
#25=FACE_OUTER_BOUND('',#41,.T.);
#26=FACE_OUTER_BOUND('',#42,.T.);
#27=FACE_OUTER_BOUND('',#44,.T.);
#28=FACE_OUTER_BOUND('',#45,.T.);
#29=FACE_OUTER_BOUND('',#46,.T.);
#30=FACE_OUTER_BOUND('',#47,.T.);
#31=FACE_OUTER_BOUND('',#48,.T.);
#32=FACE_OUTER_BOUND('',#49,.T.);
#33=FACE_OUTER_BOUND('',#50,.T.);
#34=EDGE_LOOP('',(#182,#183,#184,#185));
#35=EDGE_LOOP('',(#186,#187,#188,#189));
#36=EDGE_LOOP('',(#190));
#37=EDGE_LOOP('',(#191,#192,#193,#194,#195,#196,#197,#198,#199));
#38=EDGE_LOOP('',(#200,#201,#202,#203));
#39=EDGE_LOOP('',(#204,#205,#206,#207,#208,#209,#210,#211,#212));
#40=EDGE_LOOP('',(#213,#214,#215,#216,#217));
#41=EDGE_LOOP('',(#218,#219,#220,#221,#222));
#42=EDGE_LOOP('',(#223,#224,#225,#226));
#43=EDGE_LOOP('',(#227));
#44=EDGE_LOOP('',(#228,#229,#230,#231));
#45=EDGE_LOOP('',(#232,#233,#234,#235));
#46=EDGE_LOOP('',(#236,#237,#238,#239));
#47=EDGE_LOOP('',(#240,#241,#242,#243));
#48=EDGE_LOOP('',(#244,#245,#246,#247));
#49=EDGE_LOOP('',(#248,#249,#250,#251));
#50=EDGE_LOOP('',(#252,#253,#254,#255));
#51=LINE('',#413,#86);
#52=LINE('',#415,#87);
#53=LINE('',#417,#88);
#54=LINE('',#418,#89);
#55=LINE('',#422,#90);
#56=LINE('',#424,#91);
#57=LINE('',#426,#92);
#58=LINE('',#427,#93);
#59=LINE('',#433,#94);
#60=LINE('',#434,#95);
#61=LINE('',#435,#96);
#62=LINE('',#437,#97);
#63=LINE('',#439,#98);
#64=LINE('',#441,#99);
#65=LINE('',#442,#100);
#66=LINE('',#445,#101);
#67=LINE('',#447,#102);
#68=LINE('',#448,#103);
#69=LINE('',#451,#104);
#70=LINE('',#453,#105);
#71=LINE('',#455,#106);
#72=LINE('',#457,#107);
#73=LINE('',#459,#108);
#74=LINE('',#460,#109);
#75=LINE('',#461,#110);
#76=LINE('',#463,#111);
#77=LINE('',#466,#112);
#78=LINE('',#467,#113);
#79=LINE('',#468,#114);
#80=LINE('',#474,#115);
#81=LINE('',#475,#116);
#82=LINE('',#476,#117);
#83=LINE('',#479,#118);
#84=LINE('',#482,#119);
#85=LINE('',#484,#120);
#86=VECTOR('',#342,1000.);
#87=VECTOR('',#343,1000.);
#88=VECTOR('',#344,1000.);
#89=VECTOR('',#345,1000.);
#90=VECTOR('',#348,1000.);
#91=VECTOR('',#349,999.999999999999);
#92=VECTOR('',#350,1000.);
#93=VECTOR('',#351,999.999999999999);
#94=VECTOR('',#356,999.999999999999);
#95=VECTOR('',#357,1000.);
#96=VECTOR('',#358,1000.);
#97=VECTOR('',#359,1000.);
#98=VECTOR('',#360,999.999999999999);
#99=VECTOR('',#361,1000.);
#100=VECTOR('',#362,1000.);
#101=VECTOR('',#365,1000.);
#102=VECTOR('',#366,1000.);
#103=VECTOR('',#367,1000.);
#104=VECTOR('',#370,1000.);
#105=VECTOR('',#371,1000.);
#106=VECTOR('',#372,1000.);
#107=VECTOR('',#373,1000.);
#108=VECTOR('',#374,999.999999999999);
#109=VECTOR('',#375,1000.);
#110=VECTOR('',#376,999.999999999999);
#111=VECTOR('',#379,1000.);
#112=VECTOR('',#382,1000.);
#113=VECTOR('',#383,1000.);
#114=VECTOR('',#384,1000.);
#115=VECTOR('',#391,1000.);
#116=VECTOR('',#392,1000.);
#117=VECTOR('',#393,1000.);
#118=VECTOR('',#398,1000.);
#119=VECTOR('',#403,2.067);
#120=VECTOR('',#406,1000.);
#121=VERTEX_POINT('',#411);
#122=VERTEX_POINT('',#412);
#123=VERTEX_POINT('',#414);
#124=VERTEX_POINT('',#416);
#125=VERTEX_POINT('',#420);
#126=VERTEX_POINT('',#421);
#127=VERTEX_POINT('',#423);
#128=VERTEX_POINT('',#425);
#129=VERTEX_POINT('',#428);
#130=VERTEX_POINT('',#431);
#131=VERTEX_POINT('',#432);
#132=VERTEX_POINT('',#436);
#133=VERTEX_POINT('',#438);
#134=VERTEX_POINT('',#440);
#135=VERTEX_POINT('',#444);
#136=VERTEX_POINT('',#446);
#137=VERTEX_POINT('',#450);
#138=VERTEX_POINT('',#452);
#139=VERTEX_POINT('',#454);
#140=VERTEX_POINT('',#456);
#141=VERTEX_POINT('',#458);
#142=VERTEX_POINT('',#465);
#143=VERTEX_POINT('',#470);
#144=VERTEX_POINT('',#473);
#145=EDGE_CURVE('',#121,#122,#51,.T.);
#146=EDGE_CURVE('',#123,#121,#52,.T.);
#147=EDGE_CURVE('',#123,#124,#53,.T.);
#148=EDGE_CURVE('',#124,#122,#54,.T.);
#149=EDGE_CURVE('',#125,#126,#55,.T.);
#150=EDGE_CURVE('',#127,#125,#56,.T.);
#151=EDGE_CURVE('',#128,#127,#57,.T.);
#152=EDGE_CURVE('',#126,#128,#58,.T.);
#153=EDGE_CURVE('',#129,#129,#17,.T.);
#154=EDGE_CURVE('',#130,#131,#59,.T.);
#155=EDGE_CURVE('',#126,#130,#60,.T.);
#156=EDGE_CURVE('',#122,#128,#61,.T.);
#157=EDGE_CURVE('',#124,#132,#62,.T.);
#158=EDGE_CURVE('',#133,#132,#63,.T.);
#159=EDGE_CURVE('',#133,#134,#64,.T.);
#160=EDGE_CURVE('',#134,#131,#65,.T.);
#161=EDGE_CURVE('',#135,#121,#66,.T.);
#162=EDGE_CURVE('',#136,#135,#67,.T.);
#163=EDGE_CURVE('',#136,#123,#68,.T.);
#164=EDGE_CURVE('',#127,#137,#69,.T.);
#165=EDGE_CURVE('',#138,#125,#70,.T.);
#166=EDGE_CURVE('',#139,#138,#71,.T.);
#167=EDGE_CURVE('',#139,#140,#72,.T.);
#168=EDGE_CURVE('',#141,#140,#73,.T.);
#169=EDGE_CURVE('',#141,#136,#74,.T.);
#170=EDGE_CURVE('',#137,#135,#75,.T.);
#171=EDGE_CURVE('',#132,#141,#76,.T.);
#172=EDGE_CURVE('',#142,#139,#77,.T.);
#173=EDGE_CURVE('',#134,#142,#78,.T.);
#174=EDGE_CURVE('',#140,#133,#79,.T.);
#175=EDGE_CURVE('',#143,#143,#18,.T.);
#176=EDGE_CURVE('',#144,#138,#80,.T.);
#177=EDGE_CURVE('',#138,#130,#81,.T.);
#178=EDGE_CURVE('',#144,#131,#82,.T.);
#179=EDGE_CURVE('',#137,#122,#83,.T.);
#180=EDGE_CURVE('',#129,#143,#84,.T.);
#181=EDGE_CURVE('',#142,#144,#85,.T.);
#182=ORIENTED_EDGE('',*,*,#145,.F.);
#183=ORIENTED_EDGE('',*,*,#146,.F.);
#184=ORIENTED_EDGE('',*,*,#147,.T.);
#185=ORIENTED_EDGE('',*,*,#148,.T.);
#186=ORIENTED_EDGE('',*,*,#149,.F.);
#187=ORIENTED_EDGE('',*,*,#150,.F.);
#188=ORIENTED_EDGE('',*,*,#151,.F.);
#189=ORIENTED_EDGE('',*,*,#152,.F.);
#190=ORIENTED_EDGE('',*,*,#153,.F.);
#191=ORIENTED_EDGE('',*,*,#154,.F.);
#192=ORIENTED_EDGE('',*,*,#155,.F.);
#193=ORIENTED_EDGE('',*,*,#152,.T.);
#194=ORIENTED_EDGE('',*,*,#156,.F.);
#195=ORIENTED_EDGE('',*,*,#148,.F.);
#196=ORIENTED_EDGE('',*,*,#157,.T.);
#197=ORIENTED_EDGE('',*,*,#158,.F.);
#198=ORIENTED_EDGE('',*,*,#159,.T.);
#199=ORIENTED_EDGE('',*,*,#160,.T.);
#200=ORIENTED_EDGE('',*,*,#161,.F.);
#201=ORIENTED_EDGE('',*,*,#162,.F.);
#202=ORIENTED_EDGE('',*,*,#163,.T.);
#203=ORIENTED_EDGE('',*,*,#146,.T.);
#204=ORIENTED_EDGE('',*,*,#164,.F.);
#205=ORIENTED_EDGE('',*,*,#150,.T.);
#206=ORIENTED_EDGE('',*,*,#165,.F.);
#207=ORIENTED_EDGE('',*,*,#166,.F.);
#208=ORIENTED_EDGE('',*,*,#167,.T.);
#209=ORIENTED_EDGE('',*,*,#168,.F.);
#210=ORIENTED_EDGE('',*,*,#169,.T.);
#211=ORIENTED_EDGE('',*,*,#162,.T.);
#212=ORIENTED_EDGE('',*,*,#170,.F.);
#213=ORIENTED_EDGE('',*,*,#147,.F.);
#214=ORIENTED_EDGE('',*,*,#163,.F.);
#215=ORIENTED_EDGE('',*,*,#169,.F.);
#216=ORIENTED_EDGE('',*,*,#171,.F.);
#217=ORIENTED_EDGE('',*,*,#157,.F.);
#218=ORIENTED_EDGE('',*,*,#172,.F.);
#219=ORIENTED_EDGE('',*,*,#173,.F.);
#220=ORIENTED_EDGE('',*,*,#159,.F.);
#221=ORIENTED_EDGE('',*,*,#174,.F.);
#222=ORIENTED_EDGE('',*,*,#167,.F.);
#223=ORIENTED_EDGE('',*,*,#158,.T.);
#224=ORIENTED_EDGE('',*,*,#171,.T.);
#225=ORIENTED_EDGE('',*,*,#168,.T.);
#226=ORIENTED_EDGE('',*,*,#174,.T.);
#227=ORIENTED_EDGE('',*,*,#175,.T.);
#228=ORIENTED_EDGE('',*,*,#176,.T.);
#229=ORIENTED_EDGE('',*,*,#177,.T.);
#230=ORIENTED_EDGE('',*,*,#154,.T.);
#231=ORIENTED_EDGE('',*,*,#178,.F.);
#232=ORIENTED_EDGE('',*,*,#165,.T.);
#233=ORIENTED_EDGE('',*,*,#149,.T.);
#234=ORIENTED_EDGE('',*,*,#155,.T.);
#235=ORIENTED_EDGE('',*,*,#177,.F.);
#236=ORIENTED_EDGE('',*,*,#164,.T.);
#237=ORIENTED_EDGE('',*,*,#179,.T.);
#238=ORIENTED_EDGE('',*,*,#156,.T.);
#239=ORIENTED_EDGE('',*,*,#151,.T.);
#240=ORIENTED_EDGE('',*,*,#170,.T.);
#241=ORIENTED_EDGE('',*,*,#161,.T.);
#242=ORIENTED_EDGE('',*,*,#145,.T.);
#243=ORIENTED_EDGE('',*,*,#179,.F.);
#244=ORIENTED_EDGE('',*,*,#153,.T.);
#245=ORIENTED_EDGE('',*,*,#180,.T.);
#246=ORIENTED_EDGE('',*,*,#175,.F.);
#247=ORIENTED_EDGE('',*,*,#180,.F.);
#248=ORIENTED_EDGE('',*,*,#178,.T.);
#249=ORIENTED_EDGE('',*,*,#160,.F.);
#250=ORIENTED_EDGE('',*,*,#173,.T.);
#251=ORIENTED_EDGE('',*,*,#181,.T.);
#252=ORIENTED_EDGE('',*,*,#176,.F.);
#253=ORIENTED_EDGE('',*,*,#181,.F.);
#254=ORIENTED_EDGE('',*,*,#172,.T.);
#255=ORIENTED_EDGE('',*,*,#166,.T.);
#256=PLANE('',#321);
#257=PLANE('',#322);
#258=PLANE('',#324);
#259=PLANE('',#325);
#260=PLANE('',#326);
#261=PLANE('',#327);
#262=PLANE('',#328);
#263=PLANE('',#329);
#264=PLANE('',#331);
#265=PLANE('',#332);
#266=PLANE('',#333);
#267=PLANE('',#334);
#268=PLANE('',#336);
#269=PLANE('',#337);
#270=STYLED_ITEM('',(#506),#286);
#271=STYLED_ITEM('',(#506),#287);
#272=STYLED_ITEM('',(#506),#288);
#273=STYLED_ITEM('',(#506),#289);
#274=STYLED_ITEM('',(#506),#290);
#275=STYLED_ITEM('',(#507),#291);
#276=STYLED_ITEM('',(#507),#292);
#277=STYLED_ITEM('',(#506),#293);
#278=STYLED_ITEM('',(#506),#294);
#279=STYLED_ITEM('',(#506),#295);
#280=STYLED_ITEM('',(#506),#296);
#281=STYLED_ITEM('',(#506),#297);
#282=STYLED_ITEM('',(#506),#298);
#283=STYLED_ITEM('',(#506),#299);
#284=STYLED_ITEM('',(#506),#300);
#285=STYLED_ITEM('',(#505),#13);
#286=ADVANCED_FACE('',(#19),#256,.F.);
#287=ADVANCED_FACE('',(#20,#15),#257,.F.);
#288=ADVANCED_FACE('',(#21),#258,.F.);
#289=ADVANCED_FACE('',(#22),#259,.F.);
#290=ADVANCED_FACE('',(#23),#260,.F.);
#291=ADVANCED_FACE('',(#24),#261,.T.);
#292=ADVANCED_FACE('',(#25),#262,.T.);
#293=ADVANCED_FACE('',(#26,#16),#263,.T.);
#294=ADVANCED_FACE('',(#27),#264,.T.);
#295=ADVANCED_FACE('',(#28),#265,.T.);
#296=ADVANCED_FACE('',(#29),#266,.T.);
#297=ADVANCED_FACE('',(#30),#267,.T.);
#298=ADVANCED_FACE('',(#31),#14,.F.);
#299=ADVANCED_FACE('',(#32),#268,.F.);
#300=ADVANCED_FACE('',(#33),#269,.F.);
#301=CLOSED_SHELL('',(#286,#287,#288,#289,#290,#291,#292,#293,#294,#295,
#296,#297,#298,#299,#300));
#302=DERIVED_UNIT_ELEMENT(#304,1.);
#303=DERIVED_UNIT_ELEMENT(#491,-3.);
#304=(
MASS_UNIT()
NAMED_UNIT(*)
SI_UNIT($,.GRAM.)
);
#305=DERIVED_UNIT((#302,#303));
#306=MEASURE_REPRESENTATION_ITEM('density measure',
POSITIVE_RATIO_MEASURE(1.),#305);
#307=PROPERTY_DEFINITION_REPRESENTATION(#312,#309);
#308=PROPERTY_DEFINITION_REPRESENTATION(#313,#310);
#309=REPRESENTATION('material name',(#311),#488);
#310=REPRESENTATION('density',(#306),#488);
#311=DESCRIPTIVE_REPRESENTATION_ITEM('Generic','Generic');
#312=PROPERTY_DEFINITION('material property','material name',#498);
#313=PROPERTY_DEFINITION('material property','density of part',#498);
#314=DATE_TIME_ROLE('creation_date');
#315=APPLIED_DATE_AND_TIME_ASSIGNMENT(#316,#314,(#498));
#316=DATE_AND_TIME(#317,#318);
#317=CALENDAR_DATE(2022,4,5);
#318=LOCAL_TIME(11,38,52.,#319);
#319=COORDINATED_UNIVERSAL_TIME_OFFSET(0,0,.BEHIND.);
#320=AXIS2_PLACEMENT_3D('placement',#409,#338,#339);
#321=AXIS2_PLACEMENT_3D('',#410,#340,#341);
#322=AXIS2_PLACEMENT_3D('',#419,#346,#347);
#323=AXIS2_PLACEMENT_3D('',#429,#352,#353);
#324=AXIS2_PLACEMENT_3D('',#430,#354,#355);
#325=AXIS2_PLACEMENT_3D('',#443,#363,#364);
#326=AXIS2_PLACEMENT_3D('',#449,#368,#369);
#327=AXIS2_PLACEMENT_3D('',#462,#377,#378);
#328=AXIS2_PLACEMENT_3D('',#464,#380,#381);
#329=AXIS2_PLACEMENT_3D('',#469,#385,#386);
#330=AXIS2_PLACEMENT_3D('',#471,#387,#388);
#331=AXIS2_PLACEMENT_3D('',#472,#389,#390);
#332=AXIS2_PLACEMENT_3D('',#477,#394,#395);
#333=AXIS2_PLACEMENT_3D('',#478,#396,#397);
#334=AXIS2_PLACEMENT_3D('',#480,#399,#400);
#335=AXIS2_PLACEMENT_3D('',#481,#401,#402);
#336=AXIS2_PLACEMENT_3D('',#483,#404,#405);
#337=AXIS2_PLACEMENT_3D('',#485,#407,#408);
#338=DIRECTION('axis',(0.,0.,1.));
#339=DIRECTION('refdir',(1.,0.,0.));
#340=DIRECTION('center_axis',(0.,-1.,0.));
#341=DIRECTION('ref_axis',(0.,0.,-1.));
#342=DIRECTION('',(-1.,0.,0.));
#343=DIRECTION('',(0.,0.,1.));
#344=DIRECTION('',(-0.731323252525059,0.,-0.682031011256944));
#345=DIRECTION('',(0.,0.,1.));
#346=DIRECTION('center_axis',(0.,0.,-1.));
#347=DIRECTION('ref_axis',(-1.,0.,0.));
#348=DIRECTION('',(0.,1.,0.));
#349=DIRECTION('',(-0.707106781186548,-0.707106781186548,0.));
#350=DIRECTION('',(0.,-1.,0.));
#351=DIRECTION('',(0.707106781186548,0.707106781186548,0.));
#352=DIRECTION('center_axis',(0.,0.,1.));
#353=DIRECTION('ref_axis',(1.,0.,0.));
#354=DIRECTION('center_axis',(0.707106781186548,-0.707106781186548,0.));
#355=DIRECTION('ref_axis',(0.707106781186548,0.707106781186548,0.));
#356=DIRECTION('',(-0.707106781186548,-0.707106781186548,0.));
#357=DIRECTION('',(0.,0.,-1.));
#358=DIRECTION('',(-5.9818050895752E-16,0.,1.));
#359=DIRECTION('',(-0.590308068024424,-0.590308068024424,-0.550520453435241));
#360=DIRECTION('',(0.707106781186548,0.707106781186548,0.));
#361=DIRECTION('',(-0.590308068024424,-0.590308068024424,0.550520453435241));
#362=DIRECTION('',(0.,0.,1.));
#363=DIRECTION('center_axis',(-1.,0.,0.));
#364=DIRECTION('ref_axis',(0.,0.,1.));
#365=DIRECTION('',(0.,1.,0.));
#366=DIRECTION('',(0.,0.,1.));
#367=DIRECTION('',(0.,1.,0.));
#368=DIRECTION('center_axis',(-0.707106781186548,0.707106781186548,0.));
#369=DIRECTION('ref_axis',(-0.707106781186548,-0.707106781186548,0.));
#370=DIRECTION('',(5.9818050895752E-16,5.9818050895752E-16,-1.));
#371=DIRECTION('',(0.,0.,1.));
#372=DIRECTION('',(0.,0.,1.));
#373=DIRECTION('',(0.590308068024424,0.590308068024424,-0.550520453435241));
#374=DIRECTION('',(-0.707106781186548,-0.707106781186548,0.));
#375=DIRECTION('',(0.590308068024424,0.590308068024424,0.550520453435241));
#376=DIRECTION('',(0.707106781186548,0.707106781186548,0.));
#377=DIRECTION('center_axis',(0.682031011256944,0.,-0.731323252525059));
#378=DIRECTION('ref_axis',(0.,1.,0.));
#379=DIRECTION('',(0.,-1.,0.));
#380=DIRECTION('center_axis',(-0.682031011256944,0.,-0.731323252525059));
#381=DIRECTION('ref_axis',(0.,-1.,0.));
#382=DIRECTION('',(0.731323252525059,0.,-0.682031011256944));
#383=DIRECTION('',(0.,-1.,0.));
#384=DIRECTION('',(0.,1.,0.));
#385=DIRECTION('center_axis',(0.,0.,-1.));
#386=DIRECTION('ref_axis',(-1.,0.,0.));
#387=DIRECTION('center_axis',(0.,0.,1.));
#388=DIRECTION('ref_axis',(1.,0.,0.));
#389=DIRECTION('center_axis',(0.,0.,1.));
#390=DIRECTION('ref_axis',(1.,0.,0.));
#391=DIRECTION('',(1.,0.,0.));
#392=DIRECTION('',(0.,1.,0.));
#393=DIRECTION('',(0.,1.,0.));
#394=DIRECTION('center_axis',(-1.,0.,0.));
#395=DIRECTION('ref_axis',(0.,0.,1.));
#396=DIRECTION('center_axis',(1.,0.,5.9818050895752E-16));
#397=DIRECTION('ref_axis',(5.9818050895752E-16,0.,-1.));
#398=DIRECTION('',(0.,1.,0.));
#399=DIRECTION('center_axis',(0.,0.,1.));
#400=DIRECTION('ref_axis',(1.,0.,0.));
#401=DIRECTION('center_axis',(0.,0.,-1.));
#402=DIRECTION('ref_axis',(1.,0.,0.));
#403=DIRECTION('',(0.,0.,-1.));
#404=DIRECTION('center_axis',(1.,0.,0.));
#405=DIRECTION('ref_axis',(0.,0.,-1.));
#406=DIRECTION('',(0.,0.,1.));
#407=DIRECTION('center_axis',(0.,1.,0.));
#408=DIRECTION('ref_axis',(0.,0.,1.));
#409=CARTESIAN_POINT('',(0.,0.,0.));
#410=CARTESIAN_POINT('Origin',(4.25,9.5,-8.3));
#411=CARTESIAN_POINT('',(7.,9.5,-2.9));
#412=CARTESIAN_POINT('',(4.25,9.5,-2.9));
#413=CARTESIAN_POINT('',(4.25,9.5,-2.9));
#414=CARTESIAN_POINT('',(7.,9.5,-3.9));
#415=CARTESIAN_POINT('',(7.,9.5,-8.3));
#416=CARTESIAN_POINT('',(4.25,9.5,-6.46464603645613));
#417=CARTESIAN_POINT('',(2.282,9.5,-8.3));
#418=CARTESIAN_POINT('',(4.25,9.5,-8.3));
#419=CARTESIAN_POINT('Origin',(0.,0.,0.));
#420=CARTESIAN_POINT('',(-4.25,-9.5,0.));
#421=CARTESIAN_POINT('',(-4.25,0.999999999999999,0.));
#422=CARTESIAN_POINT('',(-4.25,0.,0.));
#423=CARTESIAN_POINT('',(4.25,-1.,0.));
#424=CARTESIAN_POINT('',(7.,1.75,0.));
#425=CARTESIAN_POINT('',(4.25,9.5,0.));
#426=CARTESIAN_POINT('',(4.25,0.,0.));
#427=CARTESIAN_POINT('',(-7.,-1.75,0.));
#428=CARTESIAN_POINT('',(-2.067,2.53134493383758E-16,-1.73472347597681E-15));
#429=CARTESIAN_POINT('Origin',(0.,0.,-1.73472347597681E-15));
#430=CARTESIAN_POINT('Origin',(-7.,-1.75,-8.3));
#431=CARTESIAN_POINT('',(-4.25,0.999999999999999,-2.9));
#432=CARTESIAN_POINT('',(-7.,-1.75,-2.9));
#433=CARTESIAN_POINT('',(-7.,-1.75,-2.9));
#434=CARTESIAN_POINT('',(-4.25,1.,-8.3));
#435=CARTESIAN_POINT('',(4.25,9.5,-8.3));
#436=CARTESIAN_POINT('',(2.282,7.532,-8.3));
#437=CARTESIAN_POINT('',(-0.342627949496051,4.90737205050395,-10.7477242428535));
#438=CARTESIAN_POINT('',(-2.282,2.968,-8.3));
#439=CARTESIAN_POINT('',(-7.,-1.75,-8.3));
#440=CARTESIAN_POINT('',(-7.,-1.75,-3.9));
#441=CARTESIAN_POINT('',(-3.31624000983859,1.9337599901614,-7.33546925746295));
#442=CARTESIAN_POINT('',(-7.,-1.75,-8.3));
#443=CARTESIAN_POINT('Origin',(7.,9.5,-8.3));
#444=CARTESIAN_POINT('',(7.,1.75,-2.9));
#445=CARTESIAN_POINT('',(7.,-12.,-2.9));
#446=CARTESIAN_POINT('',(7.,1.75,-3.9));
#447=CARTESIAN_POINT('',(7.,1.75,-8.3));
#448=CARTESIAN_POINT('',(7.,9.5,-3.9));
#449=CARTESIAN_POINT('Origin',(7.,1.75,-8.3));
#450=CARTESIAN_POINT('',(4.25,-1.,-2.9));
#451=CARTESIAN_POINT('',(4.25,-0.999999999999997,-8.3));
#452=CARTESIAN_POINT('',(-4.25,-9.5,-2.9));
#453=CARTESIAN_POINT('',(-4.25,-9.5,-8.3));
#454=CARTESIAN_POINT('',(-4.25,-9.5,-6.46464603645613));
#455=CARTESIAN_POINT('',(-4.25,-9.5,-8.3));
#456=CARTESIAN_POINT('',(-2.282,-7.532,-8.3));
#457=CARTESIAN_POINT('',(0.342627949496051,-4.90737205050395,-10.7477242428535));
#458=CARTESIAN_POINT('',(2.282,-2.968,-8.3));
#459=CARTESIAN_POINT('',(7.,1.75,-8.3));
#460=CARTESIAN_POINT('',(3.31624000983859,-1.9337599901614,-7.33546925746295));
#461=CARTESIAN_POINT('',(7.,1.75,-2.9));
#462=CARTESIAN_POINT('Origin',(2.282,0.,-8.3));
#463=CARTESIAN_POINT('',(2.282,1.75,-8.3));
#464=CARTESIAN_POINT('Origin',(-2.282,0.,-8.3));
#465=CARTESIAN_POINT('',(-7.,-9.5,-3.9));
#466=CARTESIAN_POINT('',(-2.282,-9.5,-8.3));
#467=CARTESIAN_POINT('',(-7.,-9.5,-3.9));
#468=CARTESIAN_POINT('',(-2.282,-1.75,-8.3));
#469=CARTESIAN_POINT('Origin',(0.,0.,-8.3));
#470=CARTESIAN_POINT('',(-2.067,2.53134493383758E-16,-8.3));
#471=CARTESIAN_POINT('Origin',(0.,0.,-8.3));
#472=CARTESIAN_POINT('Origin',(-7.,-12.,-2.9));
#473=CARTESIAN_POINT('',(-7.,-9.5,-2.9));
#474=CARTESIAN_POINT('',(-4.25,-9.5,-2.9));
#475=CARTESIAN_POINT('',(-4.25,-12.,-2.9));
#476=CARTESIAN_POINT('',(-7.,-12.,-2.9));
#477=CARTESIAN_POINT('Origin',(-4.25,-12.,-2.9));
#478=CARTESIAN_POINT('Origin',(4.25,-12.,0.));
#479=CARTESIAN_POINT('',(4.25,-12.,-2.9));
#480=CARTESIAN_POINT('Origin',(4.25,-12.,-2.9));
#481=CARTESIAN_POINT('Origin',(0.,0.,0.));
#482=CARTESIAN_POINT('',(-2.067,2.53134493383758E-16,0.));
#483=CARTESIAN_POINT('Origin',(-7.,-9.5,-8.3));
#484=CARTESIAN_POINT('',(-7.,-9.5,-8.3));
#485=CARTESIAN_POINT('Origin',(-4.25,-9.5,-8.3));
#486=UNCERTAINTY_MEASURE_WITH_UNIT(LENGTH_MEASURE(0.01),#490,
'DISTANCE_ACCURACY_VALUE',
'Maximum model space distance between geometric entities at asserted c
onnectivities');
#487=UNCERTAINTY_MEASURE_WITH_UNIT(LENGTH_MEASURE(0.01),#490,
'DISTANCE_ACCURACY_VALUE',
'Maximum model space distance between geometric entities at asserted c
onnectivities');
#488=(
GEOMETRIC_REPRESENTATION_CONTEXT(3)
GLOBAL_UNCERTAINTY_ASSIGNED_CONTEXT((#486))
GLOBAL_UNIT_ASSIGNED_CONTEXT((#490,#492,#493))
REPRESENTATION_CONTEXT('','3D')
);
#489=(
GEOMETRIC_REPRESENTATION_CONTEXT(3)
GLOBAL_UNCERTAINTY_ASSIGNED_CONTEXT((#487))
GLOBAL_UNIT_ASSIGNED_CONTEXT((#490,#492,#493))
REPRESENTATION_CONTEXT('','3D')
);
#490=(
LENGTH_UNIT()
NAMED_UNIT(*)
SI_UNIT(.MILLI.,.METRE.)
);
#491=(
LENGTH_UNIT()
NAMED_UNIT(*)
SI_UNIT(.CENTI.,.METRE.)
);
#492=(
NAMED_UNIT(*)
PLANE_ANGLE_UNIT()
SI_UNIT($,.RADIAN.)
);
#493=(
NAMED_UNIT(*)
SI_UNIT($,.STERADIAN.)
SOLID_ANGLE_UNIT()
);
#494=SHAPE_DEFINITION_REPRESENTATION(#495,#496);
#495=PRODUCT_DEFINITION_SHAPE('',$,#498);
#496=SHAPE_REPRESENTATION('',(#320),#488);
#497=PRODUCT_DEFINITION_CONTEXT('part definition',#502,'design');
#498=PRODUCT_DEFINITION('1025056','1025056',#499,#497);
#499=PRODUCT_DEFINITION_FORMATION(' NONE',$,#504);
#500=PRODUCT_RELATED_PRODUCT_CATEGORY('1025056','1025056',(#504));
#501=APPLICATION_PROTOCOL_DEFINITION('international standard',
'automotive_design',2009,#502);
#502=APPLICATION_CONTEXT(
'Core Data for Automotive Mechanical Design Process');
#503=PRODUCT_CONTEXT('part definition',#502,'mechanical');
#504=PRODUCT('1025056','1025056','STEP AP214',(#503));
#505=PRESENTATION_STYLE_ASSIGNMENT((#508));
#506=PRESENTATION_STYLE_ASSIGNMENT((#509));
#507=PRESENTATION_STYLE_ASSIGNMENT((#510));
#508=SURFACE_STYLE_USAGE(.BOTH.,#517);
#509=SURFACE_STYLE_USAGE(.BOTH.,#518);
#510=SURFACE_STYLE_USAGE(.BOTH.,#519);
#511=SURFACE_STYLE_RENDERING_WITH_PROPERTIES($,#529,(#514));
#512=SURFACE_STYLE_RENDERING_WITH_PROPERTIES($,#530,(#515));
#513=SURFACE_STYLE_RENDERING_WITH_PROPERTIES($,#531,(#516));
#514=SURFACE_STYLE_TRANSPARENT(0.);
#515=SURFACE_STYLE_TRANSPARENT(0.);
#516=SURFACE_STYLE_TRANSPARENT(0.);
#517=SURFACE_SIDE_STYLE('',(#520,#511));
#518=SURFACE_SIDE_STYLE('',(#521,#512));
#519=SURFACE_SIDE_STYLE('',(#522,#513));
#520=SURFACE_STYLE_FILL_AREA(#523);
#521=SURFACE_STYLE_FILL_AREA(#524);
#522=SURFACE_STYLE_FILL_AREA(#525);
#523=FILL_AREA_STYLE('',(#526));
#524=FILL_AREA_STYLE('',(#527));
#525=FILL_AREA_STYLE('',(#528));
#526=FILL_AREA_STYLE_COLOUR('',#529);
#527=FILL_AREA_STYLE_COLOUR('',#530);
#528=FILL_AREA_STYLE_COLOUR('',#531);
#529=COLOUR_RGB('',0.749019607843137,0.749019607843137,0.749019607843137);
#530=COLOUR_RGB('',0.729411764705882,0.768627450980392,0.784313725490196);
#531=COLOUR_RGB('',0.690196078431373,0.690196078431373,0.690196078431373);
ENDSEC;
END-ISO-10303-21;
