ISO-10303-21;
HEADER;
/* Generated by software containing ST-Developer
 * from STEP Tools, Inc. (www.steptools.com) 
 */

FILE_DESCRIPTION(
/* description */ ('STEP AP214'),
/* implementation_level */ '2;1');

FILE_NAME(
/* name */ 
'C:\\Users\\b.steehouwer\\Desktop\\Producten\\ISB profielsysteem\\CAD-
files\\Bevestigingsmaterialen\\T-sleuf moer rhombus\\1025057.stp',
/* time_stamp */ '2024-05-01T08:52:23+02:00',
/* author */ ('b.steehouwer'),
/* organization */ ('CADENAS'),
/* preprocessor_version */ 'ST-DEVELOPER v18.1',
/* originating_system */ 'Autodesk Inventor 2021',
/* authorisation */ ' ');

FILE_SCHEMA (('AUTOMOTIVE_DESIGN { 1 0 10303 214 3 1 1 }'));
ENDSEC;

DATA;
#10=MECHANICAL_DESIGN_GEOMETRIC_PRESENTATION_REPRESENTATION('',(#301,#302,
#303,#304,#305,#306,#307,#308,#309,#310,#311,#312,#313,#314,#315,#316,#317),
#550);
#11=SHAPE_REPRESENTATION_RELATIONSHIP('SRR','None',#557,#12);
#12=ADVANCED_BREP_SHAPE_REPRESENTATION('',(#13),#549);
#13=MANIFOLD_SOLID_BREP('Solid1',#334);
#14=ELLIPSE('',#367,3.3617145243,2.4585);
#15=ELLIPSE('',#368,3.3617145243,2.4585);
#16=ELLIPSE('',#369,3.3617145243,2.4585);
#17=CYLINDRICAL_SURFACE('',#366,2.4585);
#18=FACE_BOUND('',#39,.T.);
#19=CIRCLE('',#355,2.4585);
#20=CIRCLE('',#357,2.4585);
#21=CIRCLE('',#360,2.4585);
#22=FACE_OUTER_BOUND('',#38,.T.);
#23=FACE_OUTER_BOUND('',#40,.T.);
#24=FACE_OUTER_BOUND('',#41,.T.);
#25=FACE_OUTER_BOUND('',#42,.T.);
#26=FACE_OUTER_BOUND('',#43,.T.);
#27=FACE_OUTER_BOUND('',#44,.T.);
#28=FACE_OUTER_BOUND('',#45,.T.);
#29=FACE_OUTER_BOUND('',#46,.T.);
#30=FACE_OUTER_BOUND('',#47,.T.);
#31=FACE_OUTER_BOUND('',#48,.T.);
#32=FACE_OUTER_BOUND('',#49,.T.);
#33=FACE_OUTER_BOUND('',#50,.T.);
#34=FACE_OUTER_BOUND('',#51,.T.);
#35=FACE_OUTER_BOUND('',#52,.T.);
#36=FACE_OUTER_BOUND('',#53,.T.);
#37=FACE_OUTER_BOUND('',#54,.T.);
#38=EDGE_LOOP('',(#200,#201,#202,#203));
#39=EDGE_LOOP('',(#204));
#40=EDGE_LOOP('',(#205,#206,#207,#208));
#41=EDGE_LOOP('',(#209,#210,#211,#212));
#42=EDGE_LOOP('',(#213,#214,#215,#216));
#43=EDGE_LOOP('',(#217,#218,#219,#220));
#44=EDGE_LOOP('',(#221,#222,#223,#224));
#45=EDGE_LOOP('',(#225,#226,#227,#228));
#46=EDGE_LOOP('',(#229,#230,#231,#232));
#47=EDGE_LOOP('',(#233,#234,#235,#236));
#48=EDGE_LOOP('',(#237,#238,#239,#240,#241,#242,#243,#244));
#49=EDGE_LOOP('',(#245,#246,#247,#248,#249,#250,#251,#252));
#50=EDGE_LOOP('',(#253,#254,#255,#256,#257,#258,#259));
#51=EDGE_LOOP('',(#260,#261,#262,#263,#264,#265,#266,#267,#268));
#52=EDGE_LOOP('',(#269,#270,#271,#272));
#53=EDGE_LOOP('',(#273,#274,#275,#276));
#54=EDGE_LOOP('',(#277,#278,#279,#280,#281,#282,#283,#284,#285));
#55=LINE('',#463,#92);
#56=LINE('',#465,#93);
#57=LINE('',#467,#94);
#58=LINE('',#468,#95);
#59=LINE('',#474,#96);
#60=LINE('',#478,#97);
#61=LINE('',#479,#98);
#62=LINE('',#483,#99);
#63=LINE('',#485,#100);
#64=LINE('',#487,#101);
#65=LINE('',#488,#102);
#66=LINE('',#492,#103);
#67=LINE('',#496,#104);
#68=LINE('',#497,#105);
#69=LINE('',#500,#106);
#70=LINE('',#502,#107);
#71=LINE('',#503,#108);
#72=LINE('',#507,#109);
#73=LINE('',#509,#110);
#74=LINE('',#511,#111);
#75=LINE('',#512,#112);
#76=LINE('',#514,#113);
#77=LINE('',#515,#114);
#78=LINE('',#518,#115);
#79=LINE('',#519,#116);
#80=LINE('',#520,#117);
#81=LINE('',#522,#118);
#82=LINE('',#525,#119);
#83=LINE('',#531,#120);
#84=LINE('',#533,#121);
#85=LINE('',#535,#122);
#86=LINE('',#536,#123);
#87=LINE('',#538,#124);
#88=LINE('',#539,#125);
#89=LINE('',#541,#126);
#90=LINE('',#543,#127);
#91=LINE('',#545,#128);
#92=VECTOR('',#380,1000.);
#93=VECTOR('',#381,999.999999999999);
#94=VECTOR('',#382,1000.);
#95=VECTOR('',#383,999.999999999999);
#96=VECTOR('',#388,1000.);
#97=VECTOR('',#391,1000.);
#98=VECTOR('',#392,999.999999999999);
#99=VECTOR('',#395,1000.);
#100=VECTOR('',#396,1000.);
#101=VECTOR('',#397,1000.);
#102=VECTOR('',#398,1000.);
#103=VECTOR('',#401,1000.);
#104=VECTOR('',#404,1000.);
#105=VECTOR('',#405,999.999999999999);
#106=VECTOR('',#408,1000.);
#107=VECTOR('',#409,1000.);
#108=VECTOR('',#410,1000.);
#109=VECTOR('',#413,1000.);
#110=VECTOR('',#414,1000.);
#111=VECTOR('',#415,999.999999999999);
#112=VECTOR('',#416,1000.);
#113=VECTOR('',#419,1000.);
#114=VECTOR('',#420,1000.);
#115=VECTOR('',#423,1000.);
#116=VECTOR('',#424,1000.);
#117=VECTOR('',#425,1000.);
#118=VECTOR('',#428,999.999999999999);
#119=VECTOR('',#431,2.4585);
#120=VECTOR('',#440,1000.);
#121=VECTOR('',#441,1000.);
#122=VECTOR('',#442,1000.);
#123=VECTOR('',#443,1000.);
#124=VECTOR('',#446,1000.);
#125=VECTOR('',#447,1000.);
#126=VECTOR('',#450,1000.);
#127=VECTOR('',#453,1000.);
#128=VECTOR('',#456,1000.);
#129=VERTEX_POINT('',#461);
#130=VERTEX_POINT('',#462);
#131=VERTEX_POINT('',#464);
#132=VERTEX_POINT('',#466);
#133=VERTEX_POINT('',#469);
#134=VERTEX_POINT('',#472);
#135=VERTEX_POINT('',#473);
#136=VERTEX_POINT('',#475);
#137=VERTEX_POINT('',#477);
#138=VERTEX_POINT('',#481);
#139=VERTEX_POINT('',#482);
#140=VERTEX_POINT('',#484);
#141=VERTEX_POINT('',#486);
#142=VERTEX_POINT('',#490);
#143=VERTEX_POINT('',#491);
#144=VERTEX_POINT('',#493);
#145=VERTEX_POINT('',#495);
#146=VERTEX_POINT('',#499);
#147=VERTEX_POINT('',#501);
#148=VERTEX_POINT('',#505);
#149=VERTEX_POINT('',#506);
#150=VERTEX_POINT('',#508);
#151=VERTEX_POINT('',#510);
#152=VERTEX_POINT('',#517);
#153=VERTEX_POINT('',#524);
#154=VERTEX_POINT('',#530);
#155=VERTEX_POINT('',#532);
#156=VERTEX_POINT('',#534);
#157=EDGE_CURVE('',#129,#130,#55,.T.);
#158=EDGE_CURVE('',#131,#129,#56,.T.);
#159=EDGE_CURVE('',#132,#131,#57,.T.);
#160=EDGE_CURVE('',#130,#132,#58,.T.);
#161=EDGE_CURVE('',#133,#133,#19,.T.);
#162=EDGE_CURVE('',#134,#135,#59,.T.);
#163=EDGE_CURVE('',#135,#136,#20,.T.);
#164=EDGE_CURVE('',#136,#137,#60,.T.);
#165=EDGE_CURVE('',#137,#134,#61,.T.);
#166=EDGE_CURVE('',#138,#139,#62,.T.);
#167=EDGE_CURVE('',#140,#138,#63,.T.);
#168=EDGE_CURVE('',#140,#141,#64,.T.);
#169=EDGE_CURVE('',#141,#139,#65,.T.);
#170=EDGE_CURVE('',#142,#143,#66,.T.);
#171=EDGE_CURVE('',#143,#144,#21,.T.);
#172=EDGE_CURVE('',#144,#145,#67,.T.);
#173=EDGE_CURVE('',#145,#142,#68,.T.);
#174=EDGE_CURVE('',#146,#138,#69,.T.);
#175=EDGE_CURVE('',#147,#146,#70,.T.);
#176=EDGE_CURVE('',#147,#140,#71,.T.);
#177=EDGE_CURVE('',#148,#149,#72,.T.);
#178=EDGE_CURVE('',#149,#150,#73,.T.);
#179=EDGE_CURVE('',#150,#151,#74,.T.);
#180=EDGE_CURVE('',#148,#151,#75,.T.);
#181=EDGE_CURVE('',#149,#129,#76,.T.);
#182=EDGE_CURVE('',#130,#150,#77,.T.);
#183=EDGE_CURVE('',#131,#152,#78,.T.);
#184=EDGE_CURVE('',#152,#139,#79,.T.);
#185=EDGE_CURVE('',#139,#132,#80,.T.);
#186=EDGE_CURVE('',#152,#146,#81,.T.);
#187=EDGE_CURVE('',#133,#153,#82,.T.);
#188=EDGE_CURVE('',#136,#153,#14,.F.);
#189=EDGE_CURVE('',#144,#135,#15,.F.);
#190=EDGE_CURVE('',#153,#143,#16,.F.);
#191=EDGE_CURVE('',#154,#142,#83,.T.);
#192=EDGE_CURVE('',#155,#154,#84,.T.);
#193=EDGE_CURVE('',#156,#155,#85,.T.);
#194=EDGE_CURVE('',#137,#156,#86,.T.);
#195=EDGE_CURVE('',#141,#134,#87,.T.);
#196=EDGE_CURVE('',#145,#147,#88,.T.);
#197=EDGE_CURVE('',#154,#149,#89,.T.);
#198=EDGE_CURVE('',#155,#148,#90,.T.);
#199=EDGE_CURVE('',#156,#151,#91,.T.);
#200=ORIENTED_EDGE('',*,*,#157,.F.);
#201=ORIENTED_EDGE('',*,*,#158,.F.);
#202=ORIENTED_EDGE('',*,*,#159,.F.);
#203=ORIENTED_EDGE('',*,*,#160,.F.);
#204=ORIENTED_EDGE('',*,*,#161,.F.);
#205=ORIENTED_EDGE('',*,*,#162,.T.);
#206=ORIENTED_EDGE('',*,*,#163,.T.);
#207=ORIENTED_EDGE('',*,*,#164,.T.);
#208=ORIENTED_EDGE('',*,*,#165,.T.);
#209=ORIENTED_EDGE('',*,*,#166,.F.);
#210=ORIENTED_EDGE('',*,*,#167,.F.);
#211=ORIENTED_EDGE('',*,*,#168,.T.);
#212=ORIENTED_EDGE('',*,*,#169,.T.);
#213=ORIENTED_EDGE('',*,*,#170,.T.);
#214=ORIENTED_EDGE('',*,*,#171,.T.);
#215=ORIENTED_EDGE('',*,*,#172,.T.);
#216=ORIENTED_EDGE('',*,*,#173,.T.);
#217=ORIENTED_EDGE('',*,*,#174,.F.);
#218=ORIENTED_EDGE('',*,*,#175,.F.);
#219=ORIENTED_EDGE('',*,*,#176,.T.);
#220=ORIENTED_EDGE('',*,*,#167,.T.);
#221=ORIENTED_EDGE('',*,*,#177,.T.);
#222=ORIENTED_EDGE('',*,*,#178,.T.);
#223=ORIENTED_EDGE('',*,*,#179,.T.);
#224=ORIENTED_EDGE('',*,*,#180,.F.);
#225=ORIENTED_EDGE('',*,*,#181,.T.);
#226=ORIENTED_EDGE('',*,*,#157,.T.);
#227=ORIENTED_EDGE('',*,*,#182,.T.);
#228=ORIENTED_EDGE('',*,*,#178,.F.);
#229=ORIENTED_EDGE('',*,*,#183,.T.);
#230=ORIENTED_EDGE('',*,*,#184,.T.);
#231=ORIENTED_EDGE('',*,*,#185,.T.);
#232=ORIENTED_EDGE('',*,*,#159,.T.);
#233=ORIENTED_EDGE('',*,*,#186,.T.);
#234=ORIENTED_EDGE('',*,*,#174,.T.);
#235=ORIENTED_EDGE('',*,*,#166,.T.);
#236=ORIENTED_EDGE('',*,*,#184,.F.);
#237=ORIENTED_EDGE('',*,*,#161,.T.);
#238=ORIENTED_EDGE('',*,*,#187,.T.);
#239=ORIENTED_EDGE('',*,*,#188,.F.);
#240=ORIENTED_EDGE('',*,*,#163,.F.);
#241=ORIENTED_EDGE('',*,*,#189,.F.);
#242=ORIENTED_EDGE('',*,*,#171,.F.);
#243=ORIENTED_EDGE('',*,*,#190,.F.);
#244=ORIENTED_EDGE('',*,*,#187,.F.);
#245=ORIENTED_EDGE('',*,*,#188,.T.);
#246=ORIENTED_EDGE('',*,*,#190,.T.);
#247=ORIENTED_EDGE('',*,*,#170,.F.);
#248=ORIENTED_EDGE('',*,*,#191,.F.);
#249=ORIENTED_EDGE('',*,*,#192,.F.);
#250=ORIENTED_EDGE('',*,*,#193,.F.);
#251=ORIENTED_EDGE('',*,*,#194,.F.);
#252=ORIENTED_EDGE('',*,*,#164,.F.);
#253=ORIENTED_EDGE('',*,*,#172,.F.);
#254=ORIENTED_EDGE('',*,*,#189,.T.);
#255=ORIENTED_EDGE('',*,*,#162,.F.);
#256=ORIENTED_EDGE('',*,*,#195,.F.);
#257=ORIENTED_EDGE('',*,*,#168,.F.);
#258=ORIENTED_EDGE('',*,*,#176,.F.);
#259=ORIENTED_EDGE('',*,*,#196,.F.);
#260=ORIENTED_EDGE('',*,*,#183,.F.);
#261=ORIENTED_EDGE('',*,*,#158,.T.);
#262=ORIENTED_EDGE('',*,*,#181,.F.);
#263=ORIENTED_EDGE('',*,*,#197,.F.);
#264=ORIENTED_EDGE('',*,*,#191,.T.);
#265=ORIENTED_EDGE('',*,*,#173,.F.);
#266=ORIENTED_EDGE('',*,*,#196,.T.);
#267=ORIENTED_EDGE('',*,*,#175,.T.);
#268=ORIENTED_EDGE('',*,*,#186,.F.);
#269=ORIENTED_EDGE('',*,*,#177,.F.);
#270=ORIENTED_EDGE('',*,*,#198,.F.);
#271=ORIENTED_EDGE('',*,*,#192,.T.);
#272=ORIENTED_EDGE('',*,*,#197,.T.);
#273=ORIENTED_EDGE('',*,*,#180,.T.);
#274=ORIENTED_EDGE('',*,*,#199,.F.);
#275=ORIENTED_EDGE('',*,*,#193,.T.);
#276=ORIENTED_EDGE('',*,*,#198,.T.);
#277=ORIENTED_EDGE('',*,*,#179,.F.);
#278=ORIENTED_EDGE('',*,*,#182,.F.);
#279=ORIENTED_EDGE('',*,*,#160,.T.);
#280=ORIENTED_EDGE('',*,*,#185,.F.);
#281=ORIENTED_EDGE('',*,*,#169,.F.);
#282=ORIENTED_EDGE('',*,*,#195,.T.);
#283=ORIENTED_EDGE('',*,*,#165,.F.);
#284=ORIENTED_EDGE('',*,*,#194,.T.);
#285=ORIENTED_EDGE('',*,*,#199,.T.);
#286=PLANE('',#354);
#287=PLANE('',#356);
#288=PLANE('',#358);
#289=PLANE('',#359);
#290=PLANE('',#361);
#291=PLANE('',#362);
#292=PLANE('',#363);
#293=PLANE('',#364);
#294=PLANE('',#365);
#295=PLANE('',#370);
#296=PLANE('',#371);
#297=PLANE('',#372);
#298=PLANE('',#373);
#299=PLANE('',#374);
#300=PLANE('',#375);
#301=STYLED_ITEM('',(#567),#318);
#302=STYLED_ITEM('',(#567),#319);
#303=STYLED_ITEM('',(#567),#320);
#304=STYLED_ITEM('',(#567),#321);
#305=STYLED_ITEM('',(#567),#322);
#306=STYLED_ITEM('',(#567),#323);
#307=STYLED_ITEM('',(#567),#324);
#308=STYLED_ITEM('',(#567),#325);
#309=STYLED_ITEM('',(#567),#326);
#310=STYLED_ITEM('',(#567),#327);
#311=STYLED_ITEM('',(#568),#328);
#312=STYLED_ITEM('',(#568),#329);
#313=STYLED_ITEM('',(#567),#330);
#314=STYLED_ITEM('',(#567),#331);
#315=STYLED_ITEM('',(#567),#332);
#316=STYLED_ITEM('',(#567),#333);
#317=STYLED_ITEM('',(#566),#13);
#318=ADVANCED_FACE('',(#22,#18),#286,.F.);
#319=ADVANCED_FACE('',(#23),#287,.T.);
#320=ADVANCED_FACE('',(#24),#288,.F.);
#321=ADVANCED_FACE('',(#25),#289,.T.);
#322=ADVANCED_FACE('',(#26),#290,.F.);
#323=ADVANCED_FACE('',(#27),#291,.T.);
#324=ADVANCED_FACE('',(#28),#292,.T.);
#325=ADVANCED_FACE('',(#29),#293,.T.);
#326=ADVANCED_FACE('',(#30),#294,.T.);
#327=ADVANCED_FACE('',(#31),#17,.F.);
#328=ADVANCED_FACE('',(#32),#295,.T.);
#329=ADVANCED_FACE('',(#33),#296,.T.);
#330=ADVANCED_FACE('',(#34),#297,.F.);
#331=ADVANCED_FACE('',(#35),#298,.F.);
#332=ADVANCED_FACE('',(#36),#299,.F.);
#333=ADVANCED_FACE('',(#37),#300,.F.);
#334=CLOSED_SHELL('',(#318,#319,#320,#321,#322,#323,#324,#325,#326,#327,
#328,#329,#330,#331,#332,#333));
#335=DERIVED_UNIT_ELEMENT(#337,1.);
#336=DERIVED_UNIT_ELEMENT(#552,-3.);
#337=(
MASS_UNIT()
NAMED_UNIT(*)
SI_UNIT($,.GRAM.)
);
#338=DERIVED_UNIT((#335,#336));
#339=MEASURE_REPRESENTATION_ITEM('density measure',
POSITIVE_RATIO_MEASURE(1.),#338);
#340=PROPERTY_DEFINITION_REPRESENTATION(#345,#342);
#341=PROPERTY_DEFINITION_REPRESENTATION(#346,#343);
#342=REPRESENTATION('material name',(#344),#549);
#343=REPRESENTATION('density',(#339),#549);
#344=DESCRIPTIVE_REPRESENTATION_ITEM('Generic','Generic');
#345=PROPERTY_DEFINITION('material property','material name',#559);
#346=PROPERTY_DEFINITION('material property','density of part',#559);
#347=DATE_TIME_ROLE('creation_date');
#348=APPLIED_DATE_AND_TIME_ASSIGNMENT(#349,#347,(#559));
#349=DATE_AND_TIME(#350,#351);
#350=CALENDAR_DATE(2022,4,5);
#351=LOCAL_TIME(11,39,11.,#352);
#352=COORDINATED_UNIVERSAL_TIME_OFFSET(0,0,.BEHIND.);
#353=AXIS2_PLACEMENT_3D('placement',#459,#376,#377);
#354=AXIS2_PLACEMENT_3D('',#460,#378,#379);
#355=AXIS2_PLACEMENT_3D('',#470,#384,#385);
#356=AXIS2_PLACEMENT_3D('',#471,#386,#387);
#357=AXIS2_PLACEMENT_3D('',#476,#389,#390);
#358=AXIS2_PLACEMENT_3D('',#480,#393,#394);
#359=AXIS2_PLACEMENT_3D('',#489,#399,#400);
#360=AXIS2_PLACEMENT_3D('',#494,#402,#403);
#361=AXIS2_PLACEMENT_3D('',#498,#406,#407);
#362=AXIS2_PLACEMENT_3D('',#504,#411,#412);
#363=AXIS2_PLACEMENT_3D('',#513,#417,#418);
#364=AXIS2_PLACEMENT_3D('',#516,#421,#422);
#365=AXIS2_PLACEMENT_3D('',#521,#426,#427);
#366=AXIS2_PLACEMENT_3D('',#523,#429,#430);
#367=AXIS2_PLACEMENT_3D('',#526,#432,#433);
#368=AXIS2_PLACEMENT_3D('',#527,#434,#435);
#369=AXIS2_PLACEMENT_3D('',#528,#436,#437);
#370=AXIS2_PLACEMENT_3D('',#529,#438,#439);
#371=AXIS2_PLACEMENT_3D('',#537,#444,#445);
#372=AXIS2_PLACEMENT_3D('',#540,#448,#449);
#373=AXIS2_PLACEMENT_3D('',#542,#451,#452);
#374=AXIS2_PLACEMENT_3D('',#544,#454,#455);
#375=AXIS2_PLACEMENT_3D('',#546,#457,#458);
#376=DIRECTION('axis',(0.,0.,1.));
#377=DIRECTION('refdir',(1.,0.,0.));
#378=DIRECTION('center_axis',(0.,0.,-1.));
#379=DIRECTION('ref_axis',(-1.,0.,0.));
#380=DIRECTION('',(0.,1.,0.));
#381=DIRECTION('',(-0.707106781186548,-0.707106781186548,0.));
#382=DIRECTION('',(0.,-1.,0.));
#383=DIRECTION('',(0.707106781186548,0.707106781186548,0.));
#384=DIRECTION('center_axis',(0.,0.,1.));
#385=DIRECTION('ref_axis',(1.,0.,0.));
#386=DIRECTION('center_axis',(0.,0.,-1.));
#387=DIRECTION('ref_axis',(-1.,0.,0.));
#388=DIRECTION('',(0.,-1.,0.));
#389=DIRECTION('center_axis',(0.,0.,1.));
#390=DIRECTION('ref_axis',(1.,0.,0.));
#391=DIRECTION('',(0.,1.,0.));
#392=DIRECTION('',(0.707106781186548,0.707106781186548,0.));
#393=DIRECTION('center_axis',(0.,-1.,0.));
#394=DIRECTION('ref_axis',(0.,0.,-1.));
#395=DIRECTION('',(-1.,0.,0.));
#396=DIRECTION('',(0.,0.,1.));
#397=DIRECTION('',(-0.731323252525059,0.,-0.682031011256944));
#398=DIRECTION('',(0.,0.,1.));
#399=DIRECTION('center_axis',(0.,0.,-1.));
#400=DIRECTION('ref_axis',(-1.,0.,0.));
#401=DIRECTION('',(0.,1.,0.));
#402=DIRECTION('center_axis',(0.,0.,1.));
#403=DIRECTION('ref_axis',(1.,0.,0.));
#404=DIRECTION('',(0.,-1.,0.));
#405=DIRECTION('',(-0.707106781186548,-0.707106781186548,0.));
#406=DIRECTION('center_axis',(-1.,0.,0.));
#407=DIRECTION('ref_axis',(0.,0.,1.));
#408=DIRECTION('',(0.,1.,0.));
#409=DIRECTION('',(0.,0.,1.));
#410=DIRECTION('',(0.,1.,0.));
#411=DIRECTION('center_axis',(0.,0.,1.));
#412=DIRECTION('ref_axis',(1.,0.,0.));
#413=DIRECTION('',(1.,0.,0.));
#414=DIRECTION('',(0.,1.,0.));
#415=DIRECTION('',(-0.707106781186548,-0.707106781186548,0.));
#416=DIRECTION('',(0.,1.,0.));
#417=DIRECTION('center_axis',(-1.,0.,0.));
#418=DIRECTION('ref_axis',(0.,0.,1.));
#419=DIRECTION('',(0.,0.,1.));
#420=DIRECTION('',(0.,0.,-1.));
#421=DIRECTION('center_axis',(1.,0.,5.9818050895752E-16));
#422=DIRECTION('ref_axis',(5.9818050895752E-16,0.,-1.));
#423=DIRECTION('',(5.9818050895752E-16,5.9818050895752E-16,-1.));
#424=DIRECTION('',(0.,1.,0.));
#425=DIRECTION('',(-5.9818050895752E-16,0.,1.));
#426=DIRECTION('center_axis',(0.,0.,1.));
#427=DIRECTION('ref_axis',(1.,0.,0.));
#428=DIRECTION('',(0.707106781186548,0.707106781186548,0.));
#429=DIRECTION('center_axis',(0.,0.,-1.));
#430=DIRECTION('ref_axis',(1.,0.,0.));
#431=DIRECTION('',(0.,0.,-1.));
#432=DIRECTION('center_axis',(-0.682031011256944,0.,-0.731323252525059));
#433=DIRECTION('ref_axis',(-0.731323252525059,0.,0.682031011256944));
#434=DIRECTION('center_axis',(0.682031011256944,0.,-0.731323252525059));
#435=DIRECTION('ref_axis',(0.731323252525059,0.,0.682031011256944));
#436=DIRECTION('center_axis',(-0.682031011256944,0.,-0.731323252525059));
#437=DIRECTION('ref_axis',(-0.731323252525059,0.,0.682031011256944));
#438=DIRECTION('center_axis',(-0.682031011256944,0.,-0.731323252525059));
#439=DIRECTION('ref_axis',(0.,-1.,0.));
#440=DIRECTION('',(0.590308068024424,0.590308068024424,-0.550520453435241));
#441=DIRECTION('',(0.731323252525059,0.,-0.682031011256944));
#442=DIRECTION('',(0.,-1.,0.));
#443=DIRECTION('',(-0.590308068024424,-0.590308068024424,0.550520453435241));
#444=DIRECTION('center_axis',(0.682031011256944,0.,-0.731323252525059));
#445=DIRECTION('ref_axis',(0.,1.,0.));
#446=DIRECTION('',(-0.590308068024424,-0.590308068024424,-0.550520453435241));
#447=DIRECTION('',(0.590308068024424,0.590308068024424,0.550520453435241));
#448=DIRECTION('center_axis',(-0.707106781186548,0.707106781186548,0.));
#449=DIRECTION('ref_axis',(-0.707106781186548,-0.707106781186548,0.));
#450=DIRECTION('',(0.,0.,1.));
#451=DIRECTION('center_axis',(0.,1.,0.));
#452=DIRECTION('ref_axis',(0.,0.,1.));
#453=DIRECTION('',(0.,0.,1.));
#454=DIRECTION('center_axis',(1.,0.,0.));
#455=DIRECTION('ref_axis',(0.,0.,-1.));
#456=DIRECTION('',(0.,0.,1.));
#457=DIRECTION('center_axis',(0.707106781186548,-0.707106781186548,0.));
#458=DIRECTION('ref_axis',(0.707106781186548,0.707106781186548,0.));
#459=CARTESIAN_POINT('',(0.,0.,0.));
#460=CARTESIAN_POINT('Origin',(0.,0.,0.));
#461=CARTESIAN_POINT('',(-4.25,-9.5,0.));
#462=CARTESIAN_POINT('',(-4.25,0.999999999999999,0.));
#463=CARTESIAN_POINT('',(-4.25,0.,0.));
#464=CARTESIAN_POINT('',(4.25,-1.,0.));
#465=CARTESIAN_POINT('',(7.,1.75,0.));
#466=CARTESIAN_POINT('',(4.25,9.5,0.));
#467=CARTESIAN_POINT('',(4.25,0.,0.));
#468=CARTESIAN_POINT('',(-7.,-1.75,0.));
#469=CARTESIAN_POINT('',(-2.4585,3.01079415570377E-16,-1.73472347597681E-15));
#470=CARTESIAN_POINT('Origin',(0.,0.,-1.73472347597681E-15));
#471=CARTESIAN_POINT('Origin',(0.,0.,-8.3));
#472=CARTESIAN_POINT('',(2.282,7.532,-8.3));
#473=CARTESIAN_POINT('',(2.282,0.914712113180964,-8.3));
#474=CARTESIAN_POINT('',(2.282,1.75,-8.3));
#475=CARTESIAN_POINT('',(-2.282,0.914712113180964,-8.3));
#476=CARTESIAN_POINT('Origin',(0.,0.,-8.3));
#477=CARTESIAN_POINT('',(-2.282,2.968,-8.3));
#478=CARTESIAN_POINT('',(-2.282,-1.75,-8.3));
#479=CARTESIAN_POINT('',(-7.,-1.75,-8.3));
#480=CARTESIAN_POINT('Origin',(4.25,9.5,-8.3));
#481=CARTESIAN_POINT('',(7.,9.5,-2.9));
#482=CARTESIAN_POINT('',(4.25,9.5,-2.9));
#483=CARTESIAN_POINT('',(4.25,9.5,-2.9));
#484=CARTESIAN_POINT('',(7.,9.5,-3.9));
#485=CARTESIAN_POINT('',(7.,9.5,-8.3));
#486=CARTESIAN_POINT('',(4.25,9.5,-6.46464603645613));
#487=CARTESIAN_POINT('',(2.282,9.5,-8.3));
#488=CARTESIAN_POINT('',(4.25,9.5,-8.3));
#489=CARTESIAN_POINT('Origin',(0.,0.,-8.3));
#490=CARTESIAN_POINT('',(-2.282,-7.532,-8.3));
#491=CARTESIAN_POINT('',(-2.282,-0.914712113180964,-8.3));
#492=CARTESIAN_POINT('',(-2.282,-1.75,-8.3));
#493=CARTESIAN_POINT('',(2.282,-0.914712113180964,-8.3));
#494=CARTESIAN_POINT('Origin',(0.,0.,-8.3));
#495=CARTESIAN_POINT('',(2.282,-2.968,-8.3));
#496=CARTESIAN_POINT('',(2.282,1.75,-8.3));
#497=CARTESIAN_POINT('',(7.,1.75,-8.3));
#498=CARTESIAN_POINT('Origin',(7.,9.5,-8.3));
#499=CARTESIAN_POINT('',(7.,1.75,-2.9));
#500=CARTESIAN_POINT('',(7.,-12.,-2.9));
#501=CARTESIAN_POINT('',(7.,1.75,-3.9));
#502=CARTESIAN_POINT('',(7.,1.75,-8.3));
#503=CARTESIAN_POINT('',(7.,9.5,-3.9));
#504=CARTESIAN_POINT('Origin',(-7.,-12.,-2.9));
#505=CARTESIAN_POINT('',(-7.,-9.5,-2.9));
#506=CARTESIAN_POINT('',(-4.25,-9.5,-2.9));
#507=CARTESIAN_POINT('',(-4.25,-9.5,-2.9));
#508=CARTESIAN_POINT('',(-4.25,0.999999999999999,-2.9));
#509=CARTESIAN_POINT('',(-4.25,-12.,-2.9));
#510=CARTESIAN_POINT('',(-7.,-1.75,-2.9));
#511=CARTESIAN_POINT('',(-7.,-1.75,-2.9));
#512=CARTESIAN_POINT('',(-7.,-12.,-2.9));
#513=CARTESIAN_POINT('Origin',(-4.25,-12.,-2.9));
#514=CARTESIAN_POINT('',(-4.25,-9.5,-8.3));
#515=CARTESIAN_POINT('',(-4.25,1.,-8.3));
#516=CARTESIAN_POINT('Origin',(4.25,-12.,0.));
#517=CARTESIAN_POINT('',(4.25,-1.,-2.9));
#518=CARTESIAN_POINT('',(4.25,-0.999999999999997,-8.3));
#519=CARTESIAN_POINT('',(4.25,-12.,-2.9));
#520=CARTESIAN_POINT('',(4.25,9.5,-8.3));
#521=CARTESIAN_POINT('Origin',(4.25,-12.,-2.9));
#522=CARTESIAN_POINT('',(7.,1.75,-2.9));
#523=CARTESIAN_POINT('Origin',(0.,0.,0.));
#524=CARTESIAN_POINT('',(-2.45849999997181,3.01079415566924E-16,-8.13539635441371));
#525=CARTESIAN_POINT('',(-2.4585,3.01079415570377E-16,0.));
#526=CARTESIAN_POINT('Origin',(0.,0.,-10.4281899109792));
#527=CARTESIAN_POINT('Origin',(0.,0.,-10.4281899109792));
#528=CARTESIAN_POINT('Origin',(0.,0.,-10.4281899109792));
#529=CARTESIAN_POINT('Origin',(-2.282,0.,-8.3));
#530=CARTESIAN_POINT('',(-4.25,-9.5,-6.46464603645613));
#531=CARTESIAN_POINT('',(0.342627949496051,-4.90737205050395,-10.7477242428535));
#532=CARTESIAN_POINT('',(-7.,-9.5,-3.9));
#533=CARTESIAN_POINT('',(-2.282,-9.5,-8.3));
#534=CARTESIAN_POINT('',(-7.,-1.75,-3.9));
#535=CARTESIAN_POINT('',(-7.,-9.5,-3.9));
#536=CARTESIAN_POINT('',(-3.31624000983859,1.9337599901614,-7.33546925746295));
#537=CARTESIAN_POINT('Origin',(2.282,0.,-8.3));
#538=CARTESIAN_POINT('',(-0.342627949496051,4.90737205050395,-10.7477242428535));
#539=CARTESIAN_POINT('',(3.31624000983859,-1.9337599901614,-7.33546925746295));
#540=CARTESIAN_POINT('Origin',(7.,1.75,-8.3));
#541=CARTESIAN_POINT('',(-4.25,-9.5,-8.3));
#542=CARTESIAN_POINT('Origin',(-4.25,-9.5,-8.3));
#543=CARTESIAN_POINT('',(-7.,-9.5,-8.3));
#544=CARTESIAN_POINT('Origin',(-7.,-9.5,-8.3));
#545=CARTESIAN_POINT('',(-7.,-1.75,-8.3));
#546=CARTESIAN_POINT('Origin',(-7.,-1.75,-8.3));
#547=UNCERTAINTY_MEASURE_WITH_UNIT(LENGTH_MEASURE(0.01),#551,
'DISTANCE_ACCURACY_VALUE',
'Maximum model space distance between geometric entities at asserted c
onnectivities');
#548=UNCERTAINTY_MEASURE_WITH_UNIT(LENGTH_MEASURE(0.01),#551,
'DISTANCE_ACCURACY_VALUE',
'Maximum model space distance between geometric entities at asserted c
onnectivities');
#549=(
GEOMETRIC_REPRESENTATION_CONTEXT(3)
GLOBAL_UNCERTAINTY_ASSIGNED_CONTEXT((#547))
GLOBAL_UNIT_ASSIGNED_CONTEXT((#551,#553,#554))
REPRESENTATION_CONTEXT('','3D')
);
#550=(
GEOMETRIC_REPRESENTATION_CONTEXT(3)
GLOBAL_UNCERTAINTY_ASSIGNED_CONTEXT((#548))
GLOBAL_UNIT_ASSIGNED_CONTEXT((#551,#553,#554))
REPRESENTATION_CONTEXT('','3D')
);
#551=(
LENGTH_UNIT()
NAMED_UNIT(*)
SI_UNIT(.MILLI.,.METRE.)
);
#552=(
LENGTH_UNIT()
NAMED_UNIT(*)
SI_UNIT(.CENTI.,.METRE.)
);
#553=(
NAMED_UNIT(*)
PLANE_ANGLE_UNIT()
SI_UNIT($,.RADIAN.)
);
#554=(
NAMED_UNIT(*)
SI_UNIT($,.STERADIAN.)
SOLID_ANGLE_UNIT()
);
#555=SHAPE_DEFINITION_REPRESENTATION(#556,#557);
#556=PRODUCT_DEFINITION_SHAPE('',$,#559);
#557=SHAPE_REPRESENTATION('',(#353),#549);
#558=PRODUCT_DEFINITION_CONTEXT('part definition',#563,'design');
#559=PRODUCT_DEFINITION('1025057','1025057',#560,#558);
#560=PRODUCT_DEFINITION_FORMATION(' NONE',$,#565);
#561=PRODUCT_RELATED_PRODUCT_CATEGORY('1025057','1025057',(#565));
#562=APPLICATION_PROTOCOL_DEFINITION('international standard',
'automotive_design',2009,#563);
#563=APPLICATION_CONTEXT(
'Core Data for Automotive Mechanical Design Process');
#564=PRODUCT_CONTEXT('part definition',#563,'mechanical');
#565=PRODUCT('1025057','1025057','STEP AP214',(#564));
#566=PRESENTATION_STYLE_ASSIGNMENT((#569));
#567=PRESENTATION_STYLE_ASSIGNMENT((#570));
#568=PRESENTATION_STYLE_ASSIGNMENT((#571));
#569=SURFACE_STYLE_USAGE(.BOTH.,#578);
#570=SURFACE_STYLE_USAGE(.BOTH.,#579);
#571=SURFACE_STYLE_USAGE(.BOTH.,#580);
#572=SURFACE_STYLE_RENDERING_WITH_PROPERTIES($,#590,(#575));
#573=SURFACE_STYLE_RENDERING_WITH_PROPERTIES($,#591,(#576));
#574=SURFACE_STYLE_RENDERING_WITH_PROPERTIES($,#592,(#577));
#575=SURFACE_STYLE_TRANSPARENT(0.);
#576=SURFACE_STYLE_TRANSPARENT(0.);
#577=SURFACE_STYLE_TRANSPARENT(0.);
#578=SURFACE_SIDE_STYLE('',(#581,#572));
#579=SURFACE_SIDE_STYLE('',(#582,#573));
#580=SURFACE_SIDE_STYLE('',(#583,#574));
#581=SURFACE_STYLE_FILL_AREA(#584);
#582=SURFACE_STYLE_FILL_AREA(#585);
#583=SURFACE_STYLE_FILL_AREA(#586);
#584=FILL_AREA_STYLE('',(#587));
#585=FILL_AREA_STYLE('',(#588));
#586=FILL_AREA_STYLE('',(#589));
#587=FILL_AREA_STYLE_COLOUR('',#590);
#588=FILL_AREA_STYLE_COLOUR('',#591);
#589=FILL_AREA_STYLE_COLOUR('',#592);
#590=COLOUR_RGB('',0.749019607843137,0.749019607843137,0.749019607843137);
#591=COLOUR_RGB('',0.729411764705882,0.768627450980392,0.784313725490196);
#592=COLOUR_RGB('',0.690196078431373,0.690196078431373,0.690196078431373);
ENDSEC;
END-ISO-10303-21;
