ISO-10303-21;
HEADER;
/* Generated by software containing ST-Developer
 * from STEP Tools, Inc. (www.steptools.com) 
 */

FILE_DESCRIPTION(
/* description */ ('STEP AP214'),
/* implementation_level */ '2;1');

FILE_NAME(
/* name */ 
'C:\\Users\\b.steehouwer\\Desktop\\Producten\\ISB profielsysteem\\CAD-
files\\Bevestigingsmaterialen\\T-sleuf moer\\1008378.stp',
/* time_stamp */ '2024-05-01T08:57:22+02:00',
/* author */ ('b.steehouwer'),
/* organization */ ('CADENAS'),
/* preprocessor_version */ 'ST-DEVELOPER v18.1',
/* originating_system */ 'Autodesk Inventor 2021',
/* authorisation */ ' ');

FILE_SCHEMA (('AUTOMOTIVE_DESIGN { 1 0 10303 214 3 1 1 }'));
ENDSEC;

DATA;
#10=MECHANICAL_DESIGN_GEOMETRIC_PRESENTATION_REPRESENTATION('',(#200,#201,
#202,#203,#204,#205,#206,#207,#208,#209,#210,#211),#432);
#11=SHAPE_REPRESENTATION_RELATIONSHIP('SRR','None',#439,#12);
#12=ADVANCED_BREP_SHAPE_REPRESENTATION('',(#13),#431);
#13=MANIFOLD_SOLID_BREP('Solid1',#223);
#14=FACE_BOUND('',#71,.T.);
#15=FACE_BOUND('',#73,.T.);
#16=CYLINDRICAL_SURFACE('',#258,0.5);
#17=CYLINDRICAL_SURFACE('',#259,15.);
#18=CYLINDRICAL_SURFACE('',#261,15.);
#19=CYLINDRICAL_SURFACE('',#266,1.2295);
#20=CYLINDRICAL_SURFACE('',#267,0.5);
#21=LINE('',#385,#34);
#22=LINE('',#391,#35);
#23=LINE('',#398,#36);
#24=LINE('',#404,#37);
#25=LINE('',#409,#38);
#26=LINE('',#410,#39);
#27=LINE('',#412,#40);
#28=LINE('',#413,#41);
#29=LINE('',#415,#42);
#30=LINE('',#417,#43);
#31=LINE('',#418,#44);
#32=LINE('',#423,#45);
#33=LINE('',#427,#46);
#34=VECTOR('',#282,1000.);
#35=VECTOR('',#287,1000.);
#36=VECTOR('',#294,1000.);
#37=VECTOR('',#299,1000.);
#38=VECTOR('',#306,1000.);
#39=VECTOR('',#307,1000.);
#40=VECTOR('',#310,1000.);
#41=VECTOR('',#311,1000.);
#42=VECTOR('',#314,1000.);
#43=VECTOR('',#317,1000.);
#44=VECTOR('',#318,1000.);
#45=VECTOR('',#325,1000.);
#46=VECTOR('',#330,1.2295);
#47=PLANE('',#248);
#48=PLANE('',#253);
#49=PLANE('',#260);
#50=PLANE('',#262);
#51=PLANE('',#264);
#52=FACE_OUTER_BOUND('',#63,.T.);
#53=FACE_OUTER_BOUND('',#64,.T.);
#54=FACE_OUTER_BOUND('',#65,.T.);
#55=FACE_OUTER_BOUND('',#66,.T.);
#56=FACE_OUTER_BOUND('',#67,.T.);
#57=FACE_OUTER_BOUND('',#68,.T.);
#58=FACE_OUTER_BOUND('',#69,.T.);
#59=FACE_OUTER_BOUND('',#70,.T.);
#60=FACE_OUTER_BOUND('',#72,.T.);
#61=FACE_OUTER_BOUND('',#74,.T.);
#62=FACE_OUTER_BOUND('',#75,.T.);
#63=EDGE_LOOP('',(#141,#142,#143,#144,#145,#146,#147));
#64=EDGE_LOOP('',(#148,#149,#150,#151,#152,#153));
#65=EDGE_LOOP('',(#154,#155,#156,#157,#158,#159));
#66=EDGE_LOOP('',(#160,#161,#162,#163));
#67=EDGE_LOOP('',(#164,#165,#166,#167,#168,#169));
#68=EDGE_LOOP('',(#170,#171,#172,#173,#174));
#69=EDGE_LOOP('',(#175,#176,#177,#178,#179,#180));
#70=EDGE_LOOP('',(#181,#182,#183,#184));
#71=EDGE_LOOP('',(#185));
#72=EDGE_LOOP('',(#186,#187,#188,#189));
#73=EDGE_LOOP('',(#190));
#74=EDGE_LOOP('',(#191,#192,#193,#194));
#75=EDGE_LOOP('',(#195,#196,#197,#198));
#76=B_SPLINE_CURVE_WITH_KNOTS('',3,(#339,#340,#341,#342,#343,#344,#345,
#346,#347,#348,#349,#350,#351,#352,#353,#354,#355,#356),.UNSPECIFIED.,.F.,
 .F.,(4,2,2,2,2,2,2,2,4),(0.394695936420904,0.415436070614979,0.479263087919873,
0.548730519500187,0.6181979510805,0.687665382660814,0.757132814241128,0.820959831546022,
0.841699965740096),.UNSPECIFIED.);
#77=B_SPLINE_CURVE_WITH_KNOTS('',3,(#360,#361,#362,#363,#364,#365,#366,
#367,#368,#369,#370,#371,#372,#373,#374,#375,#376,#377,#378),
 .UNSPECIFIED.,.F.,.F.,(4,2,2,2,3,2,2,2,4),(1.01289388750139,1.03363402169547,
1.09746103900036,1.16692847058067,1.23639590216099,1.3058633337413,1.37533076532161,
1.43915778262651,1.45989791682058),.UNSPECIFIED.);
#78=CIRCLE('',#244,2.3685438565);
#79=CIRCLE('',#245,2.3685438565);
#80=CIRCLE('',#246,2.3685438565);
#81=CIRCLE('',#247,2.5);
#82=CIRCLE('',#249,0.5);
#83=CIRCLE('',#250,15.);
#84=CIRCLE('',#251,15.);
#85=CIRCLE('',#252,0.5);
#86=CIRCLE('',#254,0.5);
#87=CIRCLE('',#255,15.);
#88=CIRCLE('',#256,15.);
#89=CIRCLE('',#257,0.5);
#90=CIRCLE('',#263,1.2295);
#91=CIRCLE('',#265,1.2295);
#92=VERTEX_POINT('',#335);
#93=VERTEX_POINT('',#336);
#94=VERTEX_POINT('',#338);
#95=VERTEX_POINT('',#357);
#96=VERTEX_POINT('',#359);
#97=VERTEX_POINT('',#380);
#98=VERTEX_POINT('',#383);
#99=VERTEX_POINT('',#384);
#100=VERTEX_POINT('',#386);
#101=VERTEX_POINT('',#388);
#102=VERTEX_POINT('',#390);
#103=VERTEX_POINT('',#392);
#104=VERTEX_POINT('',#396);
#105=VERTEX_POINT('',#397);
#106=VERTEX_POINT('',#399);
#107=VERTEX_POINT('',#401);
#108=VERTEX_POINT('',#403);
#109=VERTEX_POINT('',#405);
#110=VERTEX_POINT('',#420);
#111=VERTEX_POINT('',#424);
#112=EDGE_CURVE('',#92,#93,#78,.T.);
#113=EDGE_CURVE('',#94,#92,#76,.T.);
#114=EDGE_CURVE('',#95,#94,#79,.T.);
#115=EDGE_CURVE('',#96,#95,#77,.T.);
#116=EDGE_CURVE('',#93,#96,#80,.T.);
#117=EDGE_CURVE('',#93,#97,#81,.T.);
#118=EDGE_CURVE('',#98,#99,#21,.T.);
#119=EDGE_CURVE('',#99,#100,#82,.T.);
#120=EDGE_CURVE('',#100,#101,#83,.T.);
#121=EDGE_CURVE('',#101,#102,#22,.T.);
#122=EDGE_CURVE('',#102,#103,#84,.T.);
#123=EDGE_CURVE('',#103,#98,#85,.T.);
#124=EDGE_CURVE('',#104,#105,#23,.T.);
#125=EDGE_CURVE('',#106,#104,#86,.T.);
#126=EDGE_CURVE('',#107,#106,#87,.T.);
#127=EDGE_CURVE('',#108,#107,#24,.T.);
#128=EDGE_CURVE('',#109,#108,#88,.T.);
#129=EDGE_CURVE('',#105,#109,#89,.T.);
#130=EDGE_CURVE('',#98,#104,#25,.T.);
#131=EDGE_CURVE('',#103,#106,#26,.T.);
#132=EDGE_CURVE('',#102,#96,#27,.T.);
#133=EDGE_CURVE('',#95,#107,#28,.T.);
#134=EDGE_CURVE('',#101,#92,#29,.T.);
#135=EDGE_CURVE('',#94,#108,#30,.T.);
#136=EDGE_CURVE('',#100,#109,#31,.T.);
#137=EDGE_CURVE('',#110,#110,#90,.T.);
#138=EDGE_CURVE('',#99,#105,#32,.T.);
#139=EDGE_CURVE('',#111,#111,#91,.T.);
#140=EDGE_CURVE('',#111,#110,#33,.T.);
#141=ORIENTED_EDGE('',*,*,#112,.F.);
#142=ORIENTED_EDGE('',*,*,#113,.F.);
#143=ORIENTED_EDGE('',*,*,#114,.F.);
#144=ORIENTED_EDGE('',*,*,#115,.F.);
#145=ORIENTED_EDGE('',*,*,#116,.F.);
#146=ORIENTED_EDGE('',*,*,#117,.T.);
#147=ORIENTED_EDGE('',*,*,#117,.F.);
#148=ORIENTED_EDGE('',*,*,#118,.T.);
#149=ORIENTED_EDGE('',*,*,#119,.T.);
#150=ORIENTED_EDGE('',*,*,#120,.T.);
#151=ORIENTED_EDGE('',*,*,#121,.T.);
#152=ORIENTED_EDGE('',*,*,#122,.T.);
#153=ORIENTED_EDGE('',*,*,#123,.T.);
#154=ORIENTED_EDGE('',*,*,#124,.F.);
#155=ORIENTED_EDGE('',*,*,#125,.F.);
#156=ORIENTED_EDGE('',*,*,#126,.F.);
#157=ORIENTED_EDGE('',*,*,#127,.F.);
#158=ORIENTED_EDGE('',*,*,#128,.F.);
#159=ORIENTED_EDGE('',*,*,#129,.F.);
#160=ORIENTED_EDGE('',*,*,#125,.T.);
#161=ORIENTED_EDGE('',*,*,#130,.F.);
#162=ORIENTED_EDGE('',*,*,#123,.F.);
#163=ORIENTED_EDGE('',*,*,#131,.T.);
#164=ORIENTED_EDGE('',*,*,#132,.T.);
#165=ORIENTED_EDGE('',*,*,#115,.T.);
#166=ORIENTED_EDGE('',*,*,#133,.T.);
#167=ORIENTED_EDGE('',*,*,#126,.T.);
#168=ORIENTED_EDGE('',*,*,#131,.F.);
#169=ORIENTED_EDGE('',*,*,#122,.F.);
#170=ORIENTED_EDGE('',*,*,#112,.T.);
#171=ORIENTED_EDGE('',*,*,#116,.T.);
#172=ORIENTED_EDGE('',*,*,#132,.F.);
#173=ORIENTED_EDGE('',*,*,#121,.F.);
#174=ORIENTED_EDGE('',*,*,#134,.T.);
#175=ORIENTED_EDGE('',*,*,#135,.F.);
#176=ORIENTED_EDGE('',*,*,#113,.T.);
#177=ORIENTED_EDGE('',*,*,#134,.F.);
#178=ORIENTED_EDGE('',*,*,#120,.F.);
#179=ORIENTED_EDGE('',*,*,#136,.T.);
#180=ORIENTED_EDGE('',*,*,#128,.T.);
#181=ORIENTED_EDGE('',*,*,#133,.F.);
#182=ORIENTED_EDGE('',*,*,#114,.T.);
#183=ORIENTED_EDGE('',*,*,#135,.T.);
#184=ORIENTED_EDGE('',*,*,#127,.T.);
#185=ORIENTED_EDGE('',*,*,#137,.T.);
#186=ORIENTED_EDGE('',*,*,#124,.T.);
#187=ORIENTED_EDGE('',*,*,#138,.F.);
#188=ORIENTED_EDGE('',*,*,#118,.F.);
#189=ORIENTED_EDGE('',*,*,#130,.T.);
#190=ORIENTED_EDGE('',*,*,#139,.F.);
#191=ORIENTED_EDGE('',*,*,#139,.T.);
#192=ORIENTED_EDGE('',*,*,#140,.T.);
#193=ORIENTED_EDGE('',*,*,#137,.F.);
#194=ORIENTED_EDGE('',*,*,#140,.F.);
#195=ORIENTED_EDGE('',*,*,#129,.T.);
#196=ORIENTED_EDGE('',*,*,#136,.F.);
#197=ORIENTED_EDGE('',*,*,#119,.F.);
#198=ORIENTED_EDGE('',*,*,#138,.T.);
#199=SPHERICAL_SURFACE('',#243,2.5);
#200=STYLED_ITEM('',(#449),#212);
#201=STYLED_ITEM('',(#450),#213);
#202=STYLED_ITEM('',(#450),#214);
#203=STYLED_ITEM('',(#450),#215);
#204=STYLED_ITEM('',(#450),#216);
#205=STYLED_ITEM('',(#450),#217);
#206=STYLED_ITEM('',(#450),#218);
#207=STYLED_ITEM('',(#450),#219);
#208=STYLED_ITEM('',(#450),#220);
#209=STYLED_ITEM('',(#450),#221);
#210=STYLED_ITEM('',(#450),#222);
#211=STYLED_ITEM('',(#448),#13);
#212=ADVANCED_FACE('',(#52),#199,.T.);
#213=ADVANCED_FACE('',(#53),#47,.T.);
#214=ADVANCED_FACE('',(#54),#48,.F.);
#215=ADVANCED_FACE('',(#55),#16,.T.);
#216=ADVANCED_FACE('',(#56),#17,.T.);
#217=ADVANCED_FACE('',(#57),#49,.F.);
#218=ADVANCED_FACE('',(#58),#18,.T.);
#219=ADVANCED_FACE('',(#59,#14),#50,.F.);
#220=ADVANCED_FACE('',(#60,#15),#51,.F.);
#221=ADVANCED_FACE('',(#61),#19,.F.);
#222=ADVANCED_FACE('',(#62),#20,.T.);
#223=CLOSED_SHELL('',(#212,#213,#214,#215,#216,#217,#218,#219,#220,#221,
#222));
#224=DERIVED_UNIT_ELEMENT(#226,1.);
#225=DERIVED_UNIT_ELEMENT(#434,-3.);
#226=(
MASS_UNIT()
NAMED_UNIT(*)
SI_UNIT($,.GRAM.)
);
#227=DERIVED_UNIT((#224,#225));
#228=MEASURE_REPRESENTATION_ITEM('density measure',
POSITIVE_RATIO_MEASURE(1.),#227);
#229=PROPERTY_DEFINITION_REPRESENTATION(#234,#231);
#230=PROPERTY_DEFINITION_REPRESENTATION(#235,#232);
#231=REPRESENTATION('material name',(#233),#431);
#232=REPRESENTATION('density',(#228),#431);
#233=DESCRIPTIVE_REPRESENTATION_ITEM('Generic','Generic');
#234=PROPERTY_DEFINITION('material property','material name',#441);
#235=PROPERTY_DEFINITION('material property','density of part',#441);
#236=DATE_TIME_ROLE('creation_date');
#237=APPLIED_DATE_AND_TIME_ASSIGNMENT(#238,#236,(#441));
#238=DATE_AND_TIME(#239,#240);
#239=CALENDAR_DATE(2022,22,4);
#240=LOCAL_TIME(7,32,35.,#241);
#241=COORDINATED_UNIVERSAL_TIME_OFFSET(0,0,.BEHIND.);
#242=AXIS2_PLACEMENT_3D('placement',#333,#268,#269);
#243=AXIS2_PLACEMENT_3D('',#334,#270,#271);
#244=AXIS2_PLACEMENT_3D('',#337,#272,#273);
#245=AXIS2_PLACEMENT_3D('',#358,#274,#275);
#246=AXIS2_PLACEMENT_3D('',#379,#276,#277);
#247=AXIS2_PLACEMENT_3D('',#381,#278,#279);
#248=AXIS2_PLACEMENT_3D('',#382,#280,#281);
#249=AXIS2_PLACEMENT_3D('',#387,#283,#284);
#250=AXIS2_PLACEMENT_3D('',#389,#285,#286);
#251=AXIS2_PLACEMENT_3D('',#393,#288,#289);
#252=AXIS2_PLACEMENT_3D('',#394,#290,#291);
#253=AXIS2_PLACEMENT_3D('',#395,#292,#293);
#254=AXIS2_PLACEMENT_3D('',#400,#295,#296);
#255=AXIS2_PLACEMENT_3D('',#402,#297,#298);
#256=AXIS2_PLACEMENT_3D('',#406,#300,#301);
#257=AXIS2_PLACEMENT_3D('',#407,#302,#303);
#258=AXIS2_PLACEMENT_3D('',#408,#304,#305);
#259=AXIS2_PLACEMENT_3D('',#411,#308,#309);
#260=AXIS2_PLACEMENT_3D('',#414,#312,#313);
#261=AXIS2_PLACEMENT_3D('',#416,#315,#316);
#262=AXIS2_PLACEMENT_3D('',#419,#319,#320);
#263=AXIS2_PLACEMENT_3D('',#421,#321,#322);
#264=AXIS2_PLACEMENT_3D('',#422,#323,#324);
#265=AXIS2_PLACEMENT_3D('',#425,#326,#327);
#266=AXIS2_PLACEMENT_3D('',#426,#328,#329);
#267=AXIS2_PLACEMENT_3D('',#428,#331,#332);
#268=DIRECTION('axis',(0.,0.,1.));
#269=DIRECTION('refdir',(1.,0.,0.));
#270=DIRECTION('center_axis',(0.,0.,1.));
#271=DIRECTION('ref_axis',(-1.,0.,0.));
#272=DIRECTION('center_axis',(0.,0.,1.));
#273=DIRECTION('ref_axis',(1.,0.,0.));
#274=DIRECTION('center_axis',(0.,0.,1.));
#275=DIRECTION('ref_axis',(1.,0.,0.));
#276=DIRECTION('center_axis',(0.,0.,1.));
#277=DIRECTION('ref_axis',(1.,0.,0.));
#278=DIRECTION('center_axis',(-1.22464679914735E-16,1.,0.));
#279=DIRECTION('ref_axis',(1.,1.22464679914735E-16,0.));
#280=DIRECTION('center_axis',(1.,0.,0.));
#281=DIRECTION('ref_axis',(0.,0.,-1.));
#282=DIRECTION('',(0.,-1.,0.));
#283=DIRECTION('center_axis',(1.,0.,0.));
#284=DIRECTION('ref_axis',(0.,0.,-1.));
#285=DIRECTION('center_axis',(1.,0.,0.));
#286=DIRECTION('ref_axis',(0.,0.,-1.));
#287=DIRECTION('',(0.,1.,0.));
#288=DIRECTION('center_axis',(1.,0.,0.));
#289=DIRECTION('ref_axis',(0.,0.,-1.));
#290=DIRECTION('center_axis',(1.,0.,0.));
#291=DIRECTION('ref_axis',(0.,0.,-1.));
#292=DIRECTION('center_axis',(1.,0.,0.));
#293=DIRECTION('ref_axis',(0.,0.,-1.));
#294=DIRECTION('',(0.,-1.,0.));
#295=DIRECTION('center_axis',(1.,0.,0.));
#296=DIRECTION('ref_axis',(0.,0.,-1.));
#297=DIRECTION('center_axis',(1.,0.,0.));
#298=DIRECTION('ref_axis',(0.,0.,-1.));
#299=DIRECTION('',(0.,1.,0.));
#300=DIRECTION('center_axis',(1.,0.,0.));
#301=DIRECTION('ref_axis',(0.,0.,-1.));
#302=DIRECTION('center_axis',(1.,0.,0.));
#303=DIRECTION('ref_axis',(0.,0.,-1.));
#304=DIRECTION('center_axis',(1.,0.,0.));
#305=DIRECTION('ref_axis',(0.,0.,1.));
#306=DIRECTION('',(-1.,0.,0.));
#307=DIRECTION('',(-1.,0.,0.));
#308=DIRECTION('center_axis',(1.,0.,0.));
#309=DIRECTION('ref_axis',(0.,0.,1.));
#310=DIRECTION('',(-1.,0.,0.));
#311=DIRECTION('',(-1.,0.,0.));
#312=DIRECTION('center_axis',(0.,0.,1.));
#313=DIRECTION('ref_axis',(1.,0.,0.));
#314=DIRECTION('',(-1.,0.,0.));
#315=DIRECTION('center_axis',(1.,0.,0.));
#316=DIRECTION('ref_axis',(0.,0.,1.));
#317=DIRECTION('',(-1.,0.,0.));
#318=DIRECTION('',(-1.,0.,0.));
#319=DIRECTION('center_axis',(0.,0.,1.));
#320=DIRECTION('ref_axis',(1.,0.,0.));
#321=DIRECTION('center_axis',(0.,0.,1.));
#322=DIRECTION('ref_axis',(1.,0.,0.));
#323=DIRECTION('center_axis',(0.,0.,-1.));
#324=DIRECTION('ref_axis',(-1.,0.,0.));
#325=DIRECTION('',(-1.,0.,0.));
#326=DIRECTION('center_axis',(0.,0.,1.));
#327=DIRECTION('ref_axis',(1.,0.,0.));
#328=DIRECTION('center_axis',(0.,0.,-1.));
#329=DIRECTION('ref_axis',(1.,0.,0.));
#330=DIRECTION('',(0.,0.,-1.));
#331=DIRECTION('center_axis',(1.,0.,0.));
#332=DIRECTION('ref_axis',(0.,0.,1.));
#333=CARTESIAN_POINT('',(0.,0.,0.));
#334=CARTESIAN_POINT('Origin',(9.5,0.,-6.2));
#335=CARTESIAN_POINT('',(11.3334045878304,-1.49954246932936,-7.));
#336=CARTESIAN_POINT('',(11.8685438565,2.90062965250285E-16,-7.));
#337=CARTESIAN_POINT('Origin',(9.5,0.,-7.));
#338=CARTESIAN_POINT('',(7.66659541216959,-1.49954246932936,-7.));
#339=CARTESIAN_POINT('Ctrl Pts',(7.66659541216961,-1.49954246932937,-7.00000000000003));
#340=CARTESIAN_POINT('Ctrl Pts',(7.69558925099008,-1.55485105432854,-6.96277483123439));
#341=CARTESIAN_POINT('Ctrl Pts',(7.72740800835054,-1.60767973653908,-6.9266794172731));
#342=CARTESIAN_POINT('Ctrl Pts',(7.86464267551833,-1.81018412343655,-6.78660487918054));
#343=CARTESIAN_POINT('Ctrl Pts',(8.02236420259896,-1.9728156009935,-6.66888855655863));
#344=CARTESIAN_POINT('Ctrl Pts',(8.35035982018682,-2.21313685734511,-6.48977899118971));
#345=CARTESIAN_POINT('Ctrl Pts',(8.56196120415428,-2.32134106712278,-6.40590755729524));
#346=CARTESIAN_POINT('Ctrl Pts',(9.02098264506719,-2.46429039761257,-6.29356422650446));
#347=CARTESIAN_POINT('Ctrl Pts',(9.26844189473229,-2.49914464273638,-6.26539154901104));
#348=CARTESIAN_POINT('Ctrl Pts',(9.73155810526771,-2.49914464273638,-6.26539154901104));
#349=CARTESIAN_POINT('Ctrl Pts',(9.97901735493281,-2.46429039761257,-6.29356422650446));
#350=CARTESIAN_POINT('Ctrl Pts',(10.4380387958457,-2.32134106712278,-6.40590755729524));
#351=CARTESIAN_POINT('Ctrl Pts',(10.6496401798132,-2.21313685734511,-6.48977899118971));
#352=CARTESIAN_POINT('Ctrl Pts',(10.977635797401,-1.9728156009935,-6.66888855655863));
#353=CARTESIAN_POINT('Ctrl Pts',(11.1353573244817,-1.81018412343655,-6.78660487918054));
#354=CARTESIAN_POINT('Ctrl Pts',(11.2725919916495,-1.60767973653908,-6.9266794172731));
#355=CARTESIAN_POINT('Ctrl Pts',(11.3044107490099,-1.55485105432855,-6.96277483123439));
#356=CARTESIAN_POINT('Ctrl Pts',(11.3334045878304,-1.49954246932937,-7.00000000000003));
#357=CARTESIAN_POINT('',(7.66659541216958,1.49954246932935,-7.));
#358=CARTESIAN_POINT('Origin',(9.5,0.,-7.));
#359=CARTESIAN_POINT('',(11.3334045878304,1.49954246932935,-7.));
#360=CARTESIAN_POINT('Ctrl Pts',(11.3334045878304,1.49954246932938,-7.00000000000007));
#361=CARTESIAN_POINT('Ctrl Pts',(11.3044107490099,1.55485105432855,-6.96277483123443));
#362=CARTESIAN_POINT('Ctrl Pts',(11.2725919916494,1.60767973653909,-6.92667941727313));
#363=CARTESIAN_POINT('Ctrl Pts',(11.1353573244816,1.81018412343655,-6.78660487918057));
#364=CARTESIAN_POINT('Ctrl Pts',(10.977635797401,1.9728156009935,-6.66888855655867));
#365=CARTESIAN_POINT('Ctrl Pts',(10.6496401798132,2.21313685734511,-6.48977899118976));
#366=CARTESIAN_POINT('Ctrl Pts',(10.4380387958457,2.32134106712278,-6.40590755729528));
#367=CARTESIAN_POINT('Ctrl Pts',(9.97901735493281,2.46429039761257,-6.2935642265045));
#368=CARTESIAN_POINT('Ctrl Pts',(9.73155810526771,2.49914464273638,-6.26539154901108));
#369=CARTESIAN_POINT('Ctrl Pts',(9.5,2.49914464273638,-6.26539154901108));
#370=CARTESIAN_POINT('Ctrl Pts',(9.26844189473229,2.49914464273638,-6.26539154901108));
#371=CARTESIAN_POINT('Ctrl Pts',(9.02098264506719,2.46429039761257,-6.2935642265045));
#372=CARTESIAN_POINT('Ctrl Pts',(8.5619612041543,2.32134106712278,-6.40590755729528));
#373=CARTESIAN_POINT('Ctrl Pts',(8.35035982018684,2.21313685734511,-6.48977899118976));
#374=CARTESIAN_POINT('Ctrl Pts',(8.02236420259898,1.9728156009935,-6.66888855655867));
#375=CARTESIAN_POINT('Ctrl Pts',(7.86464267551835,1.81018412343655,-6.78660487918057));
#376=CARTESIAN_POINT('Ctrl Pts',(7.72740800835056,1.60767973653909,-6.92667941727313));
#377=CARTESIAN_POINT('Ctrl Pts',(7.6955892509901,1.55485105432855,-6.96277483123443));
#378=CARTESIAN_POINT('Ctrl Pts',(7.66659541216963,1.49954246932937,-7.00000000000007));
#379=CARTESIAN_POINT('Origin',(9.5,0.,-7.));
#380=CARTESIAN_POINT('',(9.5,0.,-8.7));
#381=CARTESIAN_POINT('Origin',(9.5,0.,-6.2));
#382=CARTESIAN_POINT('Origin',(14.5,-6.34985954724101,-0.499999999999999));
#383=CARTESIAN_POINT('',(14.5,6.34985954724101,6.50521303491303E-16));
#384=CARTESIAN_POINT('',(14.5,-6.34985954724101,0.));
#385=CARTESIAN_POINT('',(14.5,6.34985954724101,0.));
#386=CARTESIAN_POINT('',(14.5,-6.80591782581604,-0.704965476466593));
#387=CARTESIAN_POINT('Origin',(14.5,-6.34985954724101,-0.499999999999999));
#388=CARTESIAN_POINT('',(14.5,-1.49954246932936,-7.));
#389=CARTESIAN_POINT('Origin',(14.5,6.87582999999997,5.44399999999997));
#390=CARTESIAN_POINT('',(14.5,1.49954246932935,-7.));
#391=CARTESIAN_POINT('',(14.5,-1.49954246932935,-7.));
#392=CARTESIAN_POINT('',(14.5,6.8059178074907,-0.704965517241377));
#393=CARTESIAN_POINT('Origin',(14.5,-6.87582999999994,5.44399999999995));
#394=CARTESIAN_POINT('Origin',(14.5,6.34985954724101,-0.5));
#395=CARTESIAN_POINT('Origin',(-7.5,-6.34985954724101,-0.499999999999999));
#396=CARTESIAN_POINT('',(-7.5,6.34985954724101,6.50521303491303E-16));
#397=CARTESIAN_POINT('',(-7.5,-6.34985954724101,0.));
#398=CARTESIAN_POINT('',(-7.5,6.34985954724101,0.));
#399=CARTESIAN_POINT('',(-7.5,6.8059178074907,-0.704965517241377));
#400=CARTESIAN_POINT('Origin',(-7.5,6.34985954724101,-0.5));
#401=CARTESIAN_POINT('',(-7.5,1.49954246932935,-7.));
#402=CARTESIAN_POINT('Origin',(-7.5,-6.87582999999994,5.44399999999995));
#403=CARTESIAN_POINT('',(-7.5,-1.49954246932936,-7.));
#404=CARTESIAN_POINT('',(-7.5,-1.49954246932935,-7.));
#405=CARTESIAN_POINT('',(-7.5,-6.80591782581604,-0.704965476466593));
#406=CARTESIAN_POINT('Origin',(-7.5,6.87582999999997,5.44399999999997));
#407=CARTESIAN_POINT('Origin',(-7.5,-6.34985954724101,-0.499999999999999));
#408=CARTESIAN_POINT('Origin',(14.5,6.34985954724101,-0.5));
#409=CARTESIAN_POINT('',(14.5,6.34985954724101,6.50521303491303E-16));
#410=CARTESIAN_POINT('',(14.5,6.8059178074907,-0.704965517241377));
#411=CARTESIAN_POINT('Origin',(14.5,-6.87582999999994,5.44399999999995));
#412=CARTESIAN_POINT('',(14.5,1.49954246932935,-7.));
#413=CARTESIAN_POINT('',(14.5,1.49954246932935,-7.));
#414=CARTESIAN_POINT('Origin',(14.5,-1.49954246932935,-7.));
#415=CARTESIAN_POINT('',(14.5,-1.49954246932936,-7.));
#416=CARTESIAN_POINT('Origin',(14.5,6.87582999999997,5.44399999999997));
#417=CARTESIAN_POINT('',(14.5,-1.49954246932936,-7.));
#418=CARTESIAN_POINT('',(14.5,-6.80591782581604,-0.704965476466593));
#419=CARTESIAN_POINT('Origin',(14.5,-1.49954246932935,-7.));
#420=CARTESIAN_POINT('',(-1.2295,1.50570323955167E-16,-7.));
#421=CARTESIAN_POINT('Origin',(0.,0.,-7.));
#422=CARTESIAN_POINT('Origin',(14.5,6.34985954724101,0.));
#423=CARTESIAN_POINT('',(14.5,-6.34985954724101,0.));
#424=CARTESIAN_POINT('',(-1.2295,1.50570323955167E-16,0.));
#425=CARTESIAN_POINT('Origin',(0.,0.,0.));
#426=CARTESIAN_POINT('Origin',(0.,0.,0.));
#427=CARTESIAN_POINT('',(-1.2295,1.50570323955167E-16,0.));
#428=CARTESIAN_POINT('Origin',(14.5,-6.34985954724101,-0.499999999999999));
#429=UNCERTAINTY_MEASURE_WITH_UNIT(LENGTH_MEASURE(0.01),#433,
'DISTANCE_ACCURACY_VALUE',
'Maximum model space distance between geometric entities at asserted c
onnectivities');
#430=UNCERTAINTY_MEASURE_WITH_UNIT(LENGTH_MEASURE(0.01),#433,
'DISTANCE_ACCURACY_VALUE',
'Maximum model space distance between geometric entities at asserted c
onnectivities');
#431=(
GEOMETRIC_REPRESENTATION_CONTEXT(3)
GLOBAL_UNCERTAINTY_ASSIGNED_CONTEXT((#429))
GLOBAL_UNIT_ASSIGNED_CONTEXT((#433,#435,#436))
REPRESENTATION_CONTEXT('','3D')
);
#432=(
GEOMETRIC_REPRESENTATION_CONTEXT(3)
GLOBAL_UNCERTAINTY_ASSIGNED_CONTEXT((#430))
GLOBAL_UNIT_ASSIGNED_CONTEXT((#433,#435,#436))
REPRESENTATION_CONTEXT('','3D')
);
#433=(
LENGTH_UNIT()
NAMED_UNIT(*)
SI_UNIT(.MILLI.,.METRE.)
);
#434=(
LENGTH_UNIT()
NAMED_UNIT(*)
SI_UNIT(.CENTI.,.METRE.)
);
#435=(
NAMED_UNIT(*)
PLANE_ANGLE_UNIT()
SI_UNIT($,.RADIAN.)
);
#436=(
NAMED_UNIT(*)
SI_UNIT($,.STERADIAN.)
SOLID_ANGLE_UNIT()
);
#437=SHAPE_DEFINITION_REPRESENTATION(#438,#439);
#438=PRODUCT_DEFINITION_SHAPE('',$,#441);
#439=SHAPE_REPRESENTATION('',(#242),#431);
#440=PRODUCT_DEFINITION_CONTEXT('part definition',#445,'design');
#441=PRODUCT_DEFINITION('1008378','1008378',#442,#440);
#442=PRODUCT_DEFINITION_FORMATION(' NONE',$,#447);
#443=PRODUCT_RELATED_PRODUCT_CATEGORY('1008378','1008378',(#447));
#444=APPLICATION_PROTOCOL_DEFINITION('international standard',
'automotive_design',2009,#445);
#445=APPLICATION_CONTEXT(
'Core Data for Automotive Mechanical Design Process');
#446=PRODUCT_CONTEXT('part definition',#445,'mechanical');
#447=PRODUCT('1008378','1008378','STEP AP214',(#446));
#448=PRESENTATION_STYLE_ASSIGNMENT((#451));
#449=PRESENTATION_STYLE_ASSIGNMENT((#452));
#450=PRESENTATION_STYLE_ASSIGNMENT((#453));
#451=SURFACE_STYLE_USAGE(.BOTH.,#460);
#452=SURFACE_STYLE_USAGE(.BOTH.,#461);
#453=SURFACE_STYLE_USAGE(.BOTH.,#462);
#454=SURFACE_STYLE_RENDERING_WITH_PROPERTIES($,#472,(#457));
#455=SURFACE_STYLE_RENDERING_WITH_PROPERTIES($,#473,(#458));
#456=SURFACE_STYLE_RENDERING_WITH_PROPERTIES($,#474,(#459));
#457=SURFACE_STYLE_TRANSPARENT(0.);
#458=SURFACE_STYLE_TRANSPARENT(0.);
#459=SURFACE_STYLE_TRANSPARENT(0.);
#460=SURFACE_SIDE_STYLE('',(#463,#454));
#461=SURFACE_SIDE_STYLE('',(#464,#455));
#462=SURFACE_SIDE_STYLE('',(#465,#456));
#463=SURFACE_STYLE_FILL_AREA(#466);
#464=SURFACE_STYLE_FILL_AREA(#467);
#465=SURFACE_STYLE_FILL_AREA(#468);
#466=FILL_AREA_STYLE('',(#469));
#467=FILL_AREA_STYLE('',(#470));
#468=FILL_AREA_STYLE('',(#471));
#469=FILL_AREA_STYLE_COLOUR('',#472);
#470=FILL_AREA_STYLE_COLOUR('',#473);
#471=FILL_AREA_STYLE_COLOUR('',#474);
#472=COLOUR_RGB('',0.749019607843137,0.749019607843137,0.749019607843137);
#473=COLOUR_RGB('',0.752941176470588,0.752941176470588,0.752941176470588);
#474=COLOUR_RGB('',0.729411764705882,0.768627450980392,0.784313725490196);
ENDSEC;
END-ISO-10303-21;
