ISO-10303-21;
HEADER;
/* Generated by software containing ST-Developer
 * from STEP Tools, Inc. (www.steptools.com) 
 */

FILE_DESCRIPTION(
/* description */ ('STEP AP214'),
/* implementation_level */ '2;1');

FILE_NAME(
/* name */ 
'C:\\Users\\b.steehouwer\\Desktop\\Producten\\ISB profielsysteem\\CAD-
files\\Bevestigingsmaterialen\\T-sleuf moer\\1008379.stp',
/* time_stamp */ '2024-05-01T08:58:31+02:00',
/* author */ ('b.steehouwer'),
/* organization */ ('CADENAS'),
/* preprocessor_version */ 'ST-DEVELOPER v18.1',
/* originating_system */ 'Autodesk Inventor 2021',
/* authorisation */ ' ');

FILE_SCHEMA (('AUTOMOTIVE_DESIGN { 1 0 10303 214 3 1 1 }'));
ENDSEC;

DATA;
#10=MECHANICAL_DESIGN_GEOMETRIC_PRESENTATION_REPRESENTATION('',(#231,#232,
#233,#234,#235,#236,#237,#238,#239,#240,#241,#242,#243),#506);
#11=SHAPE_REPRESENTATION_RELATIONSHIP('SRR','None',#513,#12);
#12=ADVANCED_BREP_SHAPE_REPRESENTATION('',(#13),#505);
#13=MANIFOLD_SOLID_BREP('Solid1',#256);
#14=FACE_BOUND('',#71,.T.);
#15=PLANE('',#284);
#16=PLANE('',#286);
#17=PLANE('',#290);
#18=PLANE('',#295);
#19=PLANE('',#298);
#20=PLANE('',#300);
#21=LINE('',#439,#36);
#22=LINE('',#441,#37);
#23=LINE('',#445,#38);
#24=LINE('',#448,#39);
#25=LINE('',#452,#40);
#26=LINE('',#454,#41);
#27=LINE('',#456,#42);
#28=LINE('',#457,#43);
#29=LINE('',#463,#44);
#30=LINE('',#472,#45);
#31=LINE('',#475,#46);
#32=LINE('',#481,#47);
#33=LINE('',#485,#48);
#34=LINE('',#487,#49);
#35=LINE('',#502,#50);
#36=VECTOR('',#318,1000.);
#37=VECTOR('',#319,1000.);
#38=VECTOR('',#322,1000.);
#39=VECTOR('',#325,1000.);
#40=VECTOR('',#328,1000.);
#41=VECTOR('',#329,1000.);
#42=VECTOR('',#330,1000.);
#43=VECTOR('',#331,1000.);
#44=VECTOR('',#338,1000.);
#45=VECTOR('',#349,1000.);
#46=VECTOR('',#354,1000.);
#47=VECTOR('',#361,1000.);
#48=VECTOR('',#366,1000.);
#49=VECTOR('',#369,1000.);
#50=VECTOR('',#376,1.621);
#51=CYLINDRICAL_SURFACE('',#281,15.);
#52=CYLINDRICAL_SURFACE('',#294,0.5);
#53=CYLINDRICAL_SURFACE('',#301,0.5);
#54=CYLINDRICAL_SURFACE('',#302,15.);
#55=CYLINDRICAL_SURFACE('',#303,1.621);
#56=FACE_OUTER_BOUND('',#68,.T.);
#57=FACE_OUTER_BOUND('',#69,.T.);
#58=FACE_OUTER_BOUND('',#70,.T.);
#59=FACE_OUTER_BOUND('',#72,.T.);
#60=FACE_OUTER_BOUND('',#73,.T.);
#61=FACE_OUTER_BOUND('',#74,.T.);
#62=FACE_OUTER_BOUND('',#75,.T.);
#63=FACE_OUTER_BOUND('',#76,.T.);
#64=FACE_OUTER_BOUND('',#77,.T.);
#65=FACE_OUTER_BOUND('',#78,.T.);
#66=FACE_OUTER_BOUND('',#79,.T.);
#67=FACE_OUTER_BOUND('',#80,.T.);
#68=EDGE_LOOP('',(#160,#161,#162,#163,#164,#165,#166));
#69=EDGE_LOOP('',(#167,#168,#169,#170,#171,#172,#173,#174));
#70=EDGE_LOOP('',(#175,#176,#177,#178));
#71=EDGE_LOOP('',(#179));
#72=EDGE_LOOP('',(#180,#181,#182,#183,#184,#185));
#73=EDGE_LOOP('',(#186,#187,#188,#189,#190,#191));
#74=EDGE_LOOP('',(#192,#193,#194,#195));
#75=EDGE_LOOP('',(#196,#197,#198,#199,#200));
#76=EDGE_LOOP('',(#201,#202,#203,#204));
#77=EDGE_LOOP('',(#205,#206,#207,#208,#209));
#78=EDGE_LOOP('',(#210,#211,#212,#213));
#79=EDGE_LOOP('',(#214,#215,#216,#217,#218,#219,#220,#221));
#80=EDGE_LOOP('',(#222,#223,#224,#225,#226,#227,#228,#229));
#81=B_SPLINE_CURVE_WITH_KNOTS('',3,(#383,#384,#385,#386,#387,#388,#389,
#390,#391,#392,#393,#394,#395,#396,#397,#398,#399,#400),.UNSPECIFIED.,.F.,
 .F.,(4,2,2,2,2,2,2,2,4),(0.394695936420904,0.415436070614979,0.479263087919873,
0.548730519500187,0.6181979510805,0.687665382660814,0.757132814241128,0.820959831546022,
0.841699965740096),.UNSPECIFIED.);
#82=B_SPLINE_CURVE_WITH_KNOTS('',3,(#404,#405,#406,#407,#408,#409,#410,
#411,#412,#413,#414,#415,#416,#417,#418,#419,#420,#421,#422),
 .UNSPECIFIED.,.F.,.F.,(4,2,2,2,3,2,2,2,4),(1.01289388750139,1.03363402169547,
1.09746103900036,1.16692847058067,1.23639590216099,1.3058633337413,1.37533076532161,
1.43915778262651,1.45989791682058),.UNSPECIFIED.);
#83=B_SPLINE_CURVE_WITH_KNOTS('',3,(#429,#430,#431,#432,#433,#434,#435,
#436,#437,#438),.UNSPECIFIED.,.F.,.F.,(4,2,2,2,4),(0.45902970397321,0.459616858969888,
0.520689323306238,0.581761787642589,0.582348942639267),.UNSPECIFIED.);
#84=B_SPLINE_CURVE_WITH_KNOTS('',3,(#490,#491,#492,#493,#494,#495,#496,
#497,#498,#499,#500),.UNSPECIFIED.,.F.,.F.,(4,2,3,2,4),(-0.0616596193330271,
-0.0610724643363508,0.,0.0610724643363507,0.0616596193330271),
 .UNSPECIFIED.);
#85=CIRCLE('',#277,2.3685438565);
#86=CIRCLE('',#278,2.3685438565);
#87=CIRCLE('',#279,2.3685438565);
#88=CIRCLE('',#280,2.5);
#89=CIRCLE('',#282,15.);
#90=CIRCLE('',#283,15.);
#91=CIRCLE('',#285,1.621);
#92=CIRCLE('',#287,0.5);
#93=CIRCLE('',#288,15.);
#94=CIRCLE('',#289,0.5);
#95=CIRCLE('',#291,0.5);
#96=CIRCLE('',#292,15.);
#97=CIRCLE('',#293,0.5);
#98=CIRCLE('',#296,1.621);
#99=CIRCLE('',#297,1.621);
#100=CIRCLE('',#299,1.621);
#101=VERTEX_POINT('',#379);
#102=VERTEX_POINT('',#380);
#103=VERTEX_POINT('',#382);
#104=VERTEX_POINT('',#401);
#105=VERTEX_POINT('',#403);
#106=VERTEX_POINT('',#424);
#107=VERTEX_POINT('',#427);
#108=VERTEX_POINT('',#428);
#109=VERTEX_POINT('',#440);
#110=VERTEX_POINT('',#442);
#111=VERTEX_POINT('',#444);
#112=VERTEX_POINT('',#446);
#113=VERTEX_POINT('',#450);
#114=VERTEX_POINT('',#451);
#115=VERTEX_POINT('',#453);
#116=VERTEX_POINT('',#455);
#117=VERTEX_POINT('',#458);
#118=VERTEX_POINT('',#462);
#119=VERTEX_POINT('',#464);
#120=VERTEX_POINT('',#468);
#121=VERTEX_POINT('',#470);
#122=VERTEX_POINT('',#477);
#123=VERTEX_POINT('',#478);
#124=VERTEX_POINT('',#483);
#125=EDGE_CURVE('',#101,#102,#85,.T.);
#126=EDGE_CURVE('',#103,#101,#81,.T.);
#127=EDGE_CURVE('',#104,#103,#86,.T.);
#128=EDGE_CURVE('',#105,#104,#82,.T.);
#129=EDGE_CURVE('',#102,#105,#87,.T.);
#130=EDGE_CURVE('',#102,#106,#88,.T.);
#131=EDGE_CURVE('',#107,#108,#83,.T.);
#132=EDGE_CURVE('',#103,#107,#21,.T.);
#133=EDGE_CURVE('',#109,#101,#22,.T.);
#134=EDGE_CURVE('',#110,#109,#89,.T.);
#135=EDGE_CURVE('',#110,#111,#23,.T.);
#136=EDGE_CURVE('',#111,#112,#90,.T.);
#137=EDGE_CURVE('',#108,#112,#24,.T.);
#138=EDGE_CURVE('',#113,#114,#25,.T.);
#139=EDGE_CURVE('',#115,#114,#26,.T.);
#140=EDGE_CURVE('',#116,#115,#27,.T.);
#141=EDGE_CURVE('',#116,#113,#28,.T.);
#142=EDGE_CURVE('',#117,#117,#91,.T.);
#143=EDGE_CURVE('',#115,#110,#92,.T.);
#144=EDGE_CURVE('',#109,#118,#29,.T.);
#145=EDGE_CURVE('',#118,#119,#93,.T.);
#146=EDGE_CURVE('',#119,#116,#94,.T.);
#147=EDGE_CURVE('',#120,#113,#95,.T.);
#148=EDGE_CURVE('',#121,#120,#96,.T.);
#149=EDGE_CURVE('',#112,#121,#30,.T.);
#150=EDGE_CURVE('',#114,#111,#97,.T.);
#151=EDGE_CURVE('',#119,#120,#31,.T.);
#152=EDGE_CURVE('',#122,#123,#98,.T.);
#153=EDGE_CURVE('',#123,#108,#99,.T.);
#154=EDGE_CURVE('',#122,#121,#32,.T.);
#155=EDGE_CURVE('',#107,#124,#100,.T.);
#156=EDGE_CURVE('',#104,#124,#33,.T.);
#157=EDGE_CURVE('',#118,#105,#34,.T.);
#158=EDGE_CURVE('',#122,#124,#84,.T.);
#159=EDGE_CURVE('',#117,#123,#35,.T.);
#160=ORIENTED_EDGE('',*,*,#125,.F.);
#161=ORIENTED_EDGE('',*,*,#126,.F.);
#162=ORIENTED_EDGE('',*,*,#127,.F.);
#163=ORIENTED_EDGE('',*,*,#128,.F.);
#164=ORIENTED_EDGE('',*,*,#129,.F.);
#165=ORIENTED_EDGE('',*,*,#130,.T.);
#166=ORIENTED_EDGE('',*,*,#130,.F.);
#167=ORIENTED_EDGE('',*,*,#131,.F.);
#168=ORIENTED_EDGE('',*,*,#132,.F.);
#169=ORIENTED_EDGE('',*,*,#126,.T.);
#170=ORIENTED_EDGE('',*,*,#133,.F.);
#171=ORIENTED_EDGE('',*,*,#134,.F.);
#172=ORIENTED_EDGE('',*,*,#135,.T.);
#173=ORIENTED_EDGE('',*,*,#136,.T.);
#174=ORIENTED_EDGE('',*,*,#137,.F.);
#175=ORIENTED_EDGE('',*,*,#138,.T.);
#176=ORIENTED_EDGE('',*,*,#139,.F.);
#177=ORIENTED_EDGE('',*,*,#140,.F.);
#178=ORIENTED_EDGE('',*,*,#141,.T.);
#179=ORIENTED_EDGE('',*,*,#142,.F.);
#180=ORIENTED_EDGE('',*,*,#140,.T.);
#181=ORIENTED_EDGE('',*,*,#143,.T.);
#182=ORIENTED_EDGE('',*,*,#134,.T.);
#183=ORIENTED_EDGE('',*,*,#144,.T.);
#184=ORIENTED_EDGE('',*,*,#145,.T.);
#185=ORIENTED_EDGE('',*,*,#146,.T.);
#186=ORIENTED_EDGE('',*,*,#138,.F.);
#187=ORIENTED_EDGE('',*,*,#147,.F.);
#188=ORIENTED_EDGE('',*,*,#148,.F.);
#189=ORIENTED_EDGE('',*,*,#149,.F.);
#190=ORIENTED_EDGE('',*,*,#136,.F.);
#191=ORIENTED_EDGE('',*,*,#150,.F.);
#192=ORIENTED_EDGE('',*,*,#147,.T.);
#193=ORIENTED_EDGE('',*,*,#141,.F.);
#194=ORIENTED_EDGE('',*,*,#146,.F.);
#195=ORIENTED_EDGE('',*,*,#151,.T.);
#196=ORIENTED_EDGE('',*,*,#152,.T.);
#197=ORIENTED_EDGE('',*,*,#153,.T.);
#198=ORIENTED_EDGE('',*,*,#137,.T.);
#199=ORIENTED_EDGE('',*,*,#149,.T.);
#200=ORIENTED_EDGE('',*,*,#154,.F.);
#201=ORIENTED_EDGE('',*,*,#155,.T.);
#202=ORIENTED_EDGE('',*,*,#156,.F.);
#203=ORIENTED_EDGE('',*,*,#127,.T.);
#204=ORIENTED_EDGE('',*,*,#132,.T.);
#205=ORIENTED_EDGE('',*,*,#125,.T.);
#206=ORIENTED_EDGE('',*,*,#129,.T.);
#207=ORIENTED_EDGE('',*,*,#157,.F.);
#208=ORIENTED_EDGE('',*,*,#144,.F.);
#209=ORIENTED_EDGE('',*,*,#133,.T.);
#210=ORIENTED_EDGE('',*,*,#150,.T.);
#211=ORIENTED_EDGE('',*,*,#135,.F.);
#212=ORIENTED_EDGE('',*,*,#143,.F.);
#213=ORIENTED_EDGE('',*,*,#139,.T.);
#214=ORIENTED_EDGE('',*,*,#158,.F.);
#215=ORIENTED_EDGE('',*,*,#154,.T.);
#216=ORIENTED_EDGE('',*,*,#148,.T.);
#217=ORIENTED_EDGE('',*,*,#151,.F.);
#218=ORIENTED_EDGE('',*,*,#145,.F.);
#219=ORIENTED_EDGE('',*,*,#157,.T.);
#220=ORIENTED_EDGE('',*,*,#128,.T.);
#221=ORIENTED_EDGE('',*,*,#156,.T.);
#222=ORIENTED_EDGE('',*,*,#142,.T.);
#223=ORIENTED_EDGE('',*,*,#159,.T.);
#224=ORIENTED_EDGE('',*,*,#152,.F.);
#225=ORIENTED_EDGE('',*,*,#158,.T.);
#226=ORIENTED_EDGE('',*,*,#155,.F.);
#227=ORIENTED_EDGE('',*,*,#131,.T.);
#228=ORIENTED_EDGE('',*,*,#153,.F.);
#229=ORIENTED_EDGE('',*,*,#159,.F.);
#230=SPHERICAL_SURFACE('',#276,2.5);
#231=STYLED_ITEM('',(#523),#244);
#232=STYLED_ITEM('',(#524),#245);
#233=STYLED_ITEM('',(#524),#246);
#234=STYLED_ITEM('',(#524),#247);
#235=STYLED_ITEM('',(#524),#248);
#236=STYLED_ITEM('',(#524),#249);
#237=STYLED_ITEM('',(#524),#250);
#238=STYLED_ITEM('',(#524),#251);
#239=STYLED_ITEM('',(#524),#252);
#240=STYLED_ITEM('',(#524),#253);
#241=STYLED_ITEM('',(#524),#254);
#242=STYLED_ITEM('',(#524),#255);
#243=STYLED_ITEM('',(#522),#13);
#244=ADVANCED_FACE('',(#56),#230,.T.);
#245=ADVANCED_FACE('',(#57),#51,.T.);
#246=ADVANCED_FACE('',(#58,#14),#15,.F.);
#247=ADVANCED_FACE('',(#59),#16,.T.);
#248=ADVANCED_FACE('',(#60),#17,.F.);
#249=ADVANCED_FACE('',(#61),#52,.T.);
#250=ADVANCED_FACE('',(#62),#18,.F.);
#251=ADVANCED_FACE('',(#63),#19,.F.);
#252=ADVANCED_FACE('',(#64),#20,.F.);
#253=ADVANCED_FACE('',(#65),#53,.T.);
#254=ADVANCED_FACE('',(#66),#54,.T.);
#255=ADVANCED_FACE('',(#67),#55,.F.);
#256=CLOSED_SHELL('',(#244,#245,#246,#247,#248,#249,#250,#251,#252,#253,
#254,#255));
#257=DERIVED_UNIT_ELEMENT(#259,1.);
#258=DERIVED_UNIT_ELEMENT(#508,-3.);
#259=(
MASS_UNIT()
NAMED_UNIT(*)
SI_UNIT($,.GRAM.)
);
#260=DERIVED_UNIT((#257,#258));
#261=MEASURE_REPRESENTATION_ITEM('density measure',
POSITIVE_RATIO_MEASURE(1.),#260);
#262=PROPERTY_DEFINITION_REPRESENTATION(#267,#264);
#263=PROPERTY_DEFINITION_REPRESENTATION(#268,#265);
#264=REPRESENTATION('material name',(#266),#505);
#265=REPRESENTATION('density',(#261),#505);
#266=DESCRIPTIVE_REPRESENTATION_ITEM('Generic','Generic');
#267=PROPERTY_DEFINITION('material property','material name',#515);
#268=PROPERTY_DEFINITION('material property','density of part',#515);
#269=DATE_TIME_ROLE('creation_date');
#270=APPLIED_DATE_AND_TIME_ASSIGNMENT(#271,#269,(#515));
#271=DATE_AND_TIME(#272,#273);
#272=CALENDAR_DATE(2022,22,4);
#273=LOCAL_TIME(7,32,59.,#274);
#274=COORDINATED_UNIVERSAL_TIME_OFFSET(0,0,.BEHIND.);
#275=AXIS2_PLACEMENT_3D('placement',#377,#304,#305);
#276=AXIS2_PLACEMENT_3D('',#378,#306,#307);
#277=AXIS2_PLACEMENT_3D('',#381,#308,#309);
#278=AXIS2_PLACEMENT_3D('',#402,#310,#311);
#279=AXIS2_PLACEMENT_3D('',#423,#312,#313);
#280=AXIS2_PLACEMENT_3D('',#425,#314,#315);
#281=AXIS2_PLACEMENT_3D('',#426,#316,#317);
#282=AXIS2_PLACEMENT_3D('',#443,#320,#321);
#283=AXIS2_PLACEMENT_3D('',#447,#323,#324);
#284=AXIS2_PLACEMENT_3D('',#449,#326,#327);
#285=AXIS2_PLACEMENT_3D('',#459,#332,#333);
#286=AXIS2_PLACEMENT_3D('',#460,#334,#335);
#287=AXIS2_PLACEMENT_3D('',#461,#336,#337);
#288=AXIS2_PLACEMENT_3D('',#465,#339,#340);
#289=AXIS2_PLACEMENT_3D('',#466,#341,#342);
#290=AXIS2_PLACEMENT_3D('',#467,#343,#344);
#291=AXIS2_PLACEMENT_3D('',#469,#345,#346);
#292=AXIS2_PLACEMENT_3D('',#471,#347,#348);
#293=AXIS2_PLACEMENT_3D('',#473,#350,#351);
#294=AXIS2_PLACEMENT_3D('',#474,#352,#353);
#295=AXIS2_PLACEMENT_3D('',#476,#355,#356);
#296=AXIS2_PLACEMENT_3D('',#479,#357,#358);
#297=AXIS2_PLACEMENT_3D('',#480,#359,#360);
#298=AXIS2_PLACEMENT_3D('',#482,#362,#363);
#299=AXIS2_PLACEMENT_3D('',#484,#364,#365);
#300=AXIS2_PLACEMENT_3D('',#486,#367,#368);
#301=AXIS2_PLACEMENT_3D('',#488,#370,#371);
#302=AXIS2_PLACEMENT_3D('',#489,#372,#373);
#303=AXIS2_PLACEMENT_3D('',#501,#374,#375);
#304=DIRECTION('axis',(0.,0.,1.));
#305=DIRECTION('refdir',(1.,0.,0.));
#306=DIRECTION('center_axis',(0.,0.,1.));
#307=DIRECTION('ref_axis',(-1.,0.,0.));
#308=DIRECTION('center_axis',(0.,0.,1.));
#309=DIRECTION('ref_axis',(1.,0.,0.));
#310=DIRECTION('center_axis',(0.,0.,1.));
#311=DIRECTION('ref_axis',(1.,0.,0.));
#312=DIRECTION('center_axis',(0.,0.,1.));
#313=DIRECTION('ref_axis',(1.,0.,0.));
#314=DIRECTION('center_axis',(-1.22464679914735E-16,1.,0.));
#315=DIRECTION('ref_axis',(1.,1.22464679914735E-16,0.));
#316=DIRECTION('center_axis',(1.,0.,0.));
#317=DIRECTION('ref_axis',(0.,0.,1.));
#318=DIRECTION('',(-1.,0.,0.));
#319=DIRECTION('',(-1.,0.,0.));
#320=DIRECTION('center_axis',(1.,0.,0.));
#321=DIRECTION('ref_axis',(0.,0.,-1.));
#322=DIRECTION('',(-1.,0.,0.));
#323=DIRECTION('center_axis',(1.,0.,0.));
#324=DIRECTION('ref_axis',(0.,0.,-1.));
#325=DIRECTION('',(-1.,0.,0.));
#326=DIRECTION('center_axis',(0.,0.,-1.));
#327=DIRECTION('ref_axis',(-1.,0.,0.));
#328=DIRECTION('',(0.,-1.,0.));
#329=DIRECTION('',(-1.,0.,0.));
#330=DIRECTION('',(0.,-1.,0.));
#331=DIRECTION('',(-1.,0.,0.));
#332=DIRECTION('center_axis',(0.,0.,1.));
#333=DIRECTION('ref_axis',(1.,0.,0.));
#334=DIRECTION('center_axis',(1.,0.,0.));
#335=DIRECTION('ref_axis',(0.,0.,-1.));
#336=DIRECTION('center_axis',(1.,0.,0.));
#337=DIRECTION('ref_axis',(0.,0.,-1.));
#338=DIRECTION('',(0.,1.,0.));
#339=DIRECTION('center_axis',(1.,0.,0.));
#340=DIRECTION('ref_axis',(0.,0.,-1.));
#341=DIRECTION('center_axis',(1.,0.,0.));
#342=DIRECTION('ref_axis',(0.,0.,-1.));
#343=DIRECTION('center_axis',(1.,0.,0.));
#344=DIRECTION('ref_axis',(0.,0.,-1.));
#345=DIRECTION('center_axis',(1.,0.,0.));
#346=DIRECTION('ref_axis',(0.,0.,-1.));
#347=DIRECTION('center_axis',(1.,0.,0.));
#348=DIRECTION('ref_axis',(0.,0.,-1.));
#349=DIRECTION('',(0.,1.,0.));
#350=DIRECTION('center_axis',(1.,0.,0.));
#351=DIRECTION('ref_axis',(0.,0.,-1.));
#352=DIRECTION('center_axis',(1.,0.,0.));
#353=DIRECTION('ref_axis',(0.,0.,1.));
#354=DIRECTION('',(-1.,0.,0.));
#355=DIRECTION('center_axis',(0.,0.,1.));
#356=DIRECTION('ref_axis',(1.,0.,0.));
#357=DIRECTION('center_axis',(0.,0.,1.));
#358=DIRECTION('ref_axis',(1.,0.,0.));
#359=DIRECTION('center_axis',(0.,0.,1.));
#360=DIRECTION('ref_axis',(1.,0.,0.));
#361=DIRECTION('',(-1.,0.,0.));
#362=DIRECTION('center_axis',(0.,0.,1.));
#363=DIRECTION('ref_axis',(1.,0.,0.));
#364=DIRECTION('center_axis',(0.,0.,1.));
#365=DIRECTION('ref_axis',(1.,0.,0.));
#366=DIRECTION('',(-1.,0.,0.));
#367=DIRECTION('center_axis',(0.,0.,1.));
#368=DIRECTION('ref_axis',(1.,0.,0.));
#369=DIRECTION('',(-1.,0.,0.));
#370=DIRECTION('center_axis',(1.,0.,0.));
#371=DIRECTION('ref_axis',(0.,0.,1.));
#372=DIRECTION('center_axis',(1.,0.,0.));
#373=DIRECTION('ref_axis',(0.,0.,1.));
#374=DIRECTION('center_axis',(0.,0.,-1.));
#375=DIRECTION('ref_axis',(1.,0.,0.));
#376=DIRECTION('',(0.,0.,-1.));
#377=CARTESIAN_POINT('',(0.,0.,0.));
#378=CARTESIAN_POINT('Origin',(9.5,0.,-6.2));
#379=CARTESIAN_POINT('',(11.3334045878304,-1.49954246932936,-7.));
#380=CARTESIAN_POINT('',(11.8685438565,2.90062965250285E-16,-7.));
#381=CARTESIAN_POINT('Origin',(9.5,0.,-7.));
#382=CARTESIAN_POINT('',(7.66659541216959,-1.49954246932936,-7.));
#383=CARTESIAN_POINT('Ctrl Pts',(7.66659541216961,-1.49954246932937,-7.00000000000003));
#384=CARTESIAN_POINT('Ctrl Pts',(7.69558925099008,-1.55485105432854,-6.96277483123439));
#385=CARTESIAN_POINT('Ctrl Pts',(7.72740800835054,-1.60767973653908,-6.9266794172731));
#386=CARTESIAN_POINT('Ctrl Pts',(7.86464267551833,-1.81018412343655,-6.78660487918054));
#387=CARTESIAN_POINT('Ctrl Pts',(8.02236420259896,-1.9728156009935,-6.66888855655863));
#388=CARTESIAN_POINT('Ctrl Pts',(8.35035982018682,-2.21313685734511,-6.48977899118971));
#389=CARTESIAN_POINT('Ctrl Pts',(8.56196120415428,-2.32134106712278,-6.40590755729524));
#390=CARTESIAN_POINT('Ctrl Pts',(9.02098264506719,-2.46429039761257,-6.29356422650446));
#391=CARTESIAN_POINT('Ctrl Pts',(9.26844189473229,-2.49914464273638,-6.26539154901104));
#392=CARTESIAN_POINT('Ctrl Pts',(9.73155810526771,-2.49914464273638,-6.26539154901104));
#393=CARTESIAN_POINT('Ctrl Pts',(9.97901735493281,-2.46429039761257,-6.29356422650446));
#394=CARTESIAN_POINT('Ctrl Pts',(10.4380387958457,-2.32134106712278,-6.40590755729524));
#395=CARTESIAN_POINT('Ctrl Pts',(10.6496401798132,-2.21313685734511,-6.48977899118971));
#396=CARTESIAN_POINT('Ctrl Pts',(10.977635797401,-1.9728156009935,-6.66888855655863));
#397=CARTESIAN_POINT('Ctrl Pts',(11.1353573244817,-1.81018412343655,-6.78660487918054));
#398=CARTESIAN_POINT('Ctrl Pts',(11.2725919916495,-1.60767973653908,-6.9266794172731));
#399=CARTESIAN_POINT('Ctrl Pts',(11.3044107490099,-1.55485105432855,-6.96277483123439));
#400=CARTESIAN_POINT('Ctrl Pts',(11.3334045878304,-1.49954246932937,-7.00000000000003));
#401=CARTESIAN_POINT('',(7.66659541216958,1.49954246932935,-7.));
#402=CARTESIAN_POINT('Origin',(9.5,0.,-7.));
#403=CARTESIAN_POINT('',(11.3334045878304,1.49954246932935,-7.));
#404=CARTESIAN_POINT('Ctrl Pts',(11.3334045878304,1.49954246932938,-7.00000000000007));
#405=CARTESIAN_POINT('Ctrl Pts',(11.3044107490099,1.55485105432855,-6.96277483123443));
#406=CARTESIAN_POINT('Ctrl Pts',(11.2725919916494,1.60767973653909,-6.92667941727313));
#407=CARTESIAN_POINT('Ctrl Pts',(11.1353573244816,1.81018412343655,-6.78660487918057));
#408=CARTESIAN_POINT('Ctrl Pts',(10.977635797401,1.9728156009935,-6.66888855655867));
#409=CARTESIAN_POINT('Ctrl Pts',(10.6496401798132,2.21313685734511,-6.48977899118976));
#410=CARTESIAN_POINT('Ctrl Pts',(10.4380387958457,2.32134106712278,-6.40590755729528));
#411=CARTESIAN_POINT('Ctrl Pts',(9.97901735493281,2.46429039761257,-6.2935642265045));
#412=CARTESIAN_POINT('Ctrl Pts',(9.73155810526771,2.49914464273638,-6.26539154901108));
#413=CARTESIAN_POINT('Ctrl Pts',(9.5,2.49914464273638,-6.26539154901108));
#414=CARTESIAN_POINT('Ctrl Pts',(9.26844189473229,2.49914464273638,-6.26539154901108));
#415=CARTESIAN_POINT('Ctrl Pts',(9.02098264506719,2.46429039761257,-6.2935642265045));
#416=CARTESIAN_POINT('Ctrl Pts',(8.5619612041543,2.32134106712278,-6.40590755729528));
#417=CARTESIAN_POINT('Ctrl Pts',(8.35035982018684,2.21313685734511,-6.48977899118976));
#418=CARTESIAN_POINT('Ctrl Pts',(8.02236420259898,1.9728156009935,-6.66888855655867));
#419=CARTESIAN_POINT('Ctrl Pts',(7.86464267551835,1.81018412343655,-6.78660487918057));
#420=CARTESIAN_POINT('Ctrl Pts',(7.72740800835056,1.60767973653909,-6.92667941727313));
#421=CARTESIAN_POINT('Ctrl Pts',(7.6955892509901,1.55485105432855,-6.96277483123443));
#422=CARTESIAN_POINT('Ctrl Pts',(7.66659541216963,1.49954246932937,-7.00000000000007));
#423=CARTESIAN_POINT('Origin',(9.5,0.,-7.));
#424=CARTESIAN_POINT('',(9.5,0.,-8.7));
#425=CARTESIAN_POINT('Origin',(9.5,0.,-6.2));
#426=CARTESIAN_POINT('Origin',(14.5,6.87582999999997,5.44399999999997));
#427=CARTESIAN_POINT('',(0.615640627864692,-1.49954246932935,-7.));
#428=CARTESIAN_POINT('',(-0.615640627864692,-1.49954246932935,-7.));
#429=CARTESIAN_POINT('Ctrl Pts',(0.615640627864682,-1.49954246932936,-7.00000000000005));
#430=CARTESIAN_POINT('Ctrl Pts',(0.613788113024751,-1.50030302358008,-6.99948811273446));
#431=CARTESIAN_POINT('Ctrl Pts',(0.611933812555369,-1.5010602999539,-6.99897833027989));
#432=CARTESIAN_POINT('Ctrl Pts',(0.417020476273176,-1.58023933536349,-6.94566627016986));
#433=CARTESIAN_POINT('Ctrl Pts',(0.203574881121169,-1.621,-6.9173866516302));
#434=CARTESIAN_POINT('Ctrl Pts',(-0.203574881121169,-1.621,-6.9173866516302));
#435=CARTESIAN_POINT('Ctrl Pts',(-0.417020476273176,-1.58023933536349,-6.94566627016986));
#436=CARTESIAN_POINT('Ctrl Pts',(-0.611933812555369,-1.5010602999539,-6.99897833027989));
#437=CARTESIAN_POINT('Ctrl Pts',(-0.613788113024751,-1.50030302358008,-6.99948811273446));
#438=CARTESIAN_POINT('Ctrl Pts',(-0.615640627864682,-1.49954246932936,-7.00000000000005));
#439=CARTESIAN_POINT('',(14.5,-1.49954246932936,-7.));
#440=CARTESIAN_POINT('',(14.5,-1.49954246932936,-7.));
#441=CARTESIAN_POINT('',(14.5,-1.49954246932936,-7.));
#442=CARTESIAN_POINT('',(14.5,-6.80591782581604,-0.704965476466593));
#443=CARTESIAN_POINT('Origin',(14.5,6.87582999999997,5.44399999999997));
#444=CARTESIAN_POINT('',(-7.5,-6.80591782581604,-0.704965476466593));
#445=CARTESIAN_POINT('',(14.5,-6.80591782581604,-0.704965476466593));
#446=CARTESIAN_POINT('',(-7.5,-1.49954246932936,-7.));
#447=CARTESIAN_POINT('Origin',(-7.5,6.87582999999997,5.44399999999997));
#448=CARTESIAN_POINT('',(14.5,-1.49954246932936,-7.));
#449=CARTESIAN_POINT('Origin',(14.5,6.34985954724101,0.));
#450=CARTESIAN_POINT('',(-7.5,6.34985954724101,6.50521303491303E-16));
#451=CARTESIAN_POINT('',(-7.5,-6.34985954724101,0.));
#452=CARTESIAN_POINT('',(-7.5,6.34985954724101,0.));
#453=CARTESIAN_POINT('',(14.5,-6.34985954724101,0.));
#454=CARTESIAN_POINT('',(14.5,-6.34985954724101,0.));
#455=CARTESIAN_POINT('',(14.5,6.34985954724101,6.50521303491303E-16));
#456=CARTESIAN_POINT('',(14.5,6.34985954724101,0.));
#457=CARTESIAN_POINT('',(14.5,6.34985954724101,6.50521303491303E-16));
#458=CARTESIAN_POINT('',(-1.621,1.98515246141786E-16,0.));
#459=CARTESIAN_POINT('Origin',(0.,0.,0.));
#460=CARTESIAN_POINT('Origin',(14.5,-6.34985954724101,-0.499999999999999));
#461=CARTESIAN_POINT('Origin',(14.5,-6.34985954724101,-0.499999999999999));
#462=CARTESIAN_POINT('',(14.5,1.49954246932935,-7.));
#463=CARTESIAN_POINT('',(14.5,-1.49954246932935,-7.));
#464=CARTESIAN_POINT('',(14.5,6.8059178074907,-0.704965517241377));
#465=CARTESIAN_POINT('Origin',(14.5,-6.87582999999994,5.44399999999995));
#466=CARTESIAN_POINT('Origin',(14.5,6.34985954724101,-0.5));
#467=CARTESIAN_POINT('Origin',(-7.5,-6.34985954724101,-0.499999999999999));
#468=CARTESIAN_POINT('',(-7.5,6.8059178074907,-0.704965517241377));
#469=CARTESIAN_POINT('Origin',(-7.5,6.34985954724101,-0.5));
#470=CARTESIAN_POINT('',(-7.5,1.49954246932935,-7.));
#471=CARTESIAN_POINT('Origin',(-7.5,-6.87582999999994,5.44399999999995));
#472=CARTESIAN_POINT('',(-7.5,-1.49954246932935,-7.));
#473=CARTESIAN_POINT('Origin',(-7.5,-6.34985954724101,-0.499999999999999));
#474=CARTESIAN_POINT('Origin',(14.5,6.34985954724101,-0.5));
#475=CARTESIAN_POINT('',(14.5,6.8059178074907,-0.704965517241377));
#476=CARTESIAN_POINT('Origin',(14.5,-1.49954246932935,-7.));
#477=CARTESIAN_POINT('',(-0.615640627864691,1.49954246932935,-7.));
#478=CARTESIAN_POINT('',(-1.621,1.98515246141786E-16,-7.00000000000008));
#479=CARTESIAN_POINT('Origin',(0.,0.,-7.));
#480=CARTESIAN_POINT('Origin',(0.,0.,-7.));
#481=CARTESIAN_POINT('',(14.5,1.49954246932935,-7.));
#482=CARTESIAN_POINT('Origin',(14.5,-1.49954246932935,-7.));
#483=CARTESIAN_POINT('',(0.615640627864692,1.49954246932935,-7.));
#484=CARTESIAN_POINT('Origin',(0.,0.,-7.));
#485=CARTESIAN_POINT('',(14.5,1.49954246932935,-7.));
#486=CARTESIAN_POINT('Origin',(14.5,-1.49954246932935,-7.));
#487=CARTESIAN_POINT('',(14.5,1.49954246932935,-7.));
#488=CARTESIAN_POINT('Origin',(14.5,-6.34985954724101,-0.499999999999999));
#489=CARTESIAN_POINT('Origin',(14.5,-6.87582999999994,5.44399999999995));
#490=CARTESIAN_POINT('Ctrl Pts',(-0.615640627864672,1.49954246932936,-7.00000000000008));
#491=CARTESIAN_POINT('Ctrl Pts',(-0.613788113024745,1.50030302358008,-6.9994881127345));
#492=CARTESIAN_POINT('Ctrl Pts',(-0.611933812555366,1.5010602999539,-6.99897833027993));
#493=CARTESIAN_POINT('Ctrl Pts',(-0.417020476273176,1.58023933536349,-6.9456662701699));
#494=CARTESIAN_POINT('Ctrl Pts',(-0.203574881121169,1.621,-6.91738665163024));
#495=CARTESIAN_POINT('Ctrl Pts',(0.,1.621,-6.91738665163024));
#496=CARTESIAN_POINT('Ctrl Pts',(0.203574881121169,1.621,-6.91738665163024));
#497=CARTESIAN_POINT('Ctrl Pts',(0.417020476273176,1.58023933536349,-6.9456662701699));
#498=CARTESIAN_POINT('Ctrl Pts',(0.611933812555366,1.5010602999539,-6.99897833027993));
#499=CARTESIAN_POINT('Ctrl Pts',(0.613788113024745,1.50030302358008,-6.9994881127345));
#500=CARTESIAN_POINT('Ctrl Pts',(0.615640627864673,1.49954246932936,-7.00000000000008));
#501=CARTESIAN_POINT('Origin',(0.,0.,0.));
#502=CARTESIAN_POINT('',(-1.621,1.98515246141786E-16,0.));
#503=UNCERTAINTY_MEASURE_WITH_UNIT(LENGTH_MEASURE(0.01),#507,
'DISTANCE_ACCURACY_VALUE',
'Maximum model space distance between geometric entities at asserted c
onnectivities');
#504=UNCERTAINTY_MEASURE_WITH_UNIT(LENGTH_MEASURE(0.01),#507,
'DISTANCE_ACCURACY_VALUE',
'Maximum model space distance between geometric entities at asserted c
onnectivities');
#505=(
GEOMETRIC_REPRESENTATION_CONTEXT(3)
GLOBAL_UNCERTAINTY_ASSIGNED_CONTEXT((#503))
GLOBAL_UNIT_ASSIGNED_CONTEXT((#507,#509,#510))
REPRESENTATION_CONTEXT('','3D')
);
#506=(
GEOMETRIC_REPRESENTATION_CONTEXT(3)
GLOBAL_UNCERTAINTY_ASSIGNED_CONTEXT((#504))
GLOBAL_UNIT_ASSIGNED_CONTEXT((#507,#509,#510))
REPRESENTATION_CONTEXT('','3D')
);
#507=(
LENGTH_UNIT()
NAMED_UNIT(*)
SI_UNIT(.MILLI.,.METRE.)
);
#508=(
LENGTH_UNIT()
NAMED_UNIT(*)
SI_UNIT(.CENTI.,.METRE.)
);
#509=(
NAMED_UNIT(*)
PLANE_ANGLE_UNIT()
SI_UNIT($,.RADIAN.)
);
#510=(
NAMED_UNIT(*)
SI_UNIT($,.STERADIAN.)
SOLID_ANGLE_UNIT()
);
#511=SHAPE_DEFINITION_REPRESENTATION(#512,#513);
#512=PRODUCT_DEFINITION_SHAPE('',$,#515);
#513=SHAPE_REPRESENTATION('',(#275),#505);
#514=PRODUCT_DEFINITION_CONTEXT('part definition',#519,'design');
#515=PRODUCT_DEFINITION('1008379','1008379',#516,#514);
#516=PRODUCT_DEFINITION_FORMATION(' NONE',$,#521);
#517=PRODUCT_RELATED_PRODUCT_CATEGORY('1008379','1008379',(#521));
#518=APPLICATION_PROTOCOL_DEFINITION('international standard',
'automotive_design',2009,#519);
#519=APPLICATION_CONTEXT(
'Core Data for Automotive Mechanical Design Process');
#520=PRODUCT_CONTEXT('part definition',#519,'mechanical');
#521=PRODUCT('1008379','1008379','STEP AP214',(#520));
#522=PRESENTATION_STYLE_ASSIGNMENT((#525));
#523=PRESENTATION_STYLE_ASSIGNMENT((#526));
#524=PRESENTATION_STYLE_ASSIGNMENT((#527));
#525=SURFACE_STYLE_USAGE(.BOTH.,#534);
#526=SURFACE_STYLE_USAGE(.BOTH.,#535);
#527=SURFACE_STYLE_USAGE(.BOTH.,#536);
#528=SURFACE_STYLE_RENDERING_WITH_PROPERTIES($,#546,(#531));
#529=SURFACE_STYLE_RENDERING_WITH_PROPERTIES($,#547,(#532));
#530=SURFACE_STYLE_RENDERING_WITH_PROPERTIES($,#548,(#533));
#531=SURFACE_STYLE_TRANSPARENT(0.);
#532=SURFACE_STYLE_TRANSPARENT(0.);
#533=SURFACE_STYLE_TRANSPARENT(0.);
#534=SURFACE_SIDE_STYLE('',(#537,#528));
#535=SURFACE_SIDE_STYLE('',(#538,#529));
#536=SURFACE_SIDE_STYLE('',(#539,#530));
#537=SURFACE_STYLE_FILL_AREA(#540);
#538=SURFACE_STYLE_FILL_AREA(#541);
#539=SURFACE_STYLE_FILL_AREA(#542);
#540=FILL_AREA_STYLE('',(#543));
#541=FILL_AREA_STYLE('',(#544));
#542=FILL_AREA_STYLE('',(#545));
#543=FILL_AREA_STYLE_COLOUR('',#546);
#544=FILL_AREA_STYLE_COLOUR('',#547);
#545=FILL_AREA_STYLE_COLOUR('',#548);
#546=COLOUR_RGB('',0.749019607843137,0.749019607843137,0.749019607843137);
#547=COLOUR_RGB('',0.752941176470588,0.752941176470588,0.752941176470588);
#548=COLOUR_RGB('',0.729411764705882,0.768627450980392,0.784313725490196);
ENDSEC;
END-ISO-10303-21;
