ISO-10303-21;
HEADER;
/* Generated by software containing ST-Developer
 * from STEP Tools, Inc. (www.steptools.com) 
 */

FILE_DESCRIPTION(
/* description */ ('STEP AP214'),
/* implementation_level */ '2;1');

FILE_NAME(
/* name */ 
'C:\\Users\\b.steehouwer\\Desktop\\Producten\\ISB profielsysteem\\CAD-
files\\Bevestigingsmaterialen\\T-sleuf moer\\1008423.stp',
/* time_stamp */ '2024-05-01T09:00:42+02:00',
/* author */ ('b.steehouwer'),
/* organization */ ('CADENAS'),
/* preprocessor_version */ 'ST-DEVELOPER v18.1',
/* originating_system */ 'Autodesk Inventor 2021',
/* authorisation */ ' ');

FILE_SCHEMA (('AUTOMOTIVE_DESIGN { 1 0 10303 214 3 1 1 }'));
ENDSEC;

DATA;
#10=MECHANICAL_DESIGN_GEOMETRIC_PRESENTATION_REPRESENTATION('',(#13),#502);
#11=SHAPE_REPRESENTATION_RELATIONSHIP('SRR','None',#509,#12);
#12=ADVANCED_BREP_SHAPE_REPRESENTATION('',(#14),#501);
#13=STYLED_ITEM('',(#519),#14);
#14=MANIFOLD_SOLID_BREP('Solid1',#244);
#15=FACE_BOUND('',#72,.T.);
#16=PLANE('',#272);
#17=PLANE('',#274);
#18=PLANE('',#278);
#19=PLANE('',#283);
#20=PLANE('',#286);
#21=PLANE('',#288);
#22=LINE('',#431,#37);
#23=LINE('',#433,#38);
#24=LINE('',#437,#39);
#25=LINE('',#440,#40);
#26=LINE('',#444,#41);
#27=LINE('',#446,#42);
#28=LINE('',#448,#43);
#29=LINE('',#449,#44);
#30=LINE('',#455,#45);
#31=LINE('',#464,#46);
#32=LINE('',#467,#47);
#33=LINE('',#473,#48);
#34=LINE('',#477,#49);
#35=LINE('',#479,#50);
#36=LINE('',#498,#51);
#37=VECTOR('',#306,1000.);
#38=VECTOR('',#307,1000.);
#39=VECTOR('',#310,1000.);
#40=VECTOR('',#313,1000.);
#41=VECTOR('',#316,1000.);
#42=VECTOR('',#317,1000.);
#43=VECTOR('',#318,1000.);
#44=VECTOR('',#319,1000.);
#45=VECTOR('',#326,1000.);
#46=VECTOR('',#337,1000.);
#47=VECTOR('',#342,1000.);
#48=VECTOR('',#349,1000.);
#49=VECTOR('',#354,1000.);
#50=VECTOR('',#357,1000.);
#51=VECTOR('',#364,3.3235);
#52=CYLINDRICAL_SURFACE('',#269,15.);
#53=CYLINDRICAL_SURFACE('',#282,0.5);
#54=CYLINDRICAL_SURFACE('',#289,0.5);
#55=CYLINDRICAL_SURFACE('',#290,15.);
#56=CYLINDRICAL_SURFACE('',#291,3.3235);
#57=FACE_OUTER_BOUND('',#69,.T.);
#58=FACE_OUTER_BOUND('',#70,.T.);
#59=FACE_OUTER_BOUND('',#71,.T.);
#60=FACE_OUTER_BOUND('',#73,.T.);
#61=FACE_OUTER_BOUND('',#74,.T.);
#62=FACE_OUTER_BOUND('',#75,.T.);
#63=FACE_OUTER_BOUND('',#76,.T.);
#64=FACE_OUTER_BOUND('',#77,.T.);
#65=FACE_OUTER_BOUND('',#78,.T.);
#66=FACE_OUTER_BOUND('',#79,.T.);
#67=FACE_OUTER_BOUND('',#80,.T.);
#68=FACE_OUTER_BOUND('',#81,.T.);
#69=EDGE_LOOP('',(#161,#162,#163,#164,#165,#166,#167));
#70=EDGE_LOOP('',(#168,#169,#170,#171,#172,#173,#174,#175));
#71=EDGE_LOOP('',(#176,#177,#178,#179));
#72=EDGE_LOOP('',(#180));
#73=EDGE_LOOP('',(#181,#182,#183,#184,#185,#186));
#74=EDGE_LOOP('',(#187,#188,#189,#190,#191,#192));
#75=EDGE_LOOP('',(#193,#194,#195,#196));
#76=EDGE_LOOP('',(#197,#198,#199,#200,#201));
#77=EDGE_LOOP('',(#202,#203,#204,#205));
#78=EDGE_LOOP('',(#206,#207,#208,#209,#210));
#79=EDGE_LOOP('',(#211,#212,#213,#214));
#80=EDGE_LOOP('',(#215,#216,#217,#218,#219,#220,#221,#222));
#81=EDGE_LOOP('',(#223,#224,#225,#226,#227,#228,#229,#230));
#82=B_SPLINE_CURVE_WITH_KNOTS('',3,(#371,#372,#373,#374,#375,#376,#377,
#378,#379,#380,#381,#382,#383,#384,#385,#386,#387,#388),.UNSPECIFIED.,.F.,
 .F.,(4,2,2,2,2,2,2,2,4),(0.394652928883848,0.415250168543717,0.479048510482961,
0.548482361965539,0.617916213448118,0.687350064930696,0.756783916413274,
0.820582258352518,0.841179498012385),.UNSPECIFIED.);
#83=B_SPLINE_CURVE_WITH_KNOTS('',3,(#392,#393,#394,#395,#396,#397,#398,
#399,#400,#401,#402,#403,#404,#405,#406,#407,#408,#409,#410),
 .UNSPECIFIED.,.F.,.F.,(4,2,2,2,3,2,2,2,4),(1.01256914233197,1.03316638199185,
1.09696472393109,1.16639857541367,1.23583242689625,1.30526627837883,1.3747001298614,
1.43849847180065,1.45909571146052),.UNSPECIFIED.);
#84=B_SPLINE_CURVE_WITH_KNOTS('',3,(#417,#418,#419,#420,#421,#422,#423,
#424,#425,#426,#427,#428,#429,#430),.UNSPECIFIED.,.F.,.F.,(4,2,2,2,2,2,
4),(0.691600978437443,0.822130068840562,0.949021074457266,1.07591208007397,
1.20280308569067,1.32969409130738,1.4602231817105),.UNSPECIFIED.);
#85=B_SPLINE_CURVE_WITH_KNOTS('',3,(#482,#483,#484,#485,#486,#487,#488,
#489,#490,#491,#492,#493,#494,#495,#496),.UNSPECIFIED.,.F.,.F.,(4,2,2,3,
2,2,4),(-0.38431110163653,-0.253782011233409,-0.126891005616704,0.,0.126891005616704,
0.253782011233408,0.38431110163653),.UNSPECIFIED.);
#86=CIRCLE('',#265,2.3685438565);
#87=CIRCLE('',#266,2.3685438565);
#88=CIRCLE('',#267,2.3685438565);
#89=CIRCLE('',#268,2.5);
#90=CIRCLE('',#270,15.);
#91=CIRCLE('',#271,15.);
#92=CIRCLE('',#273,3.3235);
#93=CIRCLE('',#275,0.5);
#94=CIRCLE('',#276,15.);
#95=CIRCLE('',#277,0.5);
#96=CIRCLE('',#279,0.5);
#97=CIRCLE('',#280,15.);
#98=CIRCLE('',#281,0.5);
#99=CIRCLE('',#284,3.3235);
#100=CIRCLE('',#285,3.3235);
#101=CIRCLE('',#287,3.3235);
#102=VERTEX_POINT('',#367);
#103=VERTEX_POINT('',#368);
#104=VERTEX_POINT('',#370);
#105=VERTEX_POINT('',#389);
#106=VERTEX_POINT('',#391);
#107=VERTEX_POINT('',#412);
#108=VERTEX_POINT('',#415);
#109=VERTEX_POINT('',#416);
#110=VERTEX_POINT('',#432);
#111=VERTEX_POINT('',#434);
#112=VERTEX_POINT('',#436);
#113=VERTEX_POINT('',#438);
#114=VERTEX_POINT('',#442);
#115=VERTEX_POINT('',#443);
#116=VERTEX_POINT('',#445);
#117=VERTEX_POINT('',#447);
#118=VERTEX_POINT('',#450);
#119=VERTEX_POINT('',#454);
#120=VERTEX_POINT('',#456);
#121=VERTEX_POINT('',#460);
#122=VERTEX_POINT('',#462);
#123=VERTEX_POINT('',#469);
#124=VERTEX_POINT('',#470);
#125=VERTEX_POINT('',#475);
#126=EDGE_CURVE('',#102,#103,#86,.T.);
#127=EDGE_CURVE('',#104,#102,#82,.T.);
#128=EDGE_CURVE('',#105,#104,#87,.T.);
#129=EDGE_CURVE('',#106,#105,#83,.T.);
#130=EDGE_CURVE('',#103,#106,#88,.T.);
#131=EDGE_CURVE('',#103,#107,#89,.T.);
#132=EDGE_CURVE('',#108,#109,#84,.T.);
#133=EDGE_CURVE('',#104,#108,#22,.T.);
#134=EDGE_CURVE('',#110,#102,#23,.T.);
#135=EDGE_CURVE('',#111,#110,#90,.T.);
#136=EDGE_CURVE('',#111,#112,#24,.T.);
#137=EDGE_CURVE('',#112,#113,#91,.T.);
#138=EDGE_CURVE('',#109,#113,#25,.T.);
#139=EDGE_CURVE('',#114,#115,#26,.T.);
#140=EDGE_CURVE('',#116,#115,#27,.T.);
#141=EDGE_CURVE('',#117,#116,#28,.T.);
#142=EDGE_CURVE('',#117,#114,#29,.T.);
#143=EDGE_CURVE('',#118,#118,#92,.T.);
#144=EDGE_CURVE('',#116,#111,#93,.T.);
#145=EDGE_CURVE('',#110,#119,#30,.T.);
#146=EDGE_CURVE('',#119,#120,#94,.T.);
#147=EDGE_CURVE('',#120,#117,#95,.T.);
#148=EDGE_CURVE('',#121,#114,#96,.T.);
#149=EDGE_CURVE('',#122,#121,#97,.T.);
#150=EDGE_CURVE('',#113,#122,#31,.T.);
#151=EDGE_CURVE('',#115,#112,#98,.T.);
#152=EDGE_CURVE('',#120,#121,#32,.T.);
#153=EDGE_CURVE('',#123,#124,#99,.T.);
#154=EDGE_CURVE('',#124,#109,#100,.T.);
#155=EDGE_CURVE('',#123,#122,#33,.T.);
#156=EDGE_CURVE('',#108,#125,#101,.T.);
#157=EDGE_CURVE('',#105,#125,#34,.T.);
#158=EDGE_CURVE('',#119,#106,#35,.T.);
#159=EDGE_CURVE('',#123,#125,#85,.T.);
#160=EDGE_CURVE('',#118,#124,#36,.T.);
#161=ORIENTED_EDGE('',*,*,#126,.F.);
#162=ORIENTED_EDGE('',*,*,#127,.F.);
#163=ORIENTED_EDGE('',*,*,#128,.F.);
#164=ORIENTED_EDGE('',*,*,#129,.F.);
#165=ORIENTED_EDGE('',*,*,#130,.F.);
#166=ORIENTED_EDGE('',*,*,#131,.T.);
#167=ORIENTED_EDGE('',*,*,#131,.F.);
#168=ORIENTED_EDGE('',*,*,#132,.F.);
#169=ORIENTED_EDGE('',*,*,#133,.F.);
#170=ORIENTED_EDGE('',*,*,#127,.T.);
#171=ORIENTED_EDGE('',*,*,#134,.F.);
#172=ORIENTED_EDGE('',*,*,#135,.F.);
#173=ORIENTED_EDGE('',*,*,#136,.T.);
#174=ORIENTED_EDGE('',*,*,#137,.T.);
#175=ORIENTED_EDGE('',*,*,#138,.F.);
#176=ORIENTED_EDGE('',*,*,#139,.T.);
#177=ORIENTED_EDGE('',*,*,#140,.F.);
#178=ORIENTED_EDGE('',*,*,#141,.F.);
#179=ORIENTED_EDGE('',*,*,#142,.T.);
#180=ORIENTED_EDGE('',*,*,#143,.F.);
#181=ORIENTED_EDGE('',*,*,#141,.T.);
#182=ORIENTED_EDGE('',*,*,#144,.T.);
#183=ORIENTED_EDGE('',*,*,#135,.T.);
#184=ORIENTED_EDGE('',*,*,#145,.T.);
#185=ORIENTED_EDGE('',*,*,#146,.T.);
#186=ORIENTED_EDGE('',*,*,#147,.T.);
#187=ORIENTED_EDGE('',*,*,#139,.F.);
#188=ORIENTED_EDGE('',*,*,#148,.F.);
#189=ORIENTED_EDGE('',*,*,#149,.F.);
#190=ORIENTED_EDGE('',*,*,#150,.F.);
#191=ORIENTED_EDGE('',*,*,#137,.F.);
#192=ORIENTED_EDGE('',*,*,#151,.F.);
#193=ORIENTED_EDGE('',*,*,#148,.T.);
#194=ORIENTED_EDGE('',*,*,#142,.F.);
#195=ORIENTED_EDGE('',*,*,#147,.F.);
#196=ORIENTED_EDGE('',*,*,#152,.T.);
#197=ORIENTED_EDGE('',*,*,#153,.T.);
#198=ORIENTED_EDGE('',*,*,#154,.T.);
#199=ORIENTED_EDGE('',*,*,#138,.T.);
#200=ORIENTED_EDGE('',*,*,#150,.T.);
#201=ORIENTED_EDGE('',*,*,#155,.F.);
#202=ORIENTED_EDGE('',*,*,#156,.T.);
#203=ORIENTED_EDGE('',*,*,#157,.F.);
#204=ORIENTED_EDGE('',*,*,#128,.T.);
#205=ORIENTED_EDGE('',*,*,#133,.T.);
#206=ORIENTED_EDGE('',*,*,#126,.T.);
#207=ORIENTED_EDGE('',*,*,#130,.T.);
#208=ORIENTED_EDGE('',*,*,#158,.F.);
#209=ORIENTED_EDGE('',*,*,#145,.F.);
#210=ORIENTED_EDGE('',*,*,#134,.T.);
#211=ORIENTED_EDGE('',*,*,#151,.T.);
#212=ORIENTED_EDGE('',*,*,#136,.F.);
#213=ORIENTED_EDGE('',*,*,#144,.F.);
#214=ORIENTED_EDGE('',*,*,#140,.T.);
#215=ORIENTED_EDGE('',*,*,#159,.F.);
#216=ORIENTED_EDGE('',*,*,#155,.T.);
#217=ORIENTED_EDGE('',*,*,#149,.T.);
#218=ORIENTED_EDGE('',*,*,#152,.F.);
#219=ORIENTED_EDGE('',*,*,#146,.F.);
#220=ORIENTED_EDGE('',*,*,#158,.T.);
#221=ORIENTED_EDGE('',*,*,#129,.T.);
#222=ORIENTED_EDGE('',*,*,#157,.T.);
#223=ORIENTED_EDGE('',*,*,#143,.T.);
#224=ORIENTED_EDGE('',*,*,#160,.T.);
#225=ORIENTED_EDGE('',*,*,#153,.F.);
#226=ORIENTED_EDGE('',*,*,#159,.T.);
#227=ORIENTED_EDGE('',*,*,#156,.F.);
#228=ORIENTED_EDGE('',*,*,#132,.T.);
#229=ORIENTED_EDGE('',*,*,#154,.F.);
#230=ORIENTED_EDGE('',*,*,#160,.F.);
#231=SPHERICAL_SURFACE('',#264,2.5);
#232=ADVANCED_FACE('',(#57),#231,.T.);
#233=ADVANCED_FACE('',(#58),#52,.T.);
#234=ADVANCED_FACE('',(#59,#15),#16,.F.);
#235=ADVANCED_FACE('',(#60),#17,.T.);
#236=ADVANCED_FACE('',(#61),#18,.F.);
#237=ADVANCED_FACE('',(#62),#53,.T.);
#238=ADVANCED_FACE('',(#63),#19,.F.);
#239=ADVANCED_FACE('',(#64),#20,.F.);
#240=ADVANCED_FACE('',(#65),#21,.F.);
#241=ADVANCED_FACE('',(#66),#54,.T.);
#242=ADVANCED_FACE('',(#67),#55,.T.);
#243=ADVANCED_FACE('',(#68),#56,.F.);
#244=CLOSED_SHELL('',(#232,#233,#234,#235,#236,#237,#238,#239,#240,#241,
#242,#243));
#245=DERIVED_UNIT_ELEMENT(#247,1.);
#246=DERIVED_UNIT_ELEMENT(#504,-3.);
#247=(
MASS_UNIT()
NAMED_UNIT(*)
SI_UNIT($,.GRAM.)
);
#248=DERIVED_UNIT((#245,#246));
#249=MEASURE_REPRESENTATION_ITEM('density measure',
POSITIVE_RATIO_MEASURE(1.),#248);
#250=PROPERTY_DEFINITION_REPRESENTATION(#255,#252);
#251=PROPERTY_DEFINITION_REPRESENTATION(#256,#253);
#252=REPRESENTATION('material name',(#254),#501);
#253=REPRESENTATION('density',(#249),#501);
#254=DESCRIPTIVE_REPRESENTATION_ITEM('Generic','Generic');
#255=PROPERTY_DEFINITION('material property','material name',#511);
#256=PROPERTY_DEFINITION('material property','density of part',#511);
#257=DATE_TIME_ROLE('creation_date');
#258=APPLIED_DATE_AND_TIME_ASSIGNMENT(#259,#257,(#511));
#259=DATE_AND_TIME(#260,#261);
#260=CALENDAR_DATE(2022,22,4);
#261=LOCAL_TIME(7,38,50.,#262);
#262=COORDINATED_UNIVERSAL_TIME_OFFSET(0,0,.BEHIND.);
#263=AXIS2_PLACEMENT_3D('placement',#365,#292,#293);
#264=AXIS2_PLACEMENT_3D('',#366,#294,#295);
#265=AXIS2_PLACEMENT_3D('',#369,#296,#297);
#266=AXIS2_PLACEMENT_3D('',#390,#298,#299);
#267=AXIS2_PLACEMENT_3D('',#411,#300,#301);
#268=AXIS2_PLACEMENT_3D('',#413,#302,#303);
#269=AXIS2_PLACEMENT_3D('',#414,#304,#305);
#270=AXIS2_PLACEMENT_3D('',#435,#308,#309);
#271=AXIS2_PLACEMENT_3D('',#439,#311,#312);
#272=AXIS2_PLACEMENT_3D('',#441,#314,#315);
#273=AXIS2_PLACEMENT_3D('',#451,#320,#321);
#274=AXIS2_PLACEMENT_3D('',#452,#322,#323);
#275=AXIS2_PLACEMENT_3D('',#453,#324,#325);
#276=AXIS2_PLACEMENT_3D('',#457,#327,#328);
#277=AXIS2_PLACEMENT_3D('',#458,#329,#330);
#278=AXIS2_PLACEMENT_3D('',#459,#331,#332);
#279=AXIS2_PLACEMENT_3D('',#461,#333,#334);
#280=AXIS2_PLACEMENT_3D('',#463,#335,#336);
#281=AXIS2_PLACEMENT_3D('',#465,#338,#339);
#282=AXIS2_PLACEMENT_3D('',#466,#340,#341);
#283=AXIS2_PLACEMENT_3D('',#468,#343,#344);
#284=AXIS2_PLACEMENT_3D('',#471,#345,#346);
#285=AXIS2_PLACEMENT_3D('',#472,#347,#348);
#286=AXIS2_PLACEMENT_3D('',#474,#350,#351);
#287=AXIS2_PLACEMENT_3D('',#476,#352,#353);
#288=AXIS2_PLACEMENT_3D('',#478,#355,#356);
#289=AXIS2_PLACEMENT_3D('',#480,#358,#359);
#290=AXIS2_PLACEMENT_3D('',#481,#360,#361);
#291=AXIS2_PLACEMENT_3D('',#497,#362,#363);
#292=DIRECTION('axis',(0.,0.,1.));
#293=DIRECTION('refdir',(1.,0.,0.));
#294=DIRECTION('center_axis',(0.,0.,1.));
#295=DIRECTION('ref_axis',(-1.,0.,0.));
#296=DIRECTION('center_axis',(0.,0.,1.));
#297=DIRECTION('ref_axis',(1.,0.,0.));
#298=DIRECTION('center_axis',(0.,0.,1.));
#299=DIRECTION('ref_axis',(1.,0.,0.));
#300=DIRECTION('center_axis',(0.,0.,1.));
#301=DIRECTION('ref_axis',(1.,0.,0.));
#302=DIRECTION('center_axis',(-1.22464679914735E-16,1.,0.));
#303=DIRECTION('ref_axis',(1.,1.22464679914735E-16,0.));
#304=DIRECTION('center_axis',(1.,0.,0.));
#305=DIRECTION('ref_axis',(0.,0.,1.));
#306=DIRECTION('',(-1.,0.,0.));
#307=DIRECTION('',(-1.,0.,0.));
#308=DIRECTION('center_axis',(1.,0.,0.));
#309=DIRECTION('ref_axis',(0.,0.,-1.));
#310=DIRECTION('',(-1.,0.,0.));
#311=DIRECTION('center_axis',(1.,0.,0.));
#312=DIRECTION('ref_axis',(0.,0.,-1.));
#313=DIRECTION('',(-1.,0.,0.));
#314=DIRECTION('center_axis',(0.,0.,-1.));
#315=DIRECTION('ref_axis',(-1.,0.,0.));
#316=DIRECTION('',(0.,-1.,0.));
#317=DIRECTION('',(-1.,0.,0.));
#318=DIRECTION('',(0.,-1.,0.));
#319=DIRECTION('',(-1.,0.,0.));
#320=DIRECTION('center_axis',(0.,0.,1.));
#321=DIRECTION('ref_axis',(1.,0.,0.));
#322=DIRECTION('center_axis',(1.,0.,0.));
#323=DIRECTION('ref_axis',(0.,0.,-1.));
#324=DIRECTION('center_axis',(1.,0.,0.));
#325=DIRECTION('ref_axis',(0.,0.,-1.));
#326=DIRECTION('',(0.,1.,0.));
#327=DIRECTION('center_axis',(1.,0.,0.));
#328=DIRECTION('ref_axis',(0.,0.,-1.));
#329=DIRECTION('center_axis',(1.,0.,0.));
#330=DIRECTION('ref_axis',(0.,0.,-1.));
#331=DIRECTION('center_axis',(1.,0.,0.));
#332=DIRECTION('ref_axis',(0.,0.,-1.));
#333=DIRECTION('center_axis',(1.,0.,0.));
#334=DIRECTION('ref_axis',(0.,0.,-1.));
#335=DIRECTION('center_axis',(1.,0.,0.));
#336=DIRECTION('ref_axis',(0.,0.,-1.));
#337=DIRECTION('',(0.,1.,0.));
#338=DIRECTION('center_axis',(1.,0.,0.));
#339=DIRECTION('ref_axis',(0.,0.,-1.));
#340=DIRECTION('center_axis',(1.,0.,0.));
#341=DIRECTION('ref_axis',(0.,0.,1.));
#342=DIRECTION('',(-1.,0.,0.));
#343=DIRECTION('center_axis',(0.,0.,1.));
#344=DIRECTION('ref_axis',(1.,0.,0.));
#345=DIRECTION('center_axis',(0.,0.,1.));
#346=DIRECTION('ref_axis',(1.,0.,0.));
#347=DIRECTION('center_axis',(0.,0.,1.));
#348=DIRECTION('ref_axis',(1.,0.,0.));
#349=DIRECTION('',(-1.,0.,0.));
#350=DIRECTION('center_axis',(0.,0.,1.));
#351=DIRECTION('ref_axis',(1.,0.,0.));
#352=DIRECTION('center_axis',(0.,0.,1.));
#353=DIRECTION('ref_axis',(1.,0.,0.));
#354=DIRECTION('',(-1.,0.,0.));
#355=DIRECTION('center_axis',(0.,0.,1.));
#356=DIRECTION('ref_axis',(1.,0.,0.));
#357=DIRECTION('',(-1.,0.,0.));
#358=DIRECTION('center_axis',(1.,0.,0.));
#359=DIRECTION('ref_axis',(0.,0.,1.));
#360=DIRECTION('center_axis',(1.,0.,0.));
#361=DIRECTION('ref_axis',(0.,0.,1.));
#362=DIRECTION('center_axis',(0.,0.,-1.));
#363=DIRECTION('ref_axis',(1.,0.,0.));
#364=DIRECTION('',(0.,0.,-1.));
#365=CARTESIAN_POINT('',(0.,0.,0.));
#366=CARTESIAN_POINT('Origin',(9.5,0.,-6.2));
#367=CARTESIAN_POINT('',(11.3319554137863,-1.50131254637364,-7.));
#368=CARTESIAN_POINT('',(11.8685438565,2.90062965250285E-16,-7.));
#369=CARTESIAN_POINT('Origin',(9.5,0.,-7.));
#370=CARTESIAN_POINT('',(7.66804458621365,-1.50131254637363,-7.));
#371=CARTESIAN_POINT('Ctrl Pts',(7.66804458621367,-1.50131254637364,-7.00000000000003));
#372=CARTESIAN_POINT('Ctrl Pts',(7.69687350752197,-1.55619369028434,-6.9630244356899));
#373=CARTESIAN_POINT('Ctrl Pts',(7.72848412625206,-1.6086240026096,-6.92716860139912));
#374=CARTESIAN_POINT('Ctrl Pts',(7.86543701204414,-1.81066513522677,-6.78729921408001));
#375=CARTESIAN_POINT('Ctrl Pts',(8.02308408529752,-1.97318153938519,-6.66957294844143));
#376=CARTESIAN_POINT('Ctrl Pts',(8.35092178056168,-2.21332837221815,-6.49045497533848));
#377=CARTESIAN_POINT('Ctrl Pts',(8.56241848595529,-2.32145311115939,-6.40658254374965));
#378=CARTESIAN_POINT('Ctrl Pts',(9.02121490558753,-2.46429785719332,-6.29423849835872));
#379=CARTESIAN_POINT('Ctrl Pts',(9.26855382839141,-2.49912690736432,-6.26606588293247));
#380=CARTESIAN_POINT('Ctrl Pts',(9.7314461716086,-2.49912690736432,-6.26606588293247));
#381=CARTESIAN_POINT('Ctrl Pts',(9.97878509441247,-2.46429785719332,-6.29423849835872));
#382=CARTESIAN_POINT('Ctrl Pts',(10.4375815140447,-2.32145311115939,-6.40658254374964));
#383=CARTESIAN_POINT('Ctrl Pts',(10.6490782194383,-2.21332837221815,-6.49045497533848));
#384=CARTESIAN_POINT('Ctrl Pts',(10.9769159147025,-1.97318153938519,-6.66957294844143));
#385=CARTESIAN_POINT('Ctrl Pts',(11.1345629879559,-1.81066513522677,-6.78729921408001));
#386=CARTESIAN_POINT('Ctrl Pts',(11.2715158737479,-1.60862400260961,-6.92716860139911));
#387=CARTESIAN_POINT('Ctrl Pts',(11.303126492478,-1.55619369028435,-6.96302443568989));
#388=CARTESIAN_POINT('Ctrl Pts',(11.3319554137863,-1.50131254637366,-7.00000000000002));
#389=CARTESIAN_POINT('',(7.66804458621364,1.50131254637363,-7.));
#390=CARTESIAN_POINT('Origin',(9.5,0.,-7.));
#391=CARTESIAN_POINT('',(11.3319554137864,1.50131254637363,-7.));
#392=CARTESIAN_POINT('Ctrl Pts',(11.3319554137864,1.50131254637362,-7.00000000000001));
#393=CARTESIAN_POINT('Ctrl Pts',(11.3031264924781,1.55619369028432,-6.96302443568987));
#394=CARTESIAN_POINT('Ctrl Pts',(11.271515873748,1.60862400260959,-6.92716860139909));
#395=CARTESIAN_POINT('Ctrl Pts',(11.1345629879559,1.81066513522677,-6.78729921407998));
#396=CARTESIAN_POINT('Ctrl Pts',(10.9769159147025,1.97318153938519,-6.6695729484414));
#397=CARTESIAN_POINT('Ctrl Pts',(10.6490782194383,2.21332837221815,-6.49045497533844));
#398=CARTESIAN_POINT('Ctrl Pts',(10.4375815140447,2.32145311115939,-6.40658254374961));
#399=CARTESIAN_POINT('Ctrl Pts',(9.97878509441248,2.46429785719332,-6.29423849835868));
#400=CARTESIAN_POINT('Ctrl Pts',(9.7314461716086,2.49912690736432,-6.26606588293244));
#401=CARTESIAN_POINT('Ctrl Pts',(9.5,2.49912690736432,-6.26606588293244));
#402=CARTESIAN_POINT('Ctrl Pts',(9.2685538283914,2.49912690736432,-6.26606588293244));
#403=CARTESIAN_POINT('Ctrl Pts',(9.02121490558753,2.46429785719332,-6.29423849835868));
#404=CARTESIAN_POINT('Ctrl Pts',(8.56241848595528,2.32145311115939,-6.40658254374961));
#405=CARTESIAN_POINT('Ctrl Pts',(8.35092178056167,2.21332837221815,-6.49045497533844));
#406=CARTESIAN_POINT('Ctrl Pts',(8.02308408529751,1.97318153938519,-6.6695729484414));
#407=CARTESIAN_POINT('Ctrl Pts',(7.86543701204412,1.81066513522677,-6.78729921407998));
#408=CARTESIAN_POINT('Ctrl Pts',(7.72848412625205,1.6086240026096,-6.92716860139909));
#409=CARTESIAN_POINT('Ctrl Pts',(7.69687350752195,1.55619369028433,-6.96302443568987));
#410=CARTESIAN_POINT('Ctrl Pts',(7.66804458621365,1.50131254637363,-7.));
#411=CARTESIAN_POINT('Origin',(9.5,0.,-7.));
#412=CARTESIAN_POINT('',(9.5,0.,-8.7));
#413=CARTESIAN_POINT('Origin',(9.5,0.,-6.2));
#414=CARTESIAN_POINT('Origin',(14.5,6.87999999999997,5.43999999999998));
#415=CARTESIAN_POINT('',(2.96508227341184,-1.50131254637363,-7.));
#416=CARTESIAN_POINT('',(-2.96508227341184,-1.50131254637363,-7.));
#417=CARTESIAN_POINT('Ctrl Pts',(2.96508227341183,-1.50131254637365,-7.00000000000003));
#418=CARTESIAN_POINT('Ctrl Pts',(2.78540894848241,-1.85616616565501,-6.76092129490284));
#419=CARTESIAN_POINT('Ctrl Pts',(2.54168877770127,-2.17535129755346,-6.52290623846728));
#420=CARTESIAN_POINT('Ctrl Pts',(1.98809803639684,-2.68918921186637,-6.11573693378287));
#421=CARTESIAN_POINT('Ctrl Pts',(1.64108123361657,-2.92071061879212,-5.91742581871809));
#422=CARTESIAN_POINT('Ctrl Pts',(0.859150874695248,-3.23814060563132,-5.63557143754068));
#423=CARTESIAN_POINT('Ctrl Pts',(0.422970018722348,-3.3235,-5.55493464055158));
#424=CARTESIAN_POINT('Ctrl Pts',(-0.422970018722347,-3.3235,-5.55493464055158));
#425=CARTESIAN_POINT('Ctrl Pts',(-0.859150874695246,-3.23814060563132,-5.63557143754068));
#426=CARTESIAN_POINT('Ctrl Pts',(-1.64108123361657,-2.92071061879212,-5.91742581871809));
#427=CARTESIAN_POINT('Ctrl Pts',(-1.98809803639684,-2.68918921186637,-6.11573693378287));
#428=CARTESIAN_POINT('Ctrl Pts',(-2.54168877770127,-2.17535129755346,-6.52290623846728));
#429=CARTESIAN_POINT('Ctrl Pts',(-2.7854089484824,-1.85616616565501,-6.76092129490284));
#430=CARTESIAN_POINT('Ctrl Pts',(-2.96508227341183,-1.50131254637365,-7.00000000000003));
#431=CARTESIAN_POINT('',(14.5,-1.50131254637363,-6.99999999999999));
#432=CARTESIAN_POINT('',(14.5,-1.50131254637363,-6.99999999999999));
#433=CARTESIAN_POINT('',(14.5,-1.50131254637363,-6.99999999999999));
#434=CARTESIAN_POINT('',(14.5,-6.8036067590307,-0.704827586206896));
#435=CARTESIAN_POINT('Origin',(14.5,6.87999999999997,5.43999999999998));
#436=CARTESIAN_POINT('',(-7.5,-6.8036067590307,-0.704827586206896));
#437=CARTESIAN_POINT('',(14.5,-6.8036067590307,-0.704827586206896));
#438=CARTESIAN_POINT('',(-7.5,-1.50131254637363,-6.99999999999999));
#439=CARTESIAN_POINT('Origin',(-7.5,6.87999999999997,5.43999999999998));
#440=CARTESIAN_POINT('',(14.5,-1.50131254637363,-6.99999999999999));
#441=CARTESIAN_POINT('Origin',(14.5,6.34748653372968,0.));
#442=CARTESIAN_POINT('',(-7.5,6.34748653372968,-2.16840434497101E-16));
#443=CARTESIAN_POINT('',(-7.5,-6.34748653372968,0.));
#444=CARTESIAN_POINT('',(-7.5,6.34748653372968,0.));
#445=CARTESIAN_POINT('',(14.5,-6.34748653372968,0.));
#446=CARTESIAN_POINT('',(14.5,-6.34748653372968,0.));
#447=CARTESIAN_POINT('',(14.5,6.34748653372968,-2.16840434497101E-16));
#448=CARTESIAN_POINT('',(14.5,6.34748653372968,0.));
#449=CARTESIAN_POINT('',(14.5,6.34748653372968,-2.16840434497101E-16));
#450=CARTESIAN_POINT('',(-3.3235,4.07011363696623E-16,0.));
#451=CARTESIAN_POINT('Origin',(0.,0.,0.));
#452=CARTESIAN_POINT('Origin',(14.5,-6.34748653372968,-0.5));
#453=CARTESIAN_POINT('Origin',(14.5,-6.34748653372968,-0.5));
#454=CARTESIAN_POINT('',(14.5,1.50131254637363,-7.));
#455=CARTESIAN_POINT('',(14.5,-1.50131254637363,-7.));
#456=CARTESIAN_POINT('',(14.5,6.8036067590307,-0.7048275862069));
#457=CARTESIAN_POINT('Origin',(14.5,-6.87999999999999,5.44));
#458=CARTESIAN_POINT('Origin',(14.5,6.34748653372968,-0.5));
#459=CARTESIAN_POINT('Origin',(-7.5,-6.34748653372968,-0.5));
#460=CARTESIAN_POINT('',(-7.5,6.8036067590307,-0.7048275862069));
#461=CARTESIAN_POINT('Origin',(-7.5,6.34748653372968,-0.5));
#462=CARTESIAN_POINT('',(-7.5,1.50131254637363,-7.));
#463=CARTESIAN_POINT('Origin',(-7.5,-6.87999999999999,5.44));
#464=CARTESIAN_POINT('',(-7.5,-1.50131254637363,-7.));
#465=CARTESIAN_POINT('Origin',(-7.5,-6.34748653372968,-0.5));
#466=CARTESIAN_POINT('Origin',(14.5,6.34748653372968,-0.5));
#467=CARTESIAN_POINT('',(14.5,6.8036067590307,-0.7048275862069));
#468=CARTESIAN_POINT('Origin',(14.5,-1.50131254637363,-7.));
#469=CARTESIAN_POINT('',(-2.96508227341184,1.50131254637363,-7.));
#470=CARTESIAN_POINT('',(-3.3235,4.07011363696623E-16,-7.00000000000003));
#471=CARTESIAN_POINT('Origin',(0.,0.,-7.));
#472=CARTESIAN_POINT('Origin',(0.,0.,-7.));
#473=CARTESIAN_POINT('',(14.5,1.50131254637363,-7.));
#474=CARTESIAN_POINT('Origin',(14.5,-1.50131254637363,-7.));
#475=CARTESIAN_POINT('',(2.96508227341184,1.50131254637363,-7.));
#476=CARTESIAN_POINT('Origin',(0.,0.,-7.));
#477=CARTESIAN_POINT('',(14.5,1.50131254637363,-7.));
#478=CARTESIAN_POINT('Origin',(14.5,-1.50131254637363,-7.));
#479=CARTESIAN_POINT('',(14.5,1.50131254637363,-7.));
#480=CARTESIAN_POINT('Origin',(14.5,-6.34748653372968,-0.5));
#481=CARTESIAN_POINT('Origin',(14.5,-6.87999999999999,5.44));
#482=CARTESIAN_POINT('Ctrl Pts',(-2.96508227341184,1.50131254637363,-7.));
#483=CARTESIAN_POINT('Ctrl Pts',(-2.78540894848241,1.856166165655,-6.76092129490281));
#484=CARTESIAN_POINT('Ctrl Pts',(-2.54168877770127,2.17535129755346,-6.52290623846724));
#485=CARTESIAN_POINT('Ctrl Pts',(-1.98809803639684,2.68918921186637,-6.11573693378284));
#486=CARTESIAN_POINT('Ctrl Pts',(-1.64108123361657,2.92071061879212,-5.91742581871805));
#487=CARTESIAN_POINT('Ctrl Pts',(-0.859150874695246,3.23814060563132,-5.63557143754064));
#488=CARTESIAN_POINT('Ctrl Pts',(-0.422970018722347,3.3235,-5.55493464055154));
#489=CARTESIAN_POINT('Ctrl Pts',(0.,3.3235,-5.55493464055154));
#490=CARTESIAN_POINT('Ctrl Pts',(0.422970018722347,3.3235,-5.55493464055154));
#491=CARTESIAN_POINT('Ctrl Pts',(0.859150874695246,3.23814060563132,-5.63557143754064));
#492=CARTESIAN_POINT('Ctrl Pts',(1.64108123361657,2.92071061879212,-5.91742581871805));
#493=CARTESIAN_POINT('Ctrl Pts',(1.98809803639683,2.68918921186637,-6.11573693378283));
#494=CARTESIAN_POINT('Ctrl Pts',(2.54168877770127,2.17535129755346,-6.52290623846724));
#495=CARTESIAN_POINT('Ctrl Pts',(2.78540894848241,1.856166165655,-6.76092129490281));
#496=CARTESIAN_POINT('Ctrl Pts',(2.96508227341184,1.50131254637363,-7.));
#497=CARTESIAN_POINT('Origin',(0.,0.,0.));
#498=CARTESIAN_POINT('',(-3.3235,4.07011363696623E-16,0.));
#499=UNCERTAINTY_MEASURE_WITH_UNIT(LENGTH_MEASURE(0.01),#503,
'DISTANCE_ACCURACY_VALUE',
'Maximum model space distance between geometric entities at asserted c
onnectivities');
#500=UNCERTAINTY_MEASURE_WITH_UNIT(LENGTH_MEASURE(0.01),#503,
'DISTANCE_ACCURACY_VALUE',
'Maximum model space distance between geometric entities at asserted c
onnectivities');
#501=(
GEOMETRIC_REPRESENTATION_CONTEXT(3)
GLOBAL_UNCERTAINTY_ASSIGNED_CONTEXT((#499))
GLOBAL_UNIT_ASSIGNED_CONTEXT((#503,#505,#506))
REPRESENTATION_CONTEXT('','3D')
);
#502=(
GEOMETRIC_REPRESENTATION_CONTEXT(3)
GLOBAL_UNCERTAINTY_ASSIGNED_CONTEXT((#500))
GLOBAL_UNIT_ASSIGNED_CONTEXT((#503,#505,#506))
REPRESENTATION_CONTEXT('','3D')
);
#503=(
LENGTH_UNIT()
NAMED_UNIT(*)
SI_UNIT(.MILLI.,.METRE.)
);
#504=(
LENGTH_UNIT()
NAMED_UNIT(*)
SI_UNIT(.CENTI.,.METRE.)
);
#505=(
NAMED_UNIT(*)
PLANE_ANGLE_UNIT()
SI_UNIT($,.RADIAN.)
);
#506=(
NAMED_UNIT(*)
SI_UNIT($,.STERADIAN.)
SOLID_ANGLE_UNIT()
);
#507=SHAPE_DEFINITION_REPRESENTATION(#508,#509);
#508=PRODUCT_DEFINITION_SHAPE('',$,#511);
#509=SHAPE_REPRESENTATION('',(#263),#501);
#510=PRODUCT_DEFINITION_CONTEXT('part definition',#515,'design');
#511=PRODUCT_DEFINITION('1008423','1008423',#512,#510);
#512=PRODUCT_DEFINITION_FORMATION(' NONE',$,#517);
#513=PRODUCT_RELATED_PRODUCT_CATEGORY('1008423','1008423',(#517));
#514=APPLICATION_PROTOCOL_DEFINITION('international standard',
'automotive_design',2009,#515);
#515=APPLICATION_CONTEXT(
'Core Data for Automotive Mechanical Design Process');
#516=PRODUCT_CONTEXT('part definition',#515,'mechanical');
#517=PRODUCT('1008423','1008423','STEP AP214',(#516));
#518=PRESENTATION_STYLE_ASSIGNMENT((#520));
#519=PRESENTATION_STYLE_ASSIGNMENT((#521));
#520=SURFACE_STYLE_USAGE(.BOTH.,#526);
#521=SURFACE_STYLE_USAGE(.BOTH.,#527);
#522=SURFACE_STYLE_RENDERING_WITH_PROPERTIES($,#534,(#524));
#523=SURFACE_STYLE_RENDERING_WITH_PROPERTIES($,#535,(#525));
#524=SURFACE_STYLE_TRANSPARENT(0.);
#525=SURFACE_STYLE_TRANSPARENT(0.);
#526=SURFACE_SIDE_STYLE('',(#528,#522));
#527=SURFACE_SIDE_STYLE('',(#529,#523));
#528=SURFACE_STYLE_FILL_AREA(#530);
#529=SURFACE_STYLE_FILL_AREA(#531);
#530=FILL_AREA_STYLE('',(#532));
#531=FILL_AREA_STYLE('',(#533));
#532=FILL_AREA_STYLE_COLOUR('',#534);
#533=FILL_AREA_STYLE_COLOUR('',#535);
#534=COLOUR_RGB('',0.749019607843137,0.749019607843137,0.749019607843137);
#535=COLOUR_RGB('',0.752941176470588,0.752941176470588,0.752941176470588);
ENDSEC;
END-ISO-10303-21;
