ISO-10303-21;
HEADER;
/* Generated by software containing ST-Developer
 * from STEP Tools, Inc. (www.steptools.com) 
 */
/* OPTION: using custom renumber hook */

FILE_DESCRIPTION(
/* description */ ('STEP AP214'),
/* implementation_level */ '2;1');

FILE_NAME(
/* name */ '092326',
/* time_stamp */ '2022-08-11T14:05:15+02:00',
/* author */ ('License CC BY-ND 4.0'),
/* organization */ ('CADENAS'),
/* preprocessor_version */ 'ST-DEVELOPER v18.102',
/* originating_system */ 'PARTsolutions',
/* authorisation */ '  ');

FILE_SCHEMA (('AUTOMOTIVE_DESIGN {1 0 10303 214 3 1 1}'));
ENDSEC;

DATA;
#10=PROPERTY_DEFINITION_REPRESENTATION(#14,#12);
#11=PROPERTY_DEFINITION_REPRESENTATION(#15,#13);
#12=REPRESENTATION('',(#16),#251);
#13=REPRESENTATION('',(#17),#251);
#14=PROPERTY_DEFINITION('pmi validation property','',#256);
#15=PROPERTY_DEFINITION('pmi validation property','',#256);
#16=VALUE_REPRESENTATION_ITEM('number of annotations',COUNT_MEASURE(0.));
#17=VALUE_REPRESENTATION_ITEM('number of views',COUNT_MEASURE(0.));
#18=SHAPE_REPRESENTATION_RELATIONSHIP('','',#149,#19);
#19=ADVANCED_BREP_SHAPE_REPRESENTATION('',(#147),#251);
#20=VERTEX_LOOP('',#67);
#21=VERTEX_LOOP('',#69);
#22=CONICAL_SURFACE('',#166,0.,1.0471975511966);
#23=CONICAL_SURFACE('',#169,0.,1.0471975511966);
#24=TOROIDAL_SURFACE('',#156,17.,5.);
#25=TOROIDAL_SURFACE('',#160,17.,5.);
#26=PLANE('',#154);
#27=PLANE('',#164);
#28=ORIENTED_EDGE('',*,*,#48,.F.);
#29=ORIENTED_EDGE('',*,*,#49,.T.);
#30=ORIENTED_EDGE('',*,*,#50,.F.);
#31=ORIENTED_EDGE('',*,*,#49,.F.);
#32=ORIENTED_EDGE('',*,*,#48,.T.);
#33=ORIENTED_EDGE('',*,*,#51,.F.);
#34=ORIENTED_EDGE('',*,*,#52,.F.);
#35=ORIENTED_EDGE('',*,*,#51,.T.);
#36=ORIENTED_EDGE('',*,*,#53,.T.);
#37=ORIENTED_EDGE('',*,*,#52,.T.);
#38=ORIENTED_EDGE('',*,*,#53,.F.);
#39=ORIENTED_EDGE('',*,*,#54,.T.);
#40=ORIENTED_EDGE('',*,*,#55,.F.);
#41=ORIENTED_EDGE('',*,*,#54,.F.);
#42=ORIENTED_EDGE('',*,*,#56,.T.);
#43=ORIENTED_EDGE('',*,*,#50,.T.);
#44=ORIENTED_EDGE('',*,*,#56,.F.);
#45=ORIENTED_EDGE('',*,*,#57,.T.);
#46=ORIENTED_EDGE('',*,*,#55,.T.);
#47=ORIENTED_EDGE('',*,*,#57,.F.);
#48=EDGE_CURVE('',#58,#58,#70,.T.);
#49=EDGE_CURVE('',#59,#59,#71,.T.);
#50=EDGE_CURVE('',#60,#60,#72,.T.);
#51=EDGE_CURVE('',#61,#61,#73,.T.);
#52=EDGE_CURVE('',#62,#62,#74,.T.);
#53=EDGE_CURVE('',#63,#63,#75,.T.);
#54=EDGE_CURVE('',#64,#64,#76,.T.);
#55=EDGE_CURVE('',#65,#65,#77,.T.);
#56=EDGE_CURVE('',#66,#66,#78,.T.);
#57=EDGE_CURVE('',#68,#68,#79,.T.);
#58=VERTEX_POINT('',#219);
#59=VERTEX_POINT('',#221);
#60=VERTEX_POINT('',#224);
#61=VERTEX_POINT('',#227);
#62=VERTEX_POINT('',#230);
#63=VERTEX_POINT('',#233);
#64=VERTEX_POINT('',#236);
#65=VERTEX_POINT('',#239);
#66=VERTEX_POINT('',#242);
#67=VERTEX_POINT('',#243);
#68=VERTEX_POINT('',#247);
#69=VERTEX_POINT('',#248);
#70=CIRCLE('',#152,5.);
#71=CIRCLE('',#153,5.);
#72=CIRCLE('',#155,2.067);
#73=CIRCLE('',#157,5.);
#74=CIRCLE('',#159,5.);
#75=CIRCLE('',#161,5.);
#76=CIRCLE('',#163,5.);
#77=CIRCLE('',#165,2.06700000000001);
#78=CIRCLE('',#167,2.067);
#79=CIRCLE('',#170,2.06700000000001);
#80=EDGE_LOOP('',(#28));
#81=EDGE_LOOP('',(#29));
#82=EDGE_LOOP('',(#30));
#83=EDGE_LOOP('',(#31));
#84=EDGE_LOOP('',(#32));
#85=EDGE_LOOP('',(#33));
#86=EDGE_LOOP('',(#34));
#87=EDGE_LOOP('',(#35));
#88=EDGE_LOOP('',(#36));
#89=EDGE_LOOP('',(#37));
#90=EDGE_LOOP('',(#38));
#91=EDGE_LOOP('',(#39));
#92=EDGE_LOOP('',(#40));
#93=EDGE_LOOP('',(#41));
#94=EDGE_LOOP('',(#42));
#95=EDGE_LOOP('',(#43));
#96=EDGE_LOOP('',(#44));
#97=EDGE_LOOP('',(#45));
#98=EDGE_LOOP('',(#46));
#99=EDGE_LOOP('',(#47));
#100=FACE_BOUND('',#80,.T.);
#101=FACE_BOUND('',#81,.T.);
#102=FACE_BOUND('',#82,.T.);
#103=FACE_BOUND('',#83,.T.);
#104=FACE_BOUND('',#84,.T.);
#105=FACE_BOUND('',#85,.T.);
#106=FACE_BOUND('',#86,.T.);
#107=FACE_BOUND('',#87,.T.);
#108=FACE_BOUND('',#88,.T.);
#109=FACE_BOUND('',#89,.T.);
#110=FACE_BOUND('',#90,.T.);
#111=FACE_BOUND('',#91,.T.);
#112=FACE_BOUND('',#92,.T.);
#113=FACE_BOUND('',#93,.T.);
#114=FACE_BOUND('',#94,.T.);
#115=FACE_BOUND('',#20,.T.);
#116=FACE_BOUND('',#95,.T.);
#117=FACE_BOUND('',#96,.T.);
#118=FACE_BOUND('',#97,.T.);
#119=FACE_BOUND('',#21,.T.);
#120=FACE_BOUND('',#98,.T.);
#121=FACE_BOUND('',#99,.T.);
#122=CYLINDRICAL_SURFACE('',#151,5.);
#123=CYLINDRICAL_SURFACE('',#158,5.);
#124=CYLINDRICAL_SURFACE('',#162,5.);
#125=CYLINDRICAL_SURFACE('',#168,2.067);
#126=CYLINDRICAL_SURFACE('',#171,2.06700000000001);
#127=ADVANCED_FACE('',(#100,#101),#122,.T.);
#128=ADVANCED_FACE('',(#102,#103),#26,.F.);
#129=ADVANCED_FACE('',(#104,#105),#24,.T.);
#130=ADVANCED_FACE('',(#106,#107),#123,.T.);
#131=ADVANCED_FACE('',(#108,#109),#25,.T.);
#132=ADVANCED_FACE('',(#110,#111),#124,.T.);
#133=ADVANCED_FACE('',(#112,#113),#27,.F.);
#134=ADVANCED_FACE('',(#114,#115),#22,.F.);
#135=ADVANCED_FACE('',(#116,#117),#125,.F.);
#136=ADVANCED_FACE('',(#118,#119),#23,.F.);
#137=ADVANCED_FACE('',(#120,#121),#126,.F.);
#138=CLOSED_SHELL('',(#127,#128,#129,#130,#131,#132,#133,#134,#135,#136,
#137));
#139=STYLED_ITEM('',(#140),#147);
#140=PRESENTATION_STYLE_ASSIGNMENT((#141));
#141=SURFACE_STYLE_USAGE(.BOTH.,#142);
#142=SURFACE_SIDE_STYLE('',(#143));
#143=SURFACE_STYLE_FILL_AREA(#144);
#144=FILL_AREA_STYLE('',(#145));
#145=FILL_AREA_STYLE_COLOUR('',#146);
#146=COLOUR_RGB('',0.0549019612371922,0.0549019612371922,0.062745101749897);
#147=MANIFOLD_SOLID_BREP('092326',#138);
#148=SHAPE_DEFINITION_REPRESENTATION(#256,#149);
#149=SHAPE_REPRESENTATION('092326',(#150),#251);
#150=AXIS2_PLACEMENT_3D('',#216,#172,#173);
#151=AXIS2_PLACEMENT_3D('',#217,#174,#175);
#152=AXIS2_PLACEMENT_3D('',#218,#176,#177);
#153=AXIS2_PLACEMENT_3D('',#220,#178,#179);
#154=AXIS2_PLACEMENT_3D('',#222,#180,#181);
#155=AXIS2_PLACEMENT_3D('',#223,#182,#183);
#156=AXIS2_PLACEMENT_3D('',#225,#184,#185);
#157=AXIS2_PLACEMENT_3D('',#226,#186,#187);
#158=AXIS2_PLACEMENT_3D('',#228,#188,#189);
#159=AXIS2_PLACEMENT_3D('',#229,#190,#191);
#160=AXIS2_PLACEMENT_3D('',#231,#192,#193);
#161=AXIS2_PLACEMENT_3D('',#232,#194,#195);
#162=AXIS2_PLACEMENT_3D('',#234,#196,#197);
#163=AXIS2_PLACEMENT_3D('',#235,#198,#199);
#164=AXIS2_PLACEMENT_3D('',#237,#200,#201);
#165=AXIS2_PLACEMENT_3D('',#238,#202,#203);
#166=AXIS2_PLACEMENT_3D('',#240,#204,#205);
#167=AXIS2_PLACEMENT_3D('',#241,#206,#207);
#168=AXIS2_PLACEMENT_3D('',#244,#208,#209);
#169=AXIS2_PLACEMENT_3D('',#245,#210,#211);
#170=AXIS2_PLACEMENT_3D('',#246,#212,#213);
#171=AXIS2_PLACEMENT_3D('',#249,#214,#215);
#172=DIRECTION('',(0.,0.,1.));
#173=DIRECTION('',(1.,0.,0.));
#174=DIRECTION('',(0.,-1.,0.));
#175=DIRECTION('',(0.,0.,-1.));
#176=DIRECTION('',(0.,1.,0.));
#177=DIRECTION('',(1.,0.,0.));
#178=DIRECTION('',(0.,1.,0.));
#179=DIRECTION('',(1.,0.,0.));
#180=DIRECTION('',(0.,1.,0.));
#181=DIRECTION('',(0.,0.,1.));
#182=DIRECTION('',(0.,-1.,0.));
#183=DIRECTION('',(0.,0.,-1.));
#184=DIRECTION('',(0.,0.,-1.));
#185=DIRECTION('',(-1.,0.,0.));
#186=DIRECTION('',(1.,6.12323399573677E-17,0.));
#187=DIRECTION('',(6.12323399573677E-17,-1.,0.));
#188=DIRECTION('',(-1.,0.,0.));
#189=DIRECTION('',(0.,0.,1.));
#190=DIRECTION('',(1.,0.,0.));
#191=DIRECTION('',(0.,0.,-1.));
#192=DIRECTION('',(0.,0.,1.));
#193=DIRECTION('',(1.,0.,0.));
#194=DIRECTION('',(0.,1.,0.));
#195=DIRECTION('',(1.,0.,0.));
#196=DIRECTION('',(0.,-1.,0.));
#197=DIRECTION('',(0.,0.,-1.));
#198=DIRECTION('',(0.,1.,0.));
#199=DIRECTION('',(1.,0.,0.));
#200=DIRECTION('',(0.,1.,0.));
#201=DIRECTION('',(0.,0.,1.));
#202=DIRECTION('',(0.,-1.,0.));
#203=DIRECTION('',(0.,0.,-1.));
#204=DIRECTION('',(0.,-1.,0.));
#205=DIRECTION('',(0.,0.,-1.));
#206=DIRECTION('',(0.,-1.,0.));
#207=DIRECTION('',(0.,0.,-1.));
#208=DIRECTION('',(0.,-1.,0.));
#209=DIRECTION('',(0.,0.,-1.));
#210=DIRECTION('',(0.,-1.,0.));
#211=DIRECTION('',(0.,0.,-1.));
#212=DIRECTION('',(0.,-1.,0.));
#213=DIRECTION('',(0.,0.,-1.));
#214=DIRECTION('',(0.,-1.,0.));
#215=DIRECTION('',(0.,0.,-1.));
#216=CARTESIAN_POINT('',(0.,0.,0.));
#217=CARTESIAN_POINT('',(0.,18.,0.));
#218=CARTESIAN_POINT('',(0.,18.,0.));
#219=CARTESIAN_POINT('',(5.,18.,0.));
#220=CARTESIAN_POINT('',(0.,0.,0.));
#221=CARTESIAN_POINT('',(5.,0.,0.));
#222=CARTESIAN_POINT('',(0.,0.,0.));
#223=CARTESIAN_POINT('',(0.,0.,0.));
#224=CARTESIAN_POINT('',(0.,0.,-2.067));
#225=CARTESIAN_POINT('',(17.,18.,0.));
#226=CARTESIAN_POINT('',(17.,35.,0.));
#227=CARTESIAN_POINT('',(17.,30.,0.));
#228=CARTESIAN_POINT('',(103.,35.,0.));
#229=CARTESIAN_POINT('',(103.,35.,0.));
#230=CARTESIAN_POINT('',(103.,35.,-5.));
#231=CARTESIAN_POINT('',(103.,18.,0.));
#232=CARTESIAN_POINT('',(120.,18.,0.));
#233=CARTESIAN_POINT('',(125.,18.,0.));
#234=CARTESIAN_POINT('',(120.,18.,0.));
#235=CARTESIAN_POINT('',(120.,0.,0.));
#236=CARTESIAN_POINT('',(125.,0.,0.));
#237=CARTESIAN_POINT('',(120.,0.,0.));
#238=CARTESIAN_POINT('',(120.,0.,0.));
#239=CARTESIAN_POINT('',(120.,0.,-2.06700000000001));
#240=CARTESIAN_POINT('',(0.,15.193383006415,0.));
#241=CARTESIAN_POINT('',(0.,14.,0.));
#242=CARTESIAN_POINT('',(0.,14.,-2.067));
#243=CARTESIAN_POINT('',(0.,15.193383006415,0.));
#244=CARTESIAN_POINT('',(0.,0.,0.));
#245=CARTESIAN_POINT('',(120.,15.193383006415,0.));
#246=CARTESIAN_POINT('',(120.,14.,0.));
#247=CARTESIAN_POINT('',(120.,14.,-2.06700000000001));
#248=CARTESIAN_POINT('',(120.,15.193383006415,0.));
#249=CARTESIAN_POINT('',(120.,0.,0.));
#250=MECHANICAL_DESIGN_GEOMETRIC_PRESENTATION_REPRESENTATION('',(#139),
#251);
#251=(
GEOMETRIC_REPRESENTATION_CONTEXT(3)
GLOBAL_UNCERTAINTY_ASSIGNED_CONTEXT((#252))
GLOBAL_UNIT_ASSIGNED_CONTEXT((#255,#254,#253))
REPRESENTATION_CONTEXT('092326','TOP_LEVEL_ASSEMBLY_PART')
);
#252=UNCERTAINTY_MEASURE_WITH_UNIT(LENGTH_MEASURE(0.005),#255,
'DISTANCE_ACCURACY_VALUE','Maximum Tolerance applied to model');
#253=(
NAMED_UNIT(*)
SI_UNIT($,.STERADIAN.)
SOLID_ANGLE_UNIT()
);
#254=(
NAMED_UNIT(*)
PLANE_ANGLE_UNIT()
SI_UNIT($,.RADIAN.)
);
#255=(
LENGTH_UNIT()
NAMED_UNIT(*)
SI_UNIT(.MILLI.,.METRE.)
);
#256=PRODUCT_DEFINITION_SHAPE('','',#257);
#257=PRODUCT_DEFINITION('','',#259,#258);
#258=PRODUCT_DEFINITION_CONTEXT('',#265,'design');
#259=PRODUCT_DEFINITION_FORMATION_WITH_SPECIFIED_SOURCE('','',#261,
 .NOT_KNOWN.);
#260=PRODUCT_RELATED_PRODUCT_CATEGORY('','',(#261));
#261=PRODUCT('092326','092326','092326',(#263));
#262=PRODUCT_CATEGORY('','');
#263=PRODUCT_CONTEXT('',#265,'mechanical');
#264=APPLICATION_PROTOCOL_DEFINITION('international standard',
'automotive_design',2010,#265);
#265=APPLICATION_CONTEXT(
'core data for automotive mechanical design processes');
ENDSEC;
END-ISO-10303-21;
