ISO-10303-21;
HEADER;
/* Generated by software containing ST-Developer
 * from STEP Tools, Inc. (www.steptools.com) 
 */
/* OPTION: using custom renumber hook */

FILE_DESCRIPTION(
/* description */ ('STEP AP214'),
/* implementation_level */ '2;1');

FILE_NAME(
/* name */ '092329',
/* time_stamp */ '2022-08-11T14:05:56+02:00',
/* author */ ('License CC BY-ND 4.0'),
/* organization */ ('CADENAS'),
/* preprocessor_version */ 'ST-DEVELOPER v18.102',
/* originating_system */ 'PARTsolutions',
/* authorisation */ '  ');

FILE_SCHEMA (('AUTOMOTIVE_DESIGN { 1 0 10303 214 3 1 1 }','TECHNICAL_DATA_PACKAGING',
'MODEL_BASED_INTEGRATED_MANUFACTURING_SCHEMA','AP242_MANAGED_MODEL_BASED_3D_ENGINEERING_MIM_LF { 1 0 10303 442 1 1 4 }',
'AUTOMOTIVE_DESIGN {1 0 10303 214 3 1 1}'));
ENDSEC;

DATA;
#10=PROPERTY_DEFINITION_REPRESENTATION(#14,#12);
#11=PROPERTY_DEFINITION_REPRESENTATION(#15,#13);
#12=REPRESENTATION('',(#16),#331);
#13=REPRESENTATION('',(#17),#331);
#14=PROPERTY_DEFINITION('pmi validation property','',#336);
#15=PROPERTY_DEFINITION('pmi validation property','',#336);
#16=VALUE_REPRESENTATION_ITEM('number of annotations',COUNT_MEASURE(0.));
#17=VALUE_REPRESENTATION_ITEM('number of views',COUNT_MEASURE(0.));
#18=SHAPE_REPRESENTATION_RELATIONSHIP('','',#193,#19);
#19=ADVANCED_BREP_SHAPE_REPRESENTATION('',(#191),#331);
#20=VERTEX_LOOP('',#85);
#21=VERTEX_LOOP('',#87);
#22=CONICAL_SURFACE('',#218,0.,1.0471975511966);
#23=CONICAL_SURFACE('',#221,0.,1.04719755119659);
#24=TOROIDAL_SURFACE('',#200,32.,10.);
#25=TOROIDAL_SURFACE('',#204,32.,10.);
#26=TOROIDAL_SURFACE('',#208,32.,10.);
#27=TOROIDAL_SURFACE('',#212,32.,10.);
#28=PLANE('',#198);
#29=PLANE('',#216);
#30=ORIENTED_EDGE('',*,*,#58,.F.);
#31=ORIENTED_EDGE('',*,*,#59,.T.);
#32=ORIENTED_EDGE('',*,*,#60,.F.);
#33=ORIENTED_EDGE('',*,*,#58,.T.);
#34=ORIENTED_EDGE('',*,*,#61,.F.);
#35=ORIENTED_EDGE('',*,*,#59,.F.);
#36=ORIENTED_EDGE('',*,*,#62,.F.);
#37=ORIENTED_EDGE('',*,*,#61,.T.);
#38=ORIENTED_EDGE('',*,*,#62,.T.);
#39=ORIENTED_EDGE('',*,*,#63,.F.);
#40=ORIENTED_EDGE('',*,*,#64,.F.);
#41=ORIENTED_EDGE('',*,*,#63,.T.);
#42=ORIENTED_EDGE('',*,*,#64,.T.);
#43=ORIENTED_EDGE('',*,*,#65,.F.);
#44=ORIENTED_EDGE('',*,*,#66,.F.);
#45=ORIENTED_EDGE('',*,*,#65,.T.);
#46=ORIENTED_EDGE('',*,*,#66,.T.);
#47=ORIENTED_EDGE('',*,*,#67,.F.);
#48=ORIENTED_EDGE('',*,*,#68,.F.);
#49=ORIENTED_EDGE('',*,*,#67,.T.);
#50=ORIENTED_EDGE('',*,*,#69,.F.);
#51=ORIENTED_EDGE('',*,*,#68,.T.);
#52=ORIENTED_EDGE('',*,*,#70,.T.);
#53=ORIENTED_EDGE('',*,*,#60,.T.);
#54=ORIENTED_EDGE('',*,*,#70,.F.);
#55=ORIENTED_EDGE('',*,*,#71,.T.);
#56=ORIENTED_EDGE('',*,*,#69,.T.);
#57=ORIENTED_EDGE('',*,*,#71,.F.);
#58=EDGE_CURVE('',#72,#72,#88,.T.);
#59=EDGE_CURVE('',#73,#73,#89,.T.);
#60=EDGE_CURVE('',#74,#74,#90,.T.);
#61=EDGE_CURVE('',#75,#75,#91,.T.);
#62=EDGE_CURVE('',#76,#76,#92,.T.);
#63=EDGE_CURVE('',#77,#77,#93,.T.);
#64=EDGE_CURVE('',#78,#78,#94,.T.);
#65=EDGE_CURVE('',#79,#79,#95,.T.);
#66=EDGE_CURVE('',#80,#80,#96,.T.);
#67=EDGE_CURVE('',#81,#81,#97,.T.);
#68=EDGE_CURVE('',#82,#82,#98,.T.);
#69=EDGE_CURVE('',#83,#83,#99,.T.);
#70=EDGE_CURVE('',#84,#84,#100,.T.);
#71=EDGE_CURVE('',#86,#86,#101,.T.);
#72=VERTEX_POINT('',#287);
#73=VERTEX_POINT('',#289);
#74=VERTEX_POINT('',#292);
#75=VERTEX_POINT('',#295);
#76=VERTEX_POINT('',#298);
#77=VERTEX_POINT('',#301);
#78=VERTEX_POINT('',#304);
#79=VERTEX_POINT('',#307);
#80=VERTEX_POINT('',#310);
#81=VERTEX_POINT('',#313);
#82=VERTEX_POINT('',#316);
#83=VERTEX_POINT('',#319);
#84=VERTEX_POINT('',#322);
#85=VERTEX_POINT('',#323);
#86=VERTEX_POINT('',#327);
#87=VERTEX_POINT('',#328);
#88=CIRCLE('',#196,10.);
#89=CIRCLE('',#197,10.);
#90=CIRCLE('',#199,3.3235);
#91=CIRCLE('',#201,10.);
#92=CIRCLE('',#203,10.);
#93=CIRCLE('',#205,10.);
#94=CIRCLE('',#207,10.);
#95=CIRCLE('',#209,10.);
#96=CIRCLE('',#211,10.);
#97=CIRCLE('',#213,10.);
#98=CIRCLE('',#215,10.);
#99=CIRCLE('',#217,3.32349999999998);
#100=CIRCLE('',#219,3.3235);
#101=CIRCLE('',#222,3.32349999999998);
#102=EDGE_LOOP('',(#30));
#103=EDGE_LOOP('',(#31));
#104=EDGE_LOOP('',(#32));
#105=EDGE_LOOP('',(#33));
#106=EDGE_LOOP('',(#34));
#107=EDGE_LOOP('',(#35));
#108=EDGE_LOOP('',(#36));
#109=EDGE_LOOP('',(#37));
#110=EDGE_LOOP('',(#38));
#111=EDGE_LOOP('',(#39));
#112=EDGE_LOOP('',(#40));
#113=EDGE_LOOP('',(#41));
#114=EDGE_LOOP('',(#42));
#115=EDGE_LOOP('',(#43));
#116=EDGE_LOOP('',(#44));
#117=EDGE_LOOP('',(#45));
#118=EDGE_LOOP('',(#46));
#119=EDGE_LOOP('',(#47));
#120=EDGE_LOOP('',(#48));
#121=EDGE_LOOP('',(#49));
#122=EDGE_LOOP('',(#50));
#123=EDGE_LOOP('',(#51));
#124=EDGE_LOOP('',(#52));
#125=EDGE_LOOP('',(#53));
#126=EDGE_LOOP('',(#54));
#127=EDGE_LOOP('',(#55));
#128=EDGE_LOOP('',(#56));
#129=EDGE_LOOP('',(#57));
#130=FACE_BOUND('',#102,.T.);
#131=FACE_BOUND('',#103,.T.);
#132=FACE_BOUND('',#104,.T.);
#133=FACE_BOUND('',#105,.T.);
#134=FACE_BOUND('',#106,.T.);
#135=FACE_BOUND('',#107,.T.);
#136=FACE_BOUND('',#108,.T.);
#137=FACE_BOUND('',#109,.T.);
#138=FACE_BOUND('',#110,.T.);
#139=FACE_BOUND('',#111,.T.);
#140=FACE_BOUND('',#112,.T.);
#141=FACE_BOUND('',#113,.T.);
#142=FACE_BOUND('',#114,.T.);
#143=FACE_BOUND('',#115,.T.);
#144=FACE_BOUND('',#116,.T.);
#145=FACE_BOUND('',#117,.T.);
#146=FACE_BOUND('',#118,.T.);
#147=FACE_BOUND('',#119,.T.);
#148=FACE_BOUND('',#120,.T.);
#149=FACE_BOUND('',#121,.T.);
#150=FACE_BOUND('',#122,.T.);
#151=FACE_BOUND('',#123,.T.);
#152=FACE_BOUND('',#124,.T.);
#153=FACE_BOUND('',#20,.T.);
#154=FACE_BOUND('',#125,.T.);
#155=FACE_BOUND('',#126,.T.);
#156=FACE_BOUND('',#127,.T.);
#157=FACE_BOUND('',#21,.T.);
#158=FACE_BOUND('',#128,.T.);
#159=FACE_BOUND('',#129,.T.);
#160=CYLINDRICAL_SURFACE('',#195,10.);
#161=CYLINDRICAL_SURFACE('',#202,10.);
#162=CYLINDRICAL_SURFACE('',#206,10.);
#163=CYLINDRICAL_SURFACE('',#210,10.);
#164=CYLINDRICAL_SURFACE('',#214,10.);
#165=CYLINDRICAL_SURFACE('',#220,3.3235);
#166=CYLINDRICAL_SURFACE('',#223,3.32349999999998);
#167=ADVANCED_FACE('',(#130,#131),#160,.T.);
#168=ADVANCED_FACE('',(#132,#133),#28,.T.);
#169=ADVANCED_FACE('',(#134,#135),#24,.T.);
#170=ADVANCED_FACE('',(#136,#137),#161,.T.);
#171=ADVANCED_FACE('',(#138,#139),#25,.T.);
#172=ADVANCED_FACE('',(#140,#141),#162,.T.);
#173=ADVANCED_FACE('',(#142,#143),#26,.T.);
#174=ADVANCED_FACE('',(#144,#145),#163,.T.);
#175=ADVANCED_FACE('',(#146,#147),#27,.T.);
#176=ADVANCED_FACE('',(#148,#149),#164,.T.);
#177=ADVANCED_FACE('',(#150,#151),#29,.T.);
#178=ADVANCED_FACE('',(#152,#153),#22,.F.);
#179=ADVANCED_FACE('',(#154,#155),#165,.F.);
#180=ADVANCED_FACE('',(#156,#157),#23,.F.);
#181=ADVANCED_FACE('',(#158,#159),#166,.F.);
#182=CLOSED_SHELL('',(#167,#168,#169,#170,#171,#172,#173,#174,#175,#176,
#177,#178,#179,#180,#181));
#183=STYLED_ITEM('',(#184),#191);
#184=PRESENTATION_STYLE_ASSIGNMENT((#185));
#185=SURFACE_STYLE_USAGE(.BOTH.,#186);
#186=SURFACE_SIDE_STYLE('',(#187));
#187=SURFACE_STYLE_FILL_AREA(#188);
#188=FILL_AREA_STYLE('',(#189));
#189=FILL_AREA_STYLE_COLOUR('',#190);
#190=COLOUR_RGB('',0.0549019612371922,0.0549019612371922,0.062745101749897);
#191=MANIFOLD_SOLID_BREP('092329',#182);
#192=SHAPE_DEFINITION_REPRESENTATION(#336,#193);
#193=SHAPE_REPRESENTATION('092329',(#194),#331);
#194=AXIS2_PLACEMENT_3D('',#284,#224,#225);
#195=AXIS2_PLACEMENT_3D('',#285,#226,#227);
#196=AXIS2_PLACEMENT_3D('',#286,#228,#229);
#197=AXIS2_PLACEMENT_3D('',#288,#230,#231);
#198=AXIS2_PLACEMENT_3D('',#290,#232,#233);
#199=AXIS2_PLACEMENT_3D('',#291,#234,#235);
#200=AXIS2_PLACEMENT_3D('',#293,#236,#237);
#201=AXIS2_PLACEMENT_3D('',#294,#238,#239);
#202=AXIS2_PLACEMENT_3D('',#296,#240,#241);
#203=AXIS2_PLACEMENT_3D('',#297,#242,#243);
#204=AXIS2_PLACEMENT_3D('',#299,#244,#245);
#205=AXIS2_PLACEMENT_3D('',#300,#246,#247);
#206=AXIS2_PLACEMENT_3D('',#302,#248,#249);
#207=AXIS2_PLACEMENT_3D('',#303,#250,#251);
#208=AXIS2_PLACEMENT_3D('',#305,#252,#253);
#209=AXIS2_PLACEMENT_3D('',#306,#254,#255);
#210=AXIS2_PLACEMENT_3D('',#308,#256,#257);
#211=AXIS2_PLACEMENT_3D('',#309,#258,#259);
#212=AXIS2_PLACEMENT_3D('',#311,#260,#261);
#213=AXIS2_PLACEMENT_3D('',#312,#262,#263);
#214=AXIS2_PLACEMENT_3D('',#314,#264,#265);
#215=AXIS2_PLACEMENT_3D('',#315,#266,#267);
#216=AXIS2_PLACEMENT_3D('',#317,#268,#269);
#217=AXIS2_PLACEMENT_3D('',#318,#270,#271);
#218=AXIS2_PLACEMENT_3D('',#320,#272,#273);
#219=AXIS2_PLACEMENT_3D('',#321,#274,#275);
#220=AXIS2_PLACEMENT_3D('',#324,#276,#277);
#221=AXIS2_PLACEMENT_3D('',#325,#278,#279);
#222=AXIS2_PLACEMENT_3D('',#326,#280,#281);
#223=AXIS2_PLACEMENT_3D('',#329,#282,#283);
#224=DIRECTION('',(0.,0.,1.));
#225=DIRECTION('',(1.,0.,0.));
#226=DIRECTION('',(0.,0.,-1.));
#227=DIRECTION('',(-1.,0.,0.));
#228=DIRECTION('',(0.,0.,1.));
#229=DIRECTION('',(1.,0.,0.));
#230=DIRECTION('',(0.,0.,1.));
#231=DIRECTION('',(1.,0.,0.));
#232=DIRECTION('',(0.,0.,1.));
#233=DIRECTION('',(1.,0.,0.));
#234=DIRECTION('',(-3.67489305097144E-17,0.,1.));
#235=DIRECTION('',(1.,0.,3.67489305097144E-17));
#236=DIRECTION('',(-1.,0.,0.));
#237=DIRECTION('',(0.,0.,1.));
#238=DIRECTION('',(0.,0.866025403784439,-0.5));
#239=DIRECTION('',(-1.,0.,0.));
#240=DIRECTION('',(0.,-0.866025403784438,0.5));
#241=DIRECTION('',(0.,-0.5,-0.866025403784439));
#242=DIRECTION('',(0.,0.866025403784439,-0.5));
#243=DIRECTION('',(-1.,0.,0.));
#244=DIRECTION('',(0.,-0.5,-0.866025403784439));
#245=DIRECTION('',(0.,0.866025403784439,-0.5));
#246=DIRECTION('',(1.,1.38777878078145E-16,5.55111512312578E-17));
#247=DIRECTION('',(-6.12323399573677E-17,0.866025403784439,-0.5));
#248=DIRECTION('',(-1.,0.,0.));
#249=DIRECTION('',(0.,0.,1.));
#250=DIRECTION('',(1.,0.,0.));
#251=DIRECTION('',(0.,0.866025403784439,-0.499999999999999));
#252=DIRECTION('',(0.,-0.499999999999999,-0.866025403784439));
#253=DIRECTION('',(0.,0.866025403784439,-0.499999999999999));
#254=DIRECTION('',(6.12323399573677E-17,-0.866025403784439,0.499999999999999));
#255=DIRECTION('',(1.,-2.77555756156289E-17,-1.66533453693773E-16));
#256=DIRECTION('',(0.,0.866025403784439,-0.499999999999999));
#257=DIRECTION('',(0.,0.499999999999999,0.866025403784439));
#258=DIRECTION('',(0.,-0.866025403784439,0.499999999999999));
#259=DIRECTION('',(1.,0.,0.));
#260=DIRECTION('',(-1.,0.,0.));
#261=DIRECTION('',(0.,0.,1.));
#262=DIRECTION('',(0.,0.,1.));
#263=DIRECTION('',(1.,0.,0.));
#264=DIRECTION('',(0.,0.,-1.));
#265=DIRECTION('',(-1.,0.,0.));
#266=DIRECTION('',(0.,0.,1.));
#267=DIRECTION('',(1.,0.,0.));
#268=DIRECTION('',(0.,0.,1.));
#269=DIRECTION('',(1.,0.,0.));
#270=DIRECTION('',(0.,0.,1.));
#271=DIRECTION('',(1.,0.,0.));
#272=DIRECTION('',(-3.67489305097144E-17,0.,1.));
#273=DIRECTION('',(1.,0.,3.67489305097144E-17));
#274=DIRECTION('',(-3.67489305097144E-17,0.,1.));
#275=DIRECTION('',(1.,0.,3.67489305097144E-17));
#276=DIRECTION('',(-3.67489305097144E-17,0.,1.));
#277=DIRECTION('',(1.,0.,3.67489305097144E-17));
#278=DIRECTION('',(0.,0.,1.));
#279=DIRECTION('',(1.,0.,0.));
#280=DIRECTION('',(0.,0.,1.));
#281=DIRECTION('',(1.,0.,0.));
#282=DIRECTION('',(0.,0.,1.));
#283=DIRECTION('',(1.,0.,0.));
#284=CARTESIAN_POINT('',(0.,0.,0.));
#285=CARTESIAN_POINT('',(0.,0.,16.8838));
#286=CARTESIAN_POINT('',(0.,0.,16.8838));
#287=CARTESIAN_POINT('',(10.,0.,16.8838));
#288=CARTESIAN_POINT('',(0.,0.,0.));
#289=CARTESIAN_POINT('',(10.,0.,0.));
#290=CARTESIAN_POINT('',(0.,0.,16.8838));
#291=CARTESIAN_POINT('',(4.48833322040559E-33,0.,16.8838));
#292=CARTESIAN_POINT('',(3.3235,0.,16.8838));
#293=CARTESIAN_POINT('',(0.,32.,0.));
#294=CARTESIAN_POINT('',(0.,16.,-27.712812921102));
#295=CARTESIAN_POINT('',(-10.,16.,-27.712812921102));
#296=CARTESIAN_POINT('',(0.,32.2871665638932,-37.116212921102));
#297=CARTESIAN_POINT('',(0.,32.2871665638932,-37.116212921102));
#298=CARTESIAN_POINT('',(-10.,32.2871665638932,-37.116212921102));
#299=CARTESIAN_POINT('',(32.,32.2871665638932,-37.116212921102));
#300=CARTESIAN_POINT('',(32.,59.9999794849952,-53.116212921102));
#301=CARTESIAN_POINT('',(32.,68.6602335228396,-58.116212921102));
#302=CARTESIAN_POINT('',(168.,59.9999794849952,-53.116212921102));
#303=CARTESIAN_POINT('',(168.,59.9999794849952,-53.116212921102));
#304=CARTESIAN_POINT('',(168.,68.6602335228396,-58.116212921102));
#305=CARTESIAN_POINT('',(168.,32.2871665638932,-37.116212921102));
#306=CARTESIAN_POINT('',(200.,32.2871665638932,-37.1162129211021));
#307=CARTESIAN_POINT('',(210.,32.2871665638932,-37.1162129211021));
#308=CARTESIAN_POINT('',(200.,16.,-27.7128129211021));
#309=CARTESIAN_POINT('',(200.,16.,-27.7128129211021));
#310=CARTESIAN_POINT('',(210.,16.,-27.7128129211021));
#311=CARTESIAN_POINT('',(200.,32.,0.));
#312=CARTESIAN_POINT('',(200.,0.,0.));
#313=CARTESIAN_POINT('',(210.,0.,0.));
#314=CARTESIAN_POINT('',(200.,0.,16.8838));
#315=CARTESIAN_POINT('',(200.,0.,16.8838));
#316=CARTESIAN_POINT('',(210.,0.,16.8838));
#317=CARTESIAN_POINT('',(200.,0.,16.8838));
#318=CARTESIAN_POINT('',(200.,0.,16.8838));
#319=CARTESIAN_POINT('',(203.3235,0.,16.8838));
#320=CARTESIAN_POINT('',(8.88178419700125E-16,0.,-7.28502361965172));
#321=CARTESIAN_POINT('',(8.17663703841145E-16,0.,-5.36619999999999));
#322=CARTESIAN_POINT('',(3.3235,0.,-5.36619999999999));
#323=CARTESIAN_POINT('',(8.88178419700125E-16,0.,-7.28502361965172));
#324=CARTESIAN_POINT('',(0.,0.,16.8838));
#325=CARTESIAN_POINT('',(200.,0.,-7.28502361965172));
#326=CARTESIAN_POINT('',(200.,0.,-5.36619999999999));
#327=CARTESIAN_POINT('',(203.3235,0.,-5.36619999999999));
#328=CARTESIAN_POINT('',(200.,0.,-7.28502361965172));
#329=CARTESIAN_POINT('',(200.,0.,16.8838));
#330=MECHANICAL_DESIGN_GEOMETRIC_PRESENTATION_REPRESENTATION('',(#183),
#331);
#331=(
GEOMETRIC_REPRESENTATION_CONTEXT(3)
GLOBAL_UNCERTAINTY_ASSIGNED_CONTEXT((#332))
GLOBAL_UNIT_ASSIGNED_CONTEXT((#335,#334,#333))
REPRESENTATION_CONTEXT('092329','TOP_LEVEL_ASSEMBLY_PART')
);
#332=UNCERTAINTY_MEASURE_WITH_UNIT(LENGTH_MEASURE(0.005),#335,
'DISTANCE_ACCURACY_VALUE','Maximum Tolerance applied to model');
#333=(
NAMED_UNIT(*)
SI_UNIT($,.STERADIAN.)
SOLID_ANGLE_UNIT()
);
#334=(
NAMED_UNIT(*)
PLANE_ANGLE_UNIT()
SI_UNIT($,.RADIAN.)
);
#335=(
LENGTH_UNIT()
NAMED_UNIT(*)
SI_UNIT(.MILLI.,.METRE.)
);
#336=PRODUCT_DEFINITION_SHAPE('','',#337);
#337=PRODUCT_DEFINITION('','',#339,#338);
#338=PRODUCT_DEFINITION_CONTEXT('',#345,'design');
#339=PRODUCT_DEFINITION_FORMATION_WITH_SPECIFIED_SOURCE('','',#341,
 .NOT_KNOWN.);
#340=PRODUCT_RELATED_PRODUCT_CATEGORY('','',(#341));
#341=PRODUCT('092329','092329','092329',(#343));
#342=PRODUCT_CATEGORY('','');
#343=PRODUCT_CONTEXT('',#345,'mechanical');
#344=APPLICATION_PROTOCOL_DEFINITION('international standard',
'automotive_design',2010,#345);
#345=APPLICATION_CONTEXT(
'core data for automotive mechanical design processes');
ENDSEC;
END-ISO-10303-21;
