ISO-10303-21;
HEADER;
/* Generated by software containing ST-Developer
 * from STEP Tools, Inc. (www.steptools.com) 
 */
/* OPTION: using custom renumber hook */

FILE_DESCRIPTION(
/* description */ ('STEP AP214'),
/* implementation_level */ '2;1');

FILE_NAME(
/* name */ '092063',
/* time_stamp */ '2022-07-14T09:43:48+02:00',
/* author */ ('License CC BY-ND 4.0'),
/* organization */ ('CADENAS'),
/* preprocessor_version */ 'ST-DEVELOPER v18.102',
/* originating_system */ 'PARTsolutions',
/* authorisation */ '  ');

FILE_SCHEMA (('AUTOMOTIVE_DESIGN {1 0 10303 214 3 1 1}'));
ENDSEC;

DATA;
#10=PROPERTY_DEFINITION_REPRESENTATION(#14,#12);
#11=PROPERTY_DEFINITION_REPRESENTATION(#15,#13);
#12=REPRESENTATION('',(#16),#502);
#13=REPRESENTATION('',(#17),#502);
#14=PROPERTY_DEFINITION('pmi validation property','',#507);
#15=PROPERTY_DEFINITION('pmi validation property','',#507);
#16=VALUE_REPRESENTATION_ITEM('number of annotations',COUNT_MEASURE(0.));
#17=VALUE_REPRESENTATION_ITEM('number of views',COUNT_MEASURE(0.));
#18=SHAPE_REPRESENTATION_RELATIONSHIP('','',#292,#19);
#19=ADVANCED_BREP_SHAPE_REPRESENTATION('',(#290),#502);
#20=PLANE('',#318);
#21=PLANE('',#319);
#22=PLANE('',#320);
#23=PLANE('',#327);
#24=PLANE('',#328);
#25=LINE('',#425,#44);
#26=LINE('',#429,#45);
#27=LINE('',#435,#46);
#28=LINE('',#441,#47);
#29=LINE('',#447,#48);
#30=LINE('',#453,#49);
#31=LINE('',#459,#50);
#32=LINE('',#465,#51);
#33=LINE('',#471,#52);
#34=LINE('',#473,#53);
#35=LINE('',#475,#54);
#36=LINE('',#477,#55);
#37=LINE('',#479,#56);
#38=LINE('',#481,#57);
#39=LINE('',#483,#58);
#40=LINE('',#485,#59);
#41=LINE('',#487,#60);
#42=LINE('',#489,#61);
#43=LINE('',#495,#62);
#44=VECTOR('',#335,1000.);
#45=VECTOR('',#338,1000.);
#46=VECTOR('',#345,1000.);
#47=VECTOR('',#352,1000.);
#48=VECTOR('',#359,1000.);
#49=VECTOR('',#366,1000.);
#50=VECTOR('',#373,1000.);
#51=VECTOR('',#380,1000.);
#52=VECTOR('',#387,1000.);
#53=VECTOR('',#390,1000.);
#54=VECTOR('',#391,1000.);
#55=VECTOR('',#392,1000.);
#56=VECTOR('',#395,1000.);
#57=VECTOR('',#396,1000.);
#58=VECTOR('',#397,1000.);
#59=VECTOR('',#400,1000.);
#60=VECTOR('',#401,1000.);
#61=VECTOR('',#402,1000.);
#62=VECTOR('',#409,1000.);
#63=ORIENTED_EDGE('',*,*,#141,.F.);
#64=ORIENTED_EDGE('',*,*,#142,.F.);
#65=ORIENTED_EDGE('',*,*,#143,.T.);
#66=ORIENTED_EDGE('',*,*,#144,.T.);
#67=ORIENTED_EDGE('',*,*,#145,.F.);
#68=ORIENTED_EDGE('',*,*,#144,.F.);
#69=ORIENTED_EDGE('',*,*,#146,.T.);
#70=ORIENTED_EDGE('',*,*,#147,.T.);
#71=ORIENTED_EDGE('',*,*,#148,.T.);
#72=ORIENTED_EDGE('',*,*,#147,.F.);
#73=ORIENTED_EDGE('',*,*,#149,.F.);
#74=ORIENTED_EDGE('',*,*,#150,.T.);
#75=ORIENTED_EDGE('',*,*,#151,.F.);
#76=ORIENTED_EDGE('',*,*,#150,.F.);
#77=ORIENTED_EDGE('',*,*,#152,.T.);
#78=ORIENTED_EDGE('',*,*,#153,.T.);
#79=ORIENTED_EDGE('',*,*,#154,.F.);
#80=ORIENTED_EDGE('',*,*,#153,.F.);
#81=ORIENTED_EDGE('',*,*,#155,.T.);
#82=ORIENTED_EDGE('',*,*,#156,.T.);
#83=ORIENTED_EDGE('',*,*,#157,.F.);
#84=ORIENTED_EDGE('',*,*,#156,.F.);
#85=ORIENTED_EDGE('',*,*,#158,.T.);
#86=ORIENTED_EDGE('',*,*,#159,.T.);
#87=ORIENTED_EDGE('',*,*,#160,.T.);
#88=ORIENTED_EDGE('',*,*,#159,.F.);
#89=ORIENTED_EDGE('',*,*,#161,.F.);
#90=ORIENTED_EDGE('',*,*,#162,.T.);
#91=ORIENTED_EDGE('',*,*,#163,.F.);
#92=ORIENTED_EDGE('',*,*,#162,.F.);
#93=ORIENTED_EDGE('',*,*,#164,.T.);
#94=ORIENTED_EDGE('',*,*,#165,.T.);
#95=ORIENTED_EDGE('',*,*,#166,.F.);
#96=ORIENTED_EDGE('',*,*,#165,.F.);
#97=ORIENTED_EDGE('',*,*,#167,.T.);
#98=ORIENTED_EDGE('',*,*,#168,.T.);
#99=ORIENTED_EDGE('',*,*,#169,.F.);
#100=ORIENTED_EDGE('',*,*,#168,.F.);
#101=ORIENTED_EDGE('',*,*,#170,.T.);
#102=ORIENTED_EDGE('',*,*,#171,.T.);
#103=ORIENTED_EDGE('',*,*,#172,.F.);
#104=ORIENTED_EDGE('',*,*,#171,.F.);
#105=ORIENTED_EDGE('',*,*,#173,.T.);
#106=ORIENTED_EDGE('',*,*,#174,.T.);
#107=ORIENTED_EDGE('',*,*,#175,.F.);
#108=ORIENTED_EDGE('',*,*,#174,.F.);
#109=ORIENTED_EDGE('',*,*,#176,.T.);
#110=ORIENTED_EDGE('',*,*,#177,.T.);
#111=ORIENTED_EDGE('',*,*,#178,.F.);
#112=ORIENTED_EDGE('',*,*,#177,.F.);
#113=ORIENTED_EDGE('',*,*,#179,.T.);
#114=ORIENTED_EDGE('',*,*,#142,.T.);
#115=ORIENTED_EDGE('',*,*,#143,.F.);
#116=ORIENTED_EDGE('',*,*,#179,.F.);
#117=ORIENTED_EDGE('',*,*,#176,.F.);
#118=ORIENTED_EDGE('',*,*,#173,.F.);
#119=ORIENTED_EDGE('',*,*,#170,.F.);
#120=ORIENTED_EDGE('',*,*,#167,.F.);
#121=ORIENTED_EDGE('',*,*,#164,.F.);
#122=ORIENTED_EDGE('',*,*,#161,.T.);
#123=ORIENTED_EDGE('',*,*,#158,.F.);
#124=ORIENTED_EDGE('',*,*,#155,.F.);
#125=ORIENTED_EDGE('',*,*,#152,.F.);
#126=ORIENTED_EDGE('',*,*,#149,.T.);
#127=ORIENTED_EDGE('',*,*,#146,.F.);
#128=ORIENTED_EDGE('',*,*,#141,.T.);
#129=ORIENTED_EDGE('',*,*,#145,.T.);
#130=ORIENTED_EDGE('',*,*,#148,.F.);
#131=ORIENTED_EDGE('',*,*,#151,.T.);
#132=ORIENTED_EDGE('',*,*,#154,.T.);
#133=ORIENTED_EDGE('',*,*,#157,.T.);
#134=ORIENTED_EDGE('',*,*,#160,.F.);
#135=ORIENTED_EDGE('',*,*,#163,.T.);
#136=ORIENTED_EDGE('',*,*,#166,.T.);
#137=ORIENTED_EDGE('',*,*,#169,.T.);
#138=ORIENTED_EDGE('',*,*,#172,.T.);
#139=ORIENTED_EDGE('',*,*,#175,.T.);
#140=ORIENTED_EDGE('',*,*,#178,.T.);
#141=EDGE_CURVE('',#180,#181,#206,.T.);
#142=EDGE_CURVE('',#182,#180,#25,.T.);
#143=EDGE_CURVE('',#182,#183,#207,.T.);
#144=EDGE_CURVE('',#183,#181,#26,.T.);
#145=EDGE_CURVE('',#181,#184,#208,.T.);
#146=EDGE_CURVE('',#183,#185,#209,.T.);
#147=EDGE_CURVE('',#185,#184,#27,.T.);
#148=EDGE_CURVE('',#186,#184,#210,.T.);
#149=EDGE_CURVE('',#187,#185,#211,.T.);
#150=EDGE_CURVE('',#187,#186,#28,.T.);
#151=EDGE_CURVE('',#186,#188,#212,.T.);
#152=EDGE_CURVE('',#187,#189,#213,.T.);
#153=EDGE_CURVE('',#189,#188,#29,.T.);
#154=EDGE_CURVE('',#188,#190,#214,.T.);
#155=EDGE_CURVE('',#189,#191,#215,.T.);
#156=EDGE_CURVE('',#191,#190,#30,.T.);
#157=EDGE_CURVE('',#190,#192,#216,.T.);
#158=EDGE_CURVE('',#191,#193,#217,.T.);
#159=EDGE_CURVE('',#193,#192,#31,.T.);
#160=EDGE_CURVE('',#194,#192,#218,.T.);
#161=EDGE_CURVE('',#195,#193,#219,.T.);
#162=EDGE_CURVE('',#195,#194,#32,.T.);
#163=EDGE_CURVE('',#194,#196,#220,.T.);
#164=EDGE_CURVE('',#195,#197,#221,.T.);
#165=EDGE_CURVE('',#197,#196,#33,.T.);
#166=EDGE_CURVE('',#196,#198,#34,.T.);
#167=EDGE_CURVE('',#197,#199,#35,.T.);
#168=EDGE_CURVE('',#199,#198,#36,.T.);
#169=EDGE_CURVE('',#198,#200,#37,.T.);
#170=EDGE_CURVE('',#199,#201,#38,.T.);
#171=EDGE_CURVE('',#201,#200,#39,.T.);
#172=EDGE_CURVE('',#200,#202,#40,.T.);
#173=EDGE_CURVE('',#201,#203,#41,.T.);
#174=EDGE_CURVE('',#203,#202,#42,.T.);
#175=EDGE_CURVE('',#202,#204,#222,.T.);
#176=EDGE_CURVE('',#203,#205,#223,.T.);
#177=EDGE_CURVE('',#205,#204,#43,.T.);
#178=EDGE_CURVE('',#204,#180,#224,.T.);
#179=EDGE_CURVE('',#205,#182,#225,.T.);
#180=VERTEX_POINT('',#423);
#181=VERTEX_POINT('',#424);
#182=VERTEX_POINT('',#426);
#183=VERTEX_POINT('',#428);
#184=VERTEX_POINT('',#432);
#185=VERTEX_POINT('',#434);
#186=VERTEX_POINT('',#438);
#187=VERTEX_POINT('',#440);
#188=VERTEX_POINT('',#444);
#189=VERTEX_POINT('',#446);
#190=VERTEX_POINT('',#450);
#191=VERTEX_POINT('',#452);
#192=VERTEX_POINT('',#456);
#193=VERTEX_POINT('',#458);
#194=VERTEX_POINT('',#462);
#195=VERTEX_POINT('',#464);
#196=VERTEX_POINT('',#468);
#197=VERTEX_POINT('',#470);
#198=VERTEX_POINT('',#474);
#199=VERTEX_POINT('',#476);
#200=VERTEX_POINT('',#480);
#201=VERTEX_POINT('',#482);
#202=VERTEX_POINT('',#486);
#203=VERTEX_POINT('',#488);
#204=VERTEX_POINT('',#492);
#205=VERTEX_POINT('',#494);
#206=CIRCLE('',#295,0.399999999999998);
#207=CIRCLE('',#296,0.399999999999998);
#208=CIRCLE('',#298,0.400000000000003);
#209=CIRCLE('',#299,0.400000000000003);
#210=CIRCLE('',#301,30.0000000000103);
#211=CIRCLE('',#302,30.0000000000103);
#212=CIRCLE('',#304,40.000000000007);
#213=CIRCLE('',#305,40.000000000007);
#214=CIRCLE('',#307,15.0000000000001);
#215=CIRCLE('',#308,15.0000000000001);
#216=CIRCLE('',#310,0.4);
#217=CIRCLE('',#311,0.4);
#218=CIRCLE('',#313,7.00000000000003);
#219=CIRCLE('',#314,7.00000000000003);
#220=CIRCLE('',#316,0.5);
#221=CIRCLE('',#317,0.5);
#222=CIRCLE('',#322,0.400000000000001);
#223=CIRCLE('',#323,0.400000000000001);
#224=CIRCLE('',#325,60.0000000000006);
#225=CIRCLE('',#326,60.0000000000006);
#226=EDGE_LOOP('',(#63,#64,#65,#66));
#227=EDGE_LOOP('',(#67,#68,#69,#70));
#228=EDGE_LOOP('',(#71,#72,#73,#74));
#229=EDGE_LOOP('',(#75,#76,#77,#78));
#230=EDGE_LOOP('',(#79,#80,#81,#82));
#231=EDGE_LOOP('',(#83,#84,#85,#86));
#232=EDGE_LOOP('',(#87,#88,#89,#90));
#233=EDGE_LOOP('',(#91,#92,#93,#94));
#234=EDGE_LOOP('',(#95,#96,#97,#98));
#235=EDGE_LOOP('',(#99,#100,#101,#102));
#236=EDGE_LOOP('',(#103,#104,#105,#106));
#237=EDGE_LOOP('',(#107,#108,#109,#110));
#238=EDGE_LOOP('',(#111,#112,#113,#114));
#239=EDGE_LOOP('',(#115,#116,#117,#118,#119,#120,#121,#122,#123,#124,#125,
#126,#127));
#240=EDGE_LOOP('',(#128,#129,#130,#131,#132,#133,#134,#135,#136,#137,#138,
#139,#140));
#241=FACE_BOUND('',#226,.T.);
#242=FACE_BOUND('',#227,.T.);
#243=FACE_BOUND('',#228,.T.);
#244=FACE_BOUND('',#229,.T.);
#245=FACE_BOUND('',#230,.T.);
#246=FACE_BOUND('',#231,.T.);
#247=FACE_BOUND('',#232,.T.);
#248=FACE_BOUND('',#233,.T.);
#249=FACE_BOUND('',#234,.T.);
#250=FACE_BOUND('',#235,.T.);
#251=FACE_BOUND('',#236,.T.);
#252=FACE_BOUND('',#237,.T.);
#253=FACE_BOUND('',#238,.T.);
#254=FACE_BOUND('',#239,.T.);
#255=FACE_BOUND('',#240,.T.);
#256=CYLINDRICAL_SURFACE('',#294,0.399999999999998);
#257=CYLINDRICAL_SURFACE('',#297,0.400000000000003);
#258=CYLINDRICAL_SURFACE('',#300,30.0000000000103);
#259=CYLINDRICAL_SURFACE('',#303,40.000000000007);
#260=CYLINDRICAL_SURFACE('',#306,15.0000000000001);
#261=CYLINDRICAL_SURFACE('',#309,0.4);
#262=CYLINDRICAL_SURFACE('',#312,7.00000000000003);
#263=CYLINDRICAL_SURFACE('',#315,0.5);
#264=CYLINDRICAL_SURFACE('',#321,0.400000000000001);
#265=CYLINDRICAL_SURFACE('',#324,60.0000000000006);
#266=ADVANCED_FACE('',(#241),#256,.T.);
#267=ADVANCED_FACE('',(#242),#257,.T.);
#268=ADVANCED_FACE('',(#243),#258,.F.);
#269=ADVANCED_FACE('',(#244),#259,.T.);
#270=ADVANCED_FACE('',(#245),#260,.T.);
#271=ADVANCED_FACE('',(#246),#261,.T.);
#272=ADVANCED_FACE('',(#247),#262,.F.);
#273=ADVANCED_FACE('',(#248),#263,.T.);
#274=ADVANCED_FACE('',(#249),#20,.T.);
#275=ADVANCED_FACE('',(#250),#21,.T.);
#276=ADVANCED_FACE('',(#251),#22,.T.);
#277=ADVANCED_FACE('',(#252),#264,.T.);
#278=ADVANCED_FACE('',(#253),#265,.T.);
#279=ADVANCED_FACE('',(#254),#23,.F.);
#280=ADVANCED_FACE('',(#255),#24,.T.);
#281=CLOSED_SHELL('',(#266,#267,#268,#269,#270,#271,#272,#273,#274,#275,
#276,#277,#278,#279,#280));
#282=STYLED_ITEM('',(#283),#290);
#283=PRESENTATION_STYLE_ASSIGNMENT((#284));
#284=SURFACE_STYLE_USAGE(.BOTH.,#285);
#285=SURFACE_SIDE_STYLE('',(#286));
#286=SURFACE_STYLE_FILL_AREA(#287);
#287=FILL_AREA_STYLE('',(#288));
#288=FILL_AREA_STYLE_COLOUR('',#289);
#289=COLOUR_RGB('',0.0549019612371922,0.0549019612371922,0.062745101749897);
#290=MANIFOLD_SOLID_BREP('092063',#281);
#291=SHAPE_DEFINITION_REPRESENTATION(#507,#292);
#292=SHAPE_REPRESENTATION('092063',(#293),#502);
#293=AXIS2_PLACEMENT_3D('',#420,#329,#330);
#294=AXIS2_PLACEMENT_3D('',#421,#331,#332);
#295=AXIS2_PLACEMENT_3D('',#422,#333,#334);
#296=AXIS2_PLACEMENT_3D('',#427,#336,#337);
#297=AXIS2_PLACEMENT_3D('',#430,#339,#340);
#298=AXIS2_PLACEMENT_3D('',#431,#341,#342);
#299=AXIS2_PLACEMENT_3D('',#433,#343,#344);
#300=AXIS2_PLACEMENT_3D('',#436,#346,#347);
#301=AXIS2_PLACEMENT_3D('',#437,#348,#349);
#302=AXIS2_PLACEMENT_3D('',#439,#350,#351);
#303=AXIS2_PLACEMENT_3D('',#442,#353,#354);
#304=AXIS2_PLACEMENT_3D('',#443,#355,#356);
#305=AXIS2_PLACEMENT_3D('',#445,#357,#358);
#306=AXIS2_PLACEMENT_3D('',#448,#360,#361);
#307=AXIS2_PLACEMENT_3D('',#449,#362,#363);
#308=AXIS2_PLACEMENT_3D('',#451,#364,#365);
#309=AXIS2_PLACEMENT_3D('',#454,#367,#368);
#310=AXIS2_PLACEMENT_3D('',#455,#369,#370);
#311=AXIS2_PLACEMENT_3D('',#457,#371,#372);
#312=AXIS2_PLACEMENT_3D('',#460,#374,#375);
#313=AXIS2_PLACEMENT_3D('',#461,#376,#377);
#314=AXIS2_PLACEMENT_3D('',#463,#378,#379);
#315=AXIS2_PLACEMENT_3D('',#466,#381,#382);
#316=AXIS2_PLACEMENT_3D('',#467,#383,#384);
#317=AXIS2_PLACEMENT_3D('',#469,#385,#386);
#318=AXIS2_PLACEMENT_3D('',#472,#388,#389);
#319=AXIS2_PLACEMENT_3D('',#478,#393,#394);
#320=AXIS2_PLACEMENT_3D('',#484,#398,#399);
#321=AXIS2_PLACEMENT_3D('',#490,#403,#404);
#322=AXIS2_PLACEMENT_3D('',#491,#405,#406);
#323=AXIS2_PLACEMENT_3D('',#493,#407,#408);
#324=AXIS2_PLACEMENT_3D('',#496,#410,#411);
#325=AXIS2_PLACEMENT_3D('',#497,#412,#413);
#326=AXIS2_PLACEMENT_3D('',#498,#414,#415);
#327=AXIS2_PLACEMENT_3D('',#499,#416,#417);
#328=AXIS2_PLACEMENT_3D('',#500,#418,#419);
#329=DIRECTION('',(0.,0.,1.));
#330=DIRECTION('',(1.,0.,0.));
#331=DIRECTION('',(0.,0.,1.));
#332=DIRECTION('',(1.,0.,0.));
#333=DIRECTION('',(0.,0.,1.));
#334=DIRECTION('',(1.,0.,0.));
#335=DIRECTION('',(0.,0.,1.));
#336=DIRECTION('',(0.,0.,1.));
#337=DIRECTION('',(1.,0.,0.));
#338=DIRECTION('',(0.,0.,1.));
#339=DIRECTION('',(0.,0.,1.));
#340=DIRECTION('',(1.,0.,0.));
#341=DIRECTION('',(0.,0.,1.));
#342=DIRECTION('',(1.,0.,0.));
#343=DIRECTION('',(0.,0.,1.));
#344=DIRECTION('',(1.,0.,0.));
#345=DIRECTION('',(0.,0.,1.));
#346=DIRECTION('',(0.,0.,1.));
#347=DIRECTION('',(1.,0.,0.));
#348=DIRECTION('',(0.,0.,1.));
#349=DIRECTION('',(1.,0.,0.));
#350=DIRECTION('',(0.,0.,1.));
#351=DIRECTION('',(1.,0.,0.));
#352=DIRECTION('',(0.,0.,1.));
#353=DIRECTION('',(0.,0.,1.));
#354=DIRECTION('',(1.,0.,0.));
#355=DIRECTION('',(0.,0.,1.));
#356=DIRECTION('',(1.,0.,0.));
#357=DIRECTION('',(0.,0.,1.));
#358=DIRECTION('',(1.,0.,0.));
#359=DIRECTION('',(0.,0.,1.));
#360=DIRECTION('',(0.,0.,1.));
#361=DIRECTION('',(1.,0.,0.));
#362=DIRECTION('',(0.,0.,1.));
#363=DIRECTION('',(1.,0.,0.));
#364=DIRECTION('',(0.,0.,1.));
#365=DIRECTION('',(1.,0.,0.));
#366=DIRECTION('',(0.,0.,1.));
#367=DIRECTION('',(0.,0.,1.));
#368=DIRECTION('',(1.,0.,0.));
#369=DIRECTION('',(0.,0.,1.));
#370=DIRECTION('',(1.,0.,0.));
#371=DIRECTION('',(0.,0.,1.));
#372=DIRECTION('',(1.,0.,0.));
#373=DIRECTION('',(0.,0.,1.));
#374=DIRECTION('',(0.,0.,1.));
#375=DIRECTION('',(1.,0.,0.));
#376=DIRECTION('',(0.,0.,1.));
#377=DIRECTION('',(1.,0.,0.));
#378=DIRECTION('',(0.,0.,1.));
#379=DIRECTION('',(1.,0.,0.));
#380=DIRECTION('',(0.,0.,1.));
#381=DIRECTION('',(0.,0.,1.));
#382=DIRECTION('',(1.,0.,0.));
#383=DIRECTION('',(0.,0.,1.));
#384=DIRECTION('',(1.,0.,0.));
#385=DIRECTION('',(0.,0.,1.));
#386=DIRECTION('',(1.,0.,0.));
#387=DIRECTION('',(0.,0.,1.));
#388=DIRECTION('',(-8.67361737988439E-15,1.,0.));
#389=DIRECTION('',(-1.,-8.67361737988439E-15,0.));
#390=DIRECTION('',(-1.,-8.67361737988439E-15,0.));
#391=DIRECTION('',(-1.,-8.67361737988439E-15,0.));
#392=DIRECTION('',(0.,0.,1.));
#393=DIRECTION('',(1.,0.,0.));
#394=DIRECTION('',(0.,0.,-1.));
#395=DIRECTION('',(0.,1.,0.));
#396=DIRECTION('',(0.,1.,0.));
#397=DIRECTION('',(0.,0.,1.));
#398=DIRECTION('',(-0.101197611458655,-0.994866344508177,0.));
#399=DIRECTION('',(0.994866344508177,-0.101197611458655,0.));
#400=DIRECTION('',(0.994866344508177,-0.101197611458655,0.));
#401=DIRECTION('',(0.994866344508177,-0.101197611458655,0.));
#402=DIRECTION('',(0.,0.,1.));
#403=DIRECTION('',(0.,0.,1.));
#404=DIRECTION('',(1.,0.,0.));
#405=DIRECTION('',(0.,0.,1.));
#406=DIRECTION('',(1.,0.,0.));
#407=DIRECTION('',(0.,0.,1.));
#408=DIRECTION('',(1.,0.,0.));
#409=DIRECTION('',(0.,0.,1.));
#410=DIRECTION('',(0.,0.,1.));
#411=DIRECTION('',(1.,0.,0.));
#412=DIRECTION('',(0.,0.,1.));
#413=DIRECTION('',(1.,0.,0.));
#414=DIRECTION('',(0.,0.,1.));
#415=DIRECTION('',(1.,0.,0.));
#416=DIRECTION('',(0.,0.,1.));
#417=DIRECTION('',(1.,0.,0.));
#418=DIRECTION('',(0.,0.,1.));
#419=DIRECTION('',(1.,0.,0.));
#420=CARTESIAN_POINT('',(0.,0.,0.));
#421=CARTESIAN_POINT('',(-0.400000000000001,6.79999999999975,-100.));
#422=CARTESIAN_POINT('',(-0.400000000000001,6.79999999999975,0.));
#423=CARTESIAN_POINT('',(-0.399999999976401,7.19999999999975,0.));
#424=CARTESIAN_POINT('',(-0.8,6.8,0.));
#425=CARTESIAN_POINT('',(-0.399999999976401,7.19999999999975,-100.));
#426=CARTESIAN_POINT('',(-0.399999999976401,7.19999999999975,-100.));
#427=CARTESIAN_POINT('',(-0.400000000000001,6.79999999999975,-100.));
#428=CARTESIAN_POINT('',(-0.8,6.8,-100.));
#429=CARTESIAN_POINT('',(-0.8,6.8,-100.));
#430=CARTESIAN_POINT('',(-0.415411839456888,6.9099633883166,-100.));
#431=CARTESIAN_POINT('',(-0.415411839456888,6.9099633883166,0.));
#432=CARTESIAN_POINT('',(-0.41000000000079,6.50999999999999,0.));
#433=CARTESIAN_POINT('',(-0.415411839456888,6.9099633883166,-100.));
#434=CARTESIAN_POINT('',(-0.41000000000079,6.50999999999999,-100.));
#435=CARTESIAN_POINT('',(-0.41000000000079,6.50999999999999,-100.));
#436=CARTESIAN_POINT('',(-0.299204486621104,-23.4897954052162,-100.));
#437=CARTESIAN_POINT('',(-0.299204486621104,-23.4897954052162,0.));
#438=CARTESIAN_POINT('',(1.99959860131468,6.42199999999999,0.));
#439=CARTESIAN_POINT('',(-0.299204486621104,-23.4897954052162,-100.));
#440=CARTESIAN_POINT('',(1.99959860131468,6.42199999999999,-100.));
#441=CARTESIAN_POINT('',(1.99959860131468,6.42199999999999,-100.));
#442=CARTESIAN_POINT('',(41.980000000007,5.1699999999999,-100.));
#443=CARTESIAN_POINT('',(41.980000000007,5.1699999999999,0.));
#444=CARTESIAN_POINT('',(1.99913738964522,3.93281572434214,0.));
#445=CARTESIAN_POINT('',(41.980000000007,5.1699999999999,-100.));
#446=CARTESIAN_POINT('',(1.99913738964522,3.93281572434214,-100.));
#447=CARTESIAN_POINT('',(1.99913738964522,3.93281572434214,-100.));
#448=CARTESIAN_POINT('',(13.3837300278707,-5.83401848443111,-100.));
#449=CARTESIAN_POINT('',(13.3837300278707,-5.83401848443111,0.));
#450=CARTESIAN_POINT('',(-0.366606055571431,0.160000000057431,0.));
#451=CARTESIAN_POINT('',(13.3837300278707,-5.83401848443111,-100.));
#452=CARTESIAN_POINT('',(-0.366606055571431,0.160000000057431,-100.));
#453=CARTESIAN_POINT('',(-0.366606055571431,0.160000000057431,-100.));
#454=CARTESIAN_POINT('',(-2.12883096567529E-13,-4.22391613873196E-13,-100.));
#455=CARTESIAN_POINT('',(-2.12883096567529E-13,-4.22391613873196E-13,0.));
#456=CARTESIAN_POINT('',(0.357211421989847,-0.179999999999977,0.));
#457=CARTESIAN_POINT('',(-2.12883096567529E-13,-4.22391613873196E-13,-100.));
#458=CARTESIAN_POINT('',(0.357211421989847,-0.179999999999977,-100.));
#459=CARTESIAN_POINT('',(0.357211421989847,-0.179999999999977,-100.));
#460=CARTESIAN_POINT('',(6.6309009799792,-3.28496688065679,-100.));
#461=CARTESIAN_POINT('',(6.6309009799792,-3.28496688065679,0.));
#462=CARTESIAN_POINT('',(4.07058722109229,3.22999999999999,0.));
#463=CARTESIAN_POINT('',(6.6309009799792,-3.28496688065679,-100.));
#464=CARTESIAN_POINT('',(4.07058722109229,3.22999999999999,-100.));
#465=CARTESIAN_POINT('',(4.07058722109229,3.22999999999999,-100.));
#466=CARTESIAN_POINT('',(3.9,3.7,-100.));
#467=CARTESIAN_POINT('',(3.9,3.7,0.));
#468=CARTESIAN_POINT('',(3.9,4.2,0.));
#469=CARTESIAN_POINT('',(3.9,3.7,-100.));
#470=CARTESIAN_POINT('',(3.9,4.2,-100.));
#471=CARTESIAN_POINT('',(3.9,4.2,-100.));
#472=CARTESIAN_POINT('',(3.9,4.2,-100.));
#473=CARTESIAN_POINT('',(3.9,4.2,0.));
#474=CARTESIAN_POINT('',(3.8,4.2,0.));
#475=CARTESIAN_POINT('',(3.9,4.2,-100.));
#476=CARTESIAN_POINT('',(3.8,4.2,-100.));
#477=CARTESIAN_POINT('',(3.8,4.2,-100.));
#478=CARTESIAN_POINT('',(3.8,4.2,-100.));
#479=CARTESIAN_POINT('',(3.8,4.2,0.));
#480=CARTESIAN_POINT('',(3.8,6.22,0.));
#481=CARTESIAN_POINT('',(3.8,4.2,-100.));
#482=CARTESIAN_POINT('',(3.8,6.22,-100.));
#483=CARTESIAN_POINT('',(3.8,6.22,-100.));
#484=CARTESIAN_POINT('',(3.8,6.22,-100.));
#485=CARTESIAN_POINT('',(3.8,6.22,0.));
#486=CARTESIAN_POINT('',(4.95952098474232,6.10205375049638,0.));
#487=CARTESIAN_POINT('',(3.8,6.22,-100.));
#488=CARTESIAN_POINT('',(4.95952098474232,6.10205375049638,-100.));
#489=CARTESIAN_POINT('',(4.95952098474232,6.10205375049638,-100.));
#490=CARTESIAN_POINT('',(5.0000028633777,6.50000000001025,-100.));
#491=CARTESIAN_POINT('',(5.0000028633777,6.50000000001025,0.));
#492=CARTESIAN_POINT('',(5.00000000000002,6.9,0.));
#493=CARTESIAN_POINT('',(5.0000028633777,6.50000000001025,-100.));
#494=CARTESIAN_POINT('',(5.00000000000002,6.9,-100.));
#495=CARTESIAN_POINT('',(5.00000000000002,6.9,-100.));
#496=CARTESIAN_POINT('',(-1.02481925477498,-52.7967465859519,-100.));
#497=CARTESIAN_POINT('',(-1.02481925477498,-52.7967465859519,0.));
#498=CARTESIAN_POINT('',(-1.02481925477498,-52.7967465859519,-100.));
#499=CARTESIAN_POINT('',(-0.400000000000001,6.79999999999975,-100.));
#500=CARTESIAN_POINT('',(-0.400000000000001,6.79999999999975,0.));
#501=MECHANICAL_DESIGN_GEOMETRIC_PRESENTATION_REPRESENTATION('',(#282),
#502);
#502=(
GEOMETRIC_REPRESENTATION_CONTEXT(3)
GLOBAL_UNCERTAINTY_ASSIGNED_CONTEXT((#503))
GLOBAL_UNIT_ASSIGNED_CONTEXT((#506,#505,#504))
REPRESENTATION_CONTEXT('092063','TOP_LEVEL_ASSEMBLY_PART')
);
#503=UNCERTAINTY_MEASURE_WITH_UNIT(LENGTH_MEASURE(0.005),#506,
'DISTANCE_ACCURACY_VALUE','Maximum Tolerance applied to model');
#504=(
NAMED_UNIT(*)
SI_UNIT($,.STERADIAN.)
SOLID_ANGLE_UNIT()
);
#505=(
NAMED_UNIT(*)
PLANE_ANGLE_UNIT()
SI_UNIT($,.RADIAN.)
);
#506=(
LENGTH_UNIT()
NAMED_UNIT(*)
SI_UNIT(.MILLI.,.METRE.)
);
#507=PRODUCT_DEFINITION_SHAPE('','',#508);
#508=PRODUCT_DEFINITION('','',#510,#509);
#509=PRODUCT_DEFINITION_CONTEXT('',#516,'design');
#510=PRODUCT_DEFINITION_FORMATION_WITH_SPECIFIED_SOURCE('','',#512,
 .NOT_KNOWN.);
#511=PRODUCT_RELATED_PRODUCT_CATEGORY('','',(#512));
#512=PRODUCT('092063','092063','092063',(#514));
#513=PRODUCT_CATEGORY('','');
#514=PRODUCT_CONTEXT('',#516,'mechanical');
#515=APPLICATION_PROTOCOL_DEFINITION('international standard',
'automotive_design',2010,#516);
#516=APPLICATION_CONTEXT(
'core data for automotive mechanical design processes');
ENDSEC;
END-ISO-10303-21;
