ISO-10303-21;
HEADER;
/* Generated by software containing ST-Developer
 * from STEP Tools, Inc. (www.steptools.com) 
 */

FILE_DESCRIPTION(
/* description */ (''),
/* implementation_level */ '2;1');

FILE_NAME(
/* name */ '1007779.stp',
/* time_stamp */ '2024-07-25T10:52:47+02:00',
/* author */ ('Bo'),
/* organization */ (''),
/* preprocessor_version */ 'ST-DEVELOPER v20',
/* originating_system */ 'Autodesk Inventor 2025',
/* authorisation */ '');

FILE_SCHEMA (('AUTOMOTIVE_DESIGN { 1 0 10303 214 3 1 1 }'));
ENDSEC;

DATA;
#10=MECHANICAL_DESIGN_GEOMETRIC_PRESENTATION_REPRESENTATION('',(#13),#538);
#11=SHAPE_REPRESENTATION_RELATIONSHIP('SRR','None',#545,#12);
#12=ADVANCED_BREP_SHAPE_REPRESENTATION('',(#14),#537);
#13=STYLED_ITEM('',(#555),#14);
#14=MANIFOLD_SOLID_BREP('Solid2',#317);
#15=FACE_BOUND('',#56,.T.);
#16=FACE_BOUND('',#58,.T.);
#17=FACE_BOUND('',#61,.T.);
#18=FACE_BOUND('',#63,.T.);
#19=PLANE('',#343);
#20=PLANE('',#347);
#21=PLANE('',#351);
#22=PLANE('',#355);
#23=PLANE('',#356);
#24=PLANE('',#357);
#25=PLANE('',#358);
#26=PLANE('',#359);
#27=PLANE('',#360);
#28=PLANE('',#361);
#29=PLANE('',#362);
#30=PLANE('',#363);
#31=FACE_OUTER_BOUND('',#47,.T.);
#32=FACE_OUTER_BOUND('',#48,.T.);
#33=FACE_OUTER_BOUND('',#49,.T.);
#34=FACE_OUTER_BOUND('',#50,.T.);
#35=FACE_OUTER_BOUND('',#51,.T.);
#36=FACE_OUTER_BOUND('',#52,.T.);
#37=FACE_OUTER_BOUND('',#53,.T.);
#38=FACE_OUTER_BOUND('',#54,.T.);
#39=FACE_OUTER_BOUND('',#55,.T.);
#40=FACE_OUTER_BOUND('',#57,.T.);
#41=FACE_OUTER_BOUND('',#59,.T.);
#42=FACE_OUTER_BOUND('',#60,.T.);
#43=FACE_OUTER_BOUND('',#62,.T.);
#44=FACE_OUTER_BOUND('',#64,.T.);
#45=FACE_OUTER_BOUND('',#65,.T.);
#46=FACE_OUTER_BOUND('',#66,.T.);
#47=EDGE_LOOP('',(#213,#214,#215,#216));
#48=EDGE_LOOP('',(#217,#218,#219,#220));
#49=EDGE_LOOP('',(#221,#222,#223,#224));
#50=EDGE_LOOP('',(#225,#226,#227,#228));
#51=EDGE_LOOP('',(#229,#230,#231,#232));
#52=EDGE_LOOP('',(#233,#234,#235,#236));
#53=EDGE_LOOP('',(#237,#238,#239,#240));
#54=EDGE_LOOP('',(#241,#242,#243,#244));
#55=EDGE_LOOP('',(#245,#246,#247,#248));
#56=EDGE_LOOP('',(#249,#250,#251,#252));
#57=EDGE_LOOP('',(#253,#254,#255,#256));
#58=EDGE_LOOP('',(#257,#258,#259,#260));
#59=EDGE_LOOP('',(#261,#262,#263,#264));
#60=EDGE_LOOP('',(#265,#266,#267,#268));
#61=EDGE_LOOP('',(#269,#270,#271,#272));
#62=EDGE_LOOP('',(#273,#274,#275,#276));
#63=EDGE_LOOP('',(#277,#278,#279,#280));
#64=EDGE_LOOP('',(#281,#282,#283,#284));
#65=EDGE_LOOP('',(#285,#286,#287,#288,#289,#290));
#66=EDGE_LOOP('',(#291,#292,#293,#294,#295,#296));
#67=LINE('',#454,#101);
#68=LINE('',#457,#102);
#69=LINE('',#460,#103);
#70=LINE('',#462,#104);
#71=LINE('',#463,#105);
#72=LINE('',#469,#106);
#73=LINE('',#471,#107);
#74=LINE('',#472,#108);
#75=LINE('',#478,#109);
#76=LINE('',#481,#110);
#77=LINE('',#484,#111);
#78=LINE('',#486,#112);
#79=LINE('',#487,#113);
#80=LINE('',#493,#114);
#81=LINE('',#495,#115);
#82=LINE('',#496,#116);
#83=LINE('',#500,#117);
#84=LINE('',#502,#118);
#85=LINE('',#504,#119);
#86=LINE('',#505,#120);
#87=LINE('',#508,#121);
#88=LINE('',#510,#122);
#89=LINE('',#511,#123);
#90=LINE('',#514,#124);
#91=LINE('',#516,#125);
#92=LINE('',#517,#126);
#93=LINE('',#520,#127);
#94=LINE('',#522,#128);
#95=LINE('',#523,#129);
#96=LINE('',#526,#130);
#97=LINE('',#528,#131);
#98=LINE('',#529,#132);
#99=LINE('',#531,#133);
#100=LINE('',#532,#134);
#101=VECTOR('',#370,3.);
#102=VECTOR('',#373,3.);
#103=VECTOR('',#376,9.);
#104=VECTOR('',#377,9.);
#105=VECTOR('',#378,3.);
#106=VECTOR('',#385,3.);
#107=VECTOR('',#388,9.);
#108=VECTOR('',#389,9.);
#109=VECTOR('',#394,3.);
#110=VECTOR('',#397,3.);
#111=VECTOR('',#400,9.);
#112=VECTOR('',#401,9.);
#113=VECTOR('',#402,3.);
#114=VECTOR('',#409,3.);
#115=VECTOR('',#412,9.);
#116=VECTOR('',#413,9.);
#117=VECTOR('',#416,27.);
#118=VECTOR('',#417,30.);
#119=VECTOR('',#418,27.);
#120=VECTOR('',#419,30.);
#121=VECTOR('',#422,27.);
#122=VECTOR('',#423,30.);
#123=VECTOR('',#424,27.);
#124=VECTOR('',#427,3.);
#125=VECTOR('',#428,30.);
#126=VECTOR('',#429,3.);
#127=VECTOR('',#432,30.);
#128=VECTOR('',#433,30.);
#129=VECTOR('',#434,30.);
#130=VECTOR('',#437,30.);
#131=VECTOR('',#438,30.);
#132=VECTOR('',#439,30.);
#133=VECTOR('',#442,3.);
#134=VECTOR('',#443,3.);
#135=CIRCLE('',#341,4.5);
#136=CIRCLE('',#342,4.5);
#137=CIRCLE('',#345,4.5);
#138=CIRCLE('',#346,4.5);
#139=CIRCLE('',#349,4.5);
#140=CIRCLE('',#350,4.5);
#141=CIRCLE('',#353,4.5);
#142=CIRCLE('',#354,4.5);
#143=VERTEX_POINT('',#450);
#144=VERTEX_POINT('',#451);
#145=VERTEX_POINT('',#453);
#146=VERTEX_POINT('',#455);
#147=VERTEX_POINT('',#459);
#148=VERTEX_POINT('',#461);
#149=VERTEX_POINT('',#465);
#150=VERTEX_POINT('',#467);
#151=VERTEX_POINT('',#474);
#152=VERTEX_POINT('',#475);
#153=VERTEX_POINT('',#477);
#154=VERTEX_POINT('',#479);
#155=VERTEX_POINT('',#483);
#156=VERTEX_POINT('',#485);
#157=VERTEX_POINT('',#489);
#158=VERTEX_POINT('',#491);
#159=VERTEX_POINT('',#498);
#160=VERTEX_POINT('',#499);
#161=VERTEX_POINT('',#501);
#162=VERTEX_POINT('',#503);
#163=VERTEX_POINT('',#507);
#164=VERTEX_POINT('',#509);
#165=VERTEX_POINT('',#513);
#166=VERTEX_POINT('',#515);
#167=VERTEX_POINT('',#519);
#168=VERTEX_POINT('',#521);
#169=VERTEX_POINT('',#525);
#170=VERTEX_POINT('',#527);
#171=EDGE_CURVE('',#143,#144,#135,.T.);
#172=EDGE_CURVE('',#145,#143,#67,.T.);
#173=EDGE_CURVE('',#146,#145,#136,.T.);
#174=EDGE_CURVE('',#146,#144,#68,.T.);
#175=EDGE_CURVE('',#144,#147,#69,.T.);
#176=EDGE_CURVE('',#148,#146,#70,.T.);
#177=EDGE_CURVE('',#148,#147,#71,.T.);
#178=EDGE_CURVE('',#147,#149,#137,.T.);
#179=EDGE_CURVE('',#150,#148,#138,.T.);
#180=EDGE_CURVE('',#150,#149,#72,.T.);
#181=EDGE_CURVE('',#149,#143,#73,.T.);
#182=EDGE_CURVE('',#145,#150,#74,.T.);
#183=EDGE_CURVE('',#151,#152,#139,.T.);
#184=EDGE_CURVE('',#153,#151,#75,.T.);
#185=EDGE_CURVE('',#154,#153,#140,.T.);
#186=EDGE_CURVE('',#154,#152,#76,.T.);
#187=EDGE_CURVE('',#152,#155,#77,.T.);
#188=EDGE_CURVE('',#156,#154,#78,.T.);
#189=EDGE_CURVE('',#156,#155,#79,.T.);
#190=EDGE_CURVE('',#155,#157,#141,.T.);
#191=EDGE_CURVE('',#158,#156,#142,.T.);
#192=EDGE_CURVE('',#158,#157,#80,.T.);
#193=EDGE_CURVE('',#157,#151,#81,.T.);
#194=EDGE_CURVE('',#153,#158,#82,.T.);
#195=EDGE_CURVE('',#159,#160,#83,.T.);
#196=EDGE_CURVE('',#161,#160,#84,.T.);
#197=EDGE_CURVE('',#162,#161,#85,.T.);
#198=EDGE_CURVE('',#162,#159,#86,.T.);
#199=EDGE_CURVE('',#160,#163,#87,.T.);
#200=EDGE_CURVE('',#164,#163,#88,.T.);
#201=EDGE_CURVE('',#161,#164,#89,.T.);
#202=EDGE_CURVE('',#163,#165,#90,.T.);
#203=EDGE_CURVE('',#166,#165,#91,.T.);
#204=EDGE_CURVE('',#164,#166,#92,.T.);
#205=EDGE_CURVE('',#165,#167,#93,.T.);
#206=EDGE_CURVE('',#168,#167,#94,.T.);
#207=EDGE_CURVE('',#166,#168,#95,.T.);
#208=EDGE_CURVE('',#167,#169,#96,.T.);
#209=EDGE_CURVE('',#170,#169,#97,.T.);
#210=EDGE_CURVE('',#168,#170,#98,.T.);
#211=EDGE_CURVE('',#169,#159,#99,.T.);
#212=EDGE_CURVE('',#170,#162,#100,.T.);
#213=ORIENTED_EDGE('',*,*,#171,.F.);
#214=ORIENTED_EDGE('',*,*,#172,.F.);
#215=ORIENTED_EDGE('',*,*,#173,.F.);
#216=ORIENTED_EDGE('',*,*,#174,.T.);
#217=ORIENTED_EDGE('',*,*,#175,.F.);
#218=ORIENTED_EDGE('',*,*,#174,.F.);
#219=ORIENTED_EDGE('',*,*,#176,.F.);
#220=ORIENTED_EDGE('',*,*,#177,.T.);
#221=ORIENTED_EDGE('',*,*,#178,.F.);
#222=ORIENTED_EDGE('',*,*,#177,.F.);
#223=ORIENTED_EDGE('',*,*,#179,.F.);
#224=ORIENTED_EDGE('',*,*,#180,.T.);
#225=ORIENTED_EDGE('',*,*,#181,.F.);
#226=ORIENTED_EDGE('',*,*,#180,.F.);
#227=ORIENTED_EDGE('',*,*,#182,.F.);
#228=ORIENTED_EDGE('',*,*,#172,.T.);
#229=ORIENTED_EDGE('',*,*,#183,.F.);
#230=ORIENTED_EDGE('',*,*,#184,.F.);
#231=ORIENTED_EDGE('',*,*,#185,.F.);
#232=ORIENTED_EDGE('',*,*,#186,.T.);
#233=ORIENTED_EDGE('',*,*,#187,.F.);
#234=ORIENTED_EDGE('',*,*,#186,.F.);
#235=ORIENTED_EDGE('',*,*,#188,.F.);
#236=ORIENTED_EDGE('',*,*,#189,.T.);
#237=ORIENTED_EDGE('',*,*,#190,.F.);
#238=ORIENTED_EDGE('',*,*,#189,.F.);
#239=ORIENTED_EDGE('',*,*,#191,.F.);
#240=ORIENTED_EDGE('',*,*,#192,.T.);
#241=ORIENTED_EDGE('',*,*,#193,.F.);
#242=ORIENTED_EDGE('',*,*,#192,.F.);
#243=ORIENTED_EDGE('',*,*,#194,.F.);
#244=ORIENTED_EDGE('',*,*,#184,.T.);
#245=ORIENTED_EDGE('',*,*,#195,.T.);
#246=ORIENTED_EDGE('',*,*,#196,.F.);
#247=ORIENTED_EDGE('',*,*,#197,.F.);
#248=ORIENTED_EDGE('',*,*,#198,.T.);
#249=ORIENTED_EDGE('',*,*,#179,.T.);
#250=ORIENTED_EDGE('',*,*,#176,.T.);
#251=ORIENTED_EDGE('',*,*,#173,.T.);
#252=ORIENTED_EDGE('',*,*,#182,.T.);
#253=ORIENTED_EDGE('',*,*,#199,.T.);
#254=ORIENTED_EDGE('',*,*,#200,.F.);
#255=ORIENTED_EDGE('',*,*,#201,.F.);
#256=ORIENTED_EDGE('',*,*,#196,.T.);
#257=ORIENTED_EDGE('',*,*,#191,.T.);
#258=ORIENTED_EDGE('',*,*,#188,.T.);
#259=ORIENTED_EDGE('',*,*,#185,.T.);
#260=ORIENTED_EDGE('',*,*,#194,.T.);
#261=ORIENTED_EDGE('',*,*,#202,.T.);
#262=ORIENTED_EDGE('',*,*,#203,.F.);
#263=ORIENTED_EDGE('',*,*,#204,.F.);
#264=ORIENTED_EDGE('',*,*,#200,.T.);
#265=ORIENTED_EDGE('',*,*,#205,.T.);
#266=ORIENTED_EDGE('',*,*,#206,.F.);
#267=ORIENTED_EDGE('',*,*,#207,.F.);
#268=ORIENTED_EDGE('',*,*,#203,.T.);
#269=ORIENTED_EDGE('',*,*,#190,.T.);
#270=ORIENTED_EDGE('',*,*,#193,.T.);
#271=ORIENTED_EDGE('',*,*,#183,.T.);
#272=ORIENTED_EDGE('',*,*,#187,.T.);
#273=ORIENTED_EDGE('',*,*,#208,.T.);
#274=ORIENTED_EDGE('',*,*,#209,.F.);
#275=ORIENTED_EDGE('',*,*,#210,.F.);
#276=ORIENTED_EDGE('',*,*,#206,.T.);
#277=ORIENTED_EDGE('',*,*,#178,.T.);
#278=ORIENTED_EDGE('',*,*,#181,.T.);
#279=ORIENTED_EDGE('',*,*,#171,.T.);
#280=ORIENTED_EDGE('',*,*,#175,.T.);
#281=ORIENTED_EDGE('',*,*,#211,.T.);
#282=ORIENTED_EDGE('',*,*,#198,.F.);
#283=ORIENTED_EDGE('',*,*,#212,.F.);
#284=ORIENTED_EDGE('',*,*,#209,.T.);
#285=ORIENTED_EDGE('',*,*,#195,.F.);
#286=ORIENTED_EDGE('',*,*,#211,.F.);
#287=ORIENTED_EDGE('',*,*,#208,.F.);
#288=ORIENTED_EDGE('',*,*,#205,.F.);
#289=ORIENTED_EDGE('',*,*,#202,.F.);
#290=ORIENTED_EDGE('',*,*,#199,.F.);
#291=ORIENTED_EDGE('',*,*,#212,.T.);
#292=ORIENTED_EDGE('',*,*,#197,.T.);
#293=ORIENTED_EDGE('',*,*,#201,.T.);
#294=ORIENTED_EDGE('',*,*,#204,.T.);
#295=ORIENTED_EDGE('',*,*,#207,.T.);
#296=ORIENTED_EDGE('',*,*,#210,.T.);
#297=CYLINDRICAL_SURFACE('',#340,4.5);
#298=CYLINDRICAL_SURFACE('',#344,4.5);
#299=CYLINDRICAL_SURFACE('',#348,4.5);
#300=CYLINDRICAL_SURFACE('',#352,4.5);
#301=ADVANCED_FACE('',(#31),#297,.F.);
#302=ADVANCED_FACE('',(#32),#19,.F.);
#303=ADVANCED_FACE('',(#33),#298,.F.);
#304=ADVANCED_FACE('',(#34),#20,.F.);
#305=ADVANCED_FACE('',(#35),#299,.F.);
#306=ADVANCED_FACE('',(#36),#21,.F.);
#307=ADVANCED_FACE('',(#37),#300,.F.);
#308=ADVANCED_FACE('',(#38),#22,.F.);
#309=ADVANCED_FACE('',(#39,#15),#23,.T.);
#310=ADVANCED_FACE('',(#40,#16),#24,.T.);
#311=ADVANCED_FACE('',(#41),#25,.T.);
#312=ADVANCED_FACE('',(#42,#17),#26,.T.);
#313=ADVANCED_FACE('',(#43,#18),#27,.T.);
#314=ADVANCED_FACE('',(#44),#28,.T.);
#315=ADVANCED_FACE('',(#45),#29,.T.);
#316=ADVANCED_FACE('',(#46),#30,.F.);
#317=CLOSED_SHELL('',(#301,#302,#303,#304,#305,#306,#307,#308,#309,#310,
#311,#312,#313,#314,#315,#316));
#318=DERIVED_UNIT_ELEMENT(#321,1.);
#319=DERIVED_UNIT_ELEMENT(#540,-3.);
#320=DIMENSIONAL_EXPONENTS(0.,1.,0.,0.,0.,0.,0.);
#321=(
CONVERSION_BASED_UNIT('gram',#323)
MASS_UNIT()
NAMED_UNIT(#320)
);
#322=(
MASS_UNIT()
NAMED_UNIT(*)
SI_UNIT(.KILO.,.GRAM.)
);
#323=MASS_MEASURE_WITH_UNIT(MASS_MEASURE(0.001),#322);
#324=DERIVED_UNIT((#318,#319));
#325=MEASURE_REPRESENTATION_ITEM('density measure',
POSITIVE_RATIO_MEASURE(1.),#324);
#326=PROPERTY_DEFINITION_REPRESENTATION(#331,#328);
#327=PROPERTY_DEFINITION_REPRESENTATION(#332,#329);
#328=REPRESENTATION('material name',(#330),#537);
#329=REPRESENTATION('density',(#325),#537);
#330=DESCRIPTIVE_REPRESENTATION_ITEM('Generic','Generic');
#331=PROPERTY_DEFINITION('material property','material name',#547);
#332=PROPERTY_DEFINITION('material property','density of part',#547);
#333=DATE_TIME_ROLE('creation_date');
#334=APPLIED_DATE_AND_TIME_ASSIGNMENT(#335,#333,(#547));
#335=DATE_AND_TIME(#336,#337);
#336=CALENDAR_DATE(2010,13,7);
#337=LOCAL_TIME(15,16,24.,#338);
#338=COORDINATED_UNIVERSAL_TIME_OFFSET(0,0,.BEHIND.);
#339=AXIS2_PLACEMENT_3D('',#448,#364,#365);
#340=AXIS2_PLACEMENT_3D('',#449,#366,#367);
#341=AXIS2_PLACEMENT_3D('',#452,#368,#369);
#342=AXIS2_PLACEMENT_3D('',#456,#371,#372);
#343=AXIS2_PLACEMENT_3D('',#458,#374,#375);
#344=AXIS2_PLACEMENT_3D('',#464,#379,#380);
#345=AXIS2_PLACEMENT_3D('',#466,#381,#382);
#346=AXIS2_PLACEMENT_3D('',#468,#383,#384);
#347=AXIS2_PLACEMENT_3D('',#470,#386,#387);
#348=AXIS2_PLACEMENT_3D('',#473,#390,#391);
#349=AXIS2_PLACEMENT_3D('',#476,#392,#393);
#350=AXIS2_PLACEMENT_3D('',#480,#395,#396);
#351=AXIS2_PLACEMENT_3D('',#482,#398,#399);
#352=AXIS2_PLACEMENT_3D('',#488,#403,#404);
#353=AXIS2_PLACEMENT_3D('',#490,#405,#406);
#354=AXIS2_PLACEMENT_3D('',#492,#407,#408);
#355=AXIS2_PLACEMENT_3D('',#494,#410,#411);
#356=AXIS2_PLACEMENT_3D('',#497,#414,#415);
#357=AXIS2_PLACEMENT_3D('',#506,#420,#421);
#358=AXIS2_PLACEMENT_3D('',#512,#425,#426);
#359=AXIS2_PLACEMENT_3D('',#518,#430,#431);
#360=AXIS2_PLACEMENT_3D('',#524,#435,#436);
#361=AXIS2_PLACEMENT_3D('',#530,#440,#441);
#362=AXIS2_PLACEMENT_3D('',#533,#444,#445);
#363=AXIS2_PLACEMENT_3D('',#534,#446,#447);
#364=DIRECTION('axis',(0.,0.,1.));
#365=DIRECTION('refdir',(1.,0.,0.));
#366=DIRECTION('center_axis',(0.,-1.,0.));
#367=DIRECTION('ref_axis',(-1.,0.,0.));
#368=DIRECTION('center_axis',(0.,1.,0.));
#369=DIRECTION('ref_axis',(-1.,0.,0.));
#370=DIRECTION('',(0.,-1.,0.));
#371=DIRECTION('center_axis',(0.,-1.,0.));
#372=DIRECTION('ref_axis',(-1.,0.,0.));
#373=DIRECTION('',(0.,-1.,0.));
#374=DIRECTION('center_axis',(-1.,0.,0.));
#375=DIRECTION('ref_axis',(0.,0.,1.));
#376=DIRECTION('',(0.,0.,1.));
#377=DIRECTION('',(0.,0.,-1.));
#378=DIRECTION('',(0.,-1.,0.));
#379=DIRECTION('center_axis',(0.,-1.,0.));
#380=DIRECTION('ref_axis',(1.,0.,0.));
#381=DIRECTION('center_axis',(0.,1.,0.));
#382=DIRECTION('ref_axis',(1.,0.,0.));
#383=DIRECTION('center_axis',(0.,-1.,0.));
#384=DIRECTION('ref_axis',(1.,0.,0.));
#385=DIRECTION('',(0.,-1.,0.));
#386=DIRECTION('center_axis',(1.,0.,0.));
#387=DIRECTION('ref_axis',(0.,0.,-1.));
#388=DIRECTION('',(0.,0.,-1.));
#389=DIRECTION('',(0.,0.,1.));
#390=DIRECTION('center_axis',(0.,0.,-1.));
#391=DIRECTION('ref_axis',(-1.,0.,0.));
#392=DIRECTION('center_axis',(0.,0.,1.));
#393=DIRECTION('ref_axis',(-1.,0.,0.));
#394=DIRECTION('',(0.,0.,-1.));
#395=DIRECTION('center_axis',(0.,0.,-1.));
#396=DIRECTION('ref_axis',(-1.,0.,0.));
#397=DIRECTION('',(0.,0.,-1.));
#398=DIRECTION('center_axis',(1.,0.,0.));
#399=DIRECTION('ref_axis',(0.,0.,-1.));
#400=DIRECTION('',(0.,1.,0.));
#401=DIRECTION('',(0.,-1.,0.));
#402=DIRECTION('',(0.,0.,-1.));
#403=DIRECTION('center_axis',(0.,0.,-1.));
#404=DIRECTION('ref_axis',(1.,0.,0.));
#405=DIRECTION('center_axis',(0.,0.,1.));
#406=DIRECTION('ref_axis',(1.,0.,0.));
#407=DIRECTION('center_axis',(0.,0.,-1.));
#408=DIRECTION('ref_axis',(1.,0.,0.));
#409=DIRECTION('',(0.,0.,-1.));
#410=DIRECTION('center_axis',(-1.,0.,0.));
#411=DIRECTION('ref_axis',(0.,0.,1.));
#412=DIRECTION('',(0.,-1.,0.));
#413=DIRECTION('',(0.,1.,0.));
#414=DIRECTION('center_axis',(0.,1.,0.));
#415=DIRECTION('ref_axis',(0.,0.,1.));
#416=DIRECTION('',(0.,0.,-1.));
#417=DIRECTION('',(1.,0.,0.));
#418=DIRECTION('',(0.,0.,-1.));
#419=DIRECTION('',(1.,0.,0.));
#420=DIRECTION('center_axis',(0.,0.,1.));
#421=DIRECTION('ref_axis',(1.,0.,0.));
#422=DIRECTION('',(0.,1.,0.));
#423=DIRECTION('',(1.,0.,0.));
#424=DIRECTION('',(0.,1.,0.));
#425=DIRECTION('center_axis',(0.,1.,0.));
#426=DIRECTION('ref_axis',(0.,0.,1.));
#427=DIRECTION('',(0.,0.,-1.));
#428=DIRECTION('',(1.,0.,0.));
#429=DIRECTION('',(0.,0.,-1.));
#430=DIRECTION('center_axis',(0.,0.,-1.));
#431=DIRECTION('ref_axis',(-1.,0.,0.));
#432=DIRECTION('',(0.,-1.,0.));
#433=DIRECTION('',(1.,0.,0.));
#434=DIRECTION('',(0.,-1.,0.));
#435=DIRECTION('center_axis',(0.,-1.,0.));
#436=DIRECTION('ref_axis',(0.,0.,-1.));
#437=DIRECTION('',(0.,0.,1.));
#438=DIRECTION('',(1.,0.,0.));
#439=DIRECTION('',(0.,0.,1.));
#440=DIRECTION('center_axis',(0.,0.,1.));
#441=DIRECTION('ref_axis',(1.,0.,0.));
#442=DIRECTION('',(0.,1.,0.));
#443=DIRECTION('',(0.,1.,0.));
#444=DIRECTION('center_axis',(1.,0.,0.));
#445=DIRECTION('ref_axis',(0.,0.,-1.));
#446=DIRECTION('center_axis',(1.,0.,0.));
#447=DIRECTION('ref_axis',(0.,0.,-1.));
#448=CARTESIAN_POINT('',(0.,0.,0.));
#449=CARTESIAN_POINT('Origin',(15.,-12.,-2.5));
#450=CARTESIAN_POINT('',(19.5,-15.,-2.5));
#451=CARTESIAN_POINT('',(10.5,-15.,-2.5));
#452=CARTESIAN_POINT('Origin',(15.,-15.,-2.5));
#453=CARTESIAN_POINT('',(19.5,-12.,-2.5));
#454=CARTESIAN_POINT('',(19.5,-12.,-2.5));
#455=CARTESIAN_POINT('',(10.5,-12.,-2.5));
#456=CARTESIAN_POINT('Origin',(15.,-12.,-2.5));
#457=CARTESIAN_POINT('',(10.5,-12.,-2.5));
#458=CARTESIAN_POINT('Origin',(10.5,-12.,-2.5));
#459=CARTESIAN_POINT('',(10.5,-15.,6.5));
#460=CARTESIAN_POINT('',(10.5,-15.,-2.5));
#461=CARTESIAN_POINT('',(10.5,-12.,6.5));
#462=CARTESIAN_POINT('',(10.5,-12.,6.5));
#463=CARTESIAN_POINT('',(10.5,-12.,6.5));
#464=CARTESIAN_POINT('Origin',(15.,-12.,6.5));
#465=CARTESIAN_POINT('',(19.5,-15.,6.5));
#466=CARTESIAN_POINT('Origin',(15.,-15.,6.5));
#467=CARTESIAN_POINT('',(19.5,-12.,6.5));
#468=CARTESIAN_POINT('Origin',(15.,-12.,6.5));
#469=CARTESIAN_POINT('',(19.5,-12.,6.5));
#470=CARTESIAN_POINT('Origin',(19.5,-12.,6.5));
#471=CARTESIAN_POINT('',(19.5,-15.,6.5));
#472=CARTESIAN_POINT('',(19.5,-12.,-2.5));
#473=CARTESIAN_POINT('Origin',(15.,-2.5,-12.));
#474=CARTESIAN_POINT('',(10.5,-2.5,-15.));
#475=CARTESIAN_POINT('',(19.5,-2.5,-15.));
#476=CARTESIAN_POINT('Origin',(15.,-2.5,-15.));
#477=CARTESIAN_POINT('',(10.5,-2.5,-12.));
#478=CARTESIAN_POINT('',(10.5,-2.5,-12.));
#479=CARTESIAN_POINT('',(19.5,-2.5,-12.));
#480=CARTESIAN_POINT('Origin',(15.,-2.5,-12.));
#481=CARTESIAN_POINT('',(19.5,-2.5,-12.));
#482=CARTESIAN_POINT('Origin',(19.5,-2.5,-12.));
#483=CARTESIAN_POINT('',(19.5,6.49999999999999,-15.));
#484=CARTESIAN_POINT('',(19.5,-2.5,-15.));
#485=CARTESIAN_POINT('',(19.5,6.49999999999999,-12.));
#486=CARTESIAN_POINT('',(19.5,6.49999999999999,-12.));
#487=CARTESIAN_POINT('',(19.5,6.49999999999999,-12.));
#488=CARTESIAN_POINT('Origin',(15.,6.5,-12.));
#489=CARTESIAN_POINT('',(10.5,6.5,-15.));
#490=CARTESIAN_POINT('Origin',(15.,6.5,-15.));
#491=CARTESIAN_POINT('',(10.5,6.5,-12.));
#492=CARTESIAN_POINT('Origin',(15.,6.5,-12.));
#493=CARTESIAN_POINT('',(10.5,6.5,-12.));
#494=CARTESIAN_POINT('Origin',(10.5,6.5,-12.));
#495=CARTESIAN_POINT('',(10.5,6.5,-15.));
#496=CARTESIAN_POINT('',(10.5,-2.5,-12.));
#497=CARTESIAN_POINT('Origin',(0.,-12.,15.));
#498=CARTESIAN_POINT('',(30.,-12.,15.));
#499=CARTESIAN_POINT('',(30.,-12.,-12.));
#500=CARTESIAN_POINT('',(30.,-12.,15.));
#501=CARTESIAN_POINT('',(0.,-12.,-12.));
#502=CARTESIAN_POINT('',(0.,-12.,-12.));
#503=CARTESIAN_POINT('',(0.,-12.,15.));
#504=CARTESIAN_POINT('',(0.,-12.,15.));
#505=CARTESIAN_POINT('',(0.,-12.,15.));
#506=CARTESIAN_POINT('Origin',(0.,-12.,-12.));
#507=CARTESIAN_POINT('',(30.,15.,-12.));
#508=CARTESIAN_POINT('',(30.,-12.,-12.));
#509=CARTESIAN_POINT('',(0.,15.,-12.));
#510=CARTESIAN_POINT('',(0.,15.,-12.));
#511=CARTESIAN_POINT('',(0.,-12.,-12.));
#512=CARTESIAN_POINT('Origin',(0.,15.,-12.));
#513=CARTESIAN_POINT('',(30.,15.,-15.));
#514=CARTESIAN_POINT('',(30.,15.,-12.));
#515=CARTESIAN_POINT('',(0.,15.,-15.));
#516=CARTESIAN_POINT('',(0.,15.,-15.));
#517=CARTESIAN_POINT('',(0.,15.,-12.));
#518=CARTESIAN_POINT('Origin',(0.,15.,-15.));
#519=CARTESIAN_POINT('',(30.,-15.,-15.));
#520=CARTESIAN_POINT('',(30.,15.,-15.));
#521=CARTESIAN_POINT('',(0.,-15.,-15.));
#522=CARTESIAN_POINT('',(0.,-15.,-15.));
#523=CARTESIAN_POINT('',(0.,15.,-15.));
#524=CARTESIAN_POINT('Origin',(0.,-15.,-15.));
#525=CARTESIAN_POINT('',(30.,-15.,15.));
#526=CARTESIAN_POINT('',(30.,-15.,-15.));
#527=CARTESIAN_POINT('',(0.,-15.,15.));
#528=CARTESIAN_POINT('',(0.,-15.,15.));
#529=CARTESIAN_POINT('',(0.,-15.,-15.));
#530=CARTESIAN_POINT('Origin',(0.,-15.,15.));
#531=CARTESIAN_POINT('',(30.,-15.,15.));
#532=CARTESIAN_POINT('',(0.,-15.,15.));
#533=CARTESIAN_POINT('Origin',(30.,-6.075,-6.075));
#534=CARTESIAN_POINT('Origin',(0.,-6.075,-6.075));
#535=UNCERTAINTY_MEASURE_WITH_UNIT(LENGTH_MEASURE(0.01),#539,
'DISTANCE_ACCURACY_VALUE',
'Maximum model space distance between geometric entities at asserted c
onnectivities');
#536=UNCERTAINTY_MEASURE_WITH_UNIT(LENGTH_MEASURE(0.01),#539,
'DISTANCE_ACCURACY_VALUE',
'Maximum model space distance between geometric entities at asserted c
onnectivities');
#537=(
GEOMETRIC_REPRESENTATION_CONTEXT(3)
GLOBAL_UNCERTAINTY_ASSIGNED_CONTEXT((#535))
GLOBAL_UNIT_ASSIGNED_CONTEXT((#539,#541,#542))
REPRESENTATION_CONTEXT('','3D')
);
#538=(
GEOMETRIC_REPRESENTATION_CONTEXT(3)
GLOBAL_UNCERTAINTY_ASSIGNED_CONTEXT((#536))
GLOBAL_UNIT_ASSIGNED_CONTEXT((#539,#541,#542))
REPRESENTATION_CONTEXT('','3D')
);
#539=(
LENGTH_UNIT()
NAMED_UNIT(*)
SI_UNIT(.MILLI.,.METRE.)
);
#540=(
LENGTH_UNIT()
NAMED_UNIT(*)
SI_UNIT(.CENTI.,.METRE.)
);
#541=(
NAMED_UNIT(*)
PLANE_ANGLE_UNIT()
SI_UNIT($,.RADIAN.)
);
#542=(
NAMED_UNIT(*)
SI_UNIT($,.STERADIAN.)
SOLID_ANGLE_UNIT()
);
#543=SHAPE_DEFINITION_REPRESENTATION(#544,#545);
#544=PRODUCT_DEFINITION_SHAPE('',$,#547);
#545=SHAPE_REPRESENTATION('',(#339),#537);
#546=PRODUCT_DEFINITION_CONTEXT('part definition',#551,'design');
#547=PRODUCT_DEFINITION('1007779','1007779',#548,#546);
#548=PRODUCT_DEFINITION_FORMATION('',$,#553);
#549=PRODUCT_RELATED_PRODUCT_CATEGORY('1007779','1007779',(#553));
#550=APPLICATION_PROTOCOL_DEFINITION('international standard',
'automotive_design',2009,#551);
#551=APPLICATION_CONTEXT(
'Core Data for Automotive Mechanical Design Process');
#552=PRODUCT_CONTEXT('part definition',#551,'mechanical');
#553=PRODUCT('1007779','1007779',$,(#552));
#554=PRESENTATION_STYLE_ASSIGNMENT((#556));
#555=PRESENTATION_STYLE_ASSIGNMENT((#557));
#556=SURFACE_STYLE_USAGE(.BOTH.,#562);
#557=SURFACE_STYLE_USAGE(.BOTH.,#563);
#558=SURFACE_STYLE_RENDERING_WITH_PROPERTIES($,#570,(#560));
#559=SURFACE_STYLE_RENDERING_WITH_PROPERTIES($,#571,(#561));
#560=SURFACE_STYLE_TRANSPARENT(0.);
#561=SURFACE_STYLE_TRANSPARENT(0.);
#562=SURFACE_SIDE_STYLE('',(#564,#558));
#563=SURFACE_SIDE_STYLE('',(#565,#559));
#564=SURFACE_STYLE_FILL_AREA(#566);
#565=SURFACE_STYLE_FILL_AREA(#567);
#566=FILL_AREA_STYLE('',(#568));
#567=FILL_AREA_STYLE('',(#569));
#568=FILL_AREA_STYLE_COLOUR('',#570);
#569=FILL_AREA_STYLE_COLOUR('',#571);
#570=COLOUR_RGB('',0.749019607843137,0.749019607843137,0.749019607843137);
#571=COLOUR_RGB('',0.752941176470588,0.752941176470588,0.752941176470588);
ENDSEC;
END-ISO-10303-21;
