ISO-10303-21;
HEADER;
/* Generated by software containing ST-Developer
 * from STEP Tools, Inc. (www.steptools.com) 
 */

FILE_DESCRIPTION(
/* description */ (''),
/* implementation_level */ '2;1');

FILE_NAME(
/* name */ 
'C:\\Users\\b.steehouwer\\Desktop\\Producten\\ISB profielsysteem\\CAD-
files\\Profielverbinders\\Universele verbinders\\1007780.stp',
/* time_stamp */ '2024-04-30T16:36:50+02:00',
/* author */ ('b.steehouwer'),
/* organization */ (''),
/* preprocessor_version */ 'ST-DEVELOPER v18.1',
/* originating_system */ 'Autodesk Inventor 2021',
/* authorisation */ '');

FILE_SCHEMA (('AUTOMOTIVE_DESIGN { 1 0 10303 214 3 1 1 }'));
ENDSEC;

DATA;
#10=MECHANICAL_DESIGN_GEOMETRIC_PRESENTATION_REPRESENTATION('',(#17),#573);
#11=ITEM_DEFINED_TRANSFORMATION($,$,#365,#390);
#12=(
REPRESENTATION_RELATIONSHIP($,$,#584,#583)
REPRESENTATION_RELATIONSHIP_WITH_TRANSFORMATION(#11)
SHAPE_REPRESENTATION_RELATIONSHIP()
);
#13=CONTEXT_DEPENDENT_SHAPE_REPRESENTATION(#12,#582);
#14=NEXT_ASSEMBLY_USAGE_OCCURRENCE('1007780','1007780','1007780',#586,#587,
'1007780');
#15=SHAPE_REPRESENTATION_RELATIONSHIP('SRR','None',#584,#16);
#16=ADVANCED_BREP_SHAPE_REPRESENTATION('',(#18),#572);
#17=STYLED_ITEM('',(#335),#18);
#18=MANIFOLD_SOLID_BREP('Solid1',#321);
#19=FACE_BOUND('',#62,.T.);
#20=FACE_BOUND('',#64,.T.);
#21=FACE_BOUND('',#67,.T.);
#22=FACE_BOUND('',#69,.T.);
#23=PLANE('',#369);
#24=PLANE('',#373);
#25=PLANE('',#377);
#26=PLANE('',#381);
#27=PLANE('',#382);
#28=PLANE('',#383);
#29=PLANE('',#384);
#30=PLANE('',#385);
#31=PLANE('',#386);
#32=PLANE('',#387);
#33=PLANE('',#388);
#34=PLANE('',#389);
#35=FACE_OUTER_BOUND('',#51,.T.);
#36=FACE_OUTER_BOUND('',#52,.T.);
#37=FACE_OUTER_BOUND('',#53,.T.);
#38=FACE_OUTER_BOUND('',#54,.T.);
#39=FACE_OUTER_BOUND('',#55,.T.);
#40=FACE_OUTER_BOUND('',#56,.T.);
#41=FACE_OUTER_BOUND('',#57,.T.);
#42=FACE_OUTER_BOUND('',#58,.T.);
#43=FACE_OUTER_BOUND('',#59,.T.);
#44=FACE_OUTER_BOUND('',#60,.T.);
#45=FACE_OUTER_BOUND('',#61,.T.);
#46=FACE_OUTER_BOUND('',#63,.T.);
#47=FACE_OUTER_BOUND('',#65,.T.);
#48=FACE_OUTER_BOUND('',#66,.T.);
#49=FACE_OUTER_BOUND('',#68,.T.);
#50=FACE_OUTER_BOUND('',#70,.T.);
#51=EDGE_LOOP('',(#217,#218,#219,#220));
#52=EDGE_LOOP('',(#221,#222,#223,#224));
#53=EDGE_LOOP('',(#225,#226,#227,#228));
#54=EDGE_LOOP('',(#229,#230,#231,#232));
#55=EDGE_LOOP('',(#233,#234,#235,#236));
#56=EDGE_LOOP('',(#237,#238,#239,#240));
#57=EDGE_LOOP('',(#241,#242,#243,#244));
#58=EDGE_LOOP('',(#245,#246,#247,#248));
#59=EDGE_LOOP('',(#249,#250,#251,#252,#253,#254));
#60=EDGE_LOOP('',(#255,#256,#257,#258));
#61=EDGE_LOOP('',(#259,#260,#261,#262));
#62=EDGE_LOOP('',(#263,#264,#265,#266));
#63=EDGE_LOOP('',(#267,#268,#269,#270));
#64=EDGE_LOOP('',(#271,#272,#273,#274));
#65=EDGE_LOOP('',(#275,#276,#277,#278));
#66=EDGE_LOOP('',(#279,#280,#281,#282));
#67=EDGE_LOOP('',(#283,#284,#285,#286));
#68=EDGE_LOOP('',(#287,#288,#289,#290));
#69=EDGE_LOOP('',(#291,#292,#293,#294));
#70=EDGE_LOOP('',(#295,#296,#297,#298,#299,#300));
#71=LINE('',#486,#105);
#72=LINE('',#489,#106);
#73=LINE('',#492,#107);
#74=LINE('',#494,#108);
#75=LINE('',#495,#109);
#76=LINE('',#501,#110);
#77=LINE('',#503,#111);
#78=LINE('',#504,#112);
#79=LINE('',#510,#113);
#80=LINE('',#513,#114);
#81=LINE('',#516,#115);
#82=LINE('',#518,#116);
#83=LINE('',#519,#117);
#84=LINE('',#525,#118);
#85=LINE('',#527,#119);
#86=LINE('',#528,#120);
#87=LINE('',#532,#121);
#88=LINE('',#534,#122);
#89=LINE('',#536,#123);
#90=LINE('',#538,#124);
#91=LINE('',#540,#125);
#92=LINE('',#541,#126);
#93=LINE('',#545,#127);
#94=LINE('',#546,#128);
#95=LINE('',#547,#129);
#96=LINE('',#550,#130);
#97=LINE('',#551,#131);
#98=LINE('',#554,#132);
#99=LINE('',#555,#133);
#100=LINE('',#558,#134);
#101=LINE('',#559,#135);
#102=LINE('',#562,#136);
#103=LINE('',#563,#137);
#104=LINE('',#565,#138);
#105=VECTOR('',#399,10.);
#106=VECTOR('',#402,10.);
#107=VECTOR('',#405,10.);
#108=VECTOR('',#406,10.);
#109=VECTOR('',#407,10.);
#110=VECTOR('',#414,10.);
#111=VECTOR('',#417,10.);
#112=VECTOR('',#418,10.);
#113=VECTOR('',#423,10.);
#114=VECTOR('',#426,10.);
#115=VECTOR('',#429,10.);
#116=VECTOR('',#430,10.);
#117=VECTOR('',#431,10.);
#118=VECTOR('',#438,10.);
#119=VECTOR('',#441,10.);
#120=VECTOR('',#442,10.);
#121=VECTOR('',#445,10.);
#122=VECTOR('',#446,10.);
#123=VECTOR('',#447,10.);
#124=VECTOR('',#448,10.);
#125=VECTOR('',#449,10.);
#126=VECTOR('',#450,10.);
#127=VECTOR('',#453,10.);
#128=VECTOR('',#454,10.);
#129=VECTOR('',#455,10.);
#130=VECTOR('',#458,10.);
#131=VECTOR('',#459,10.);
#132=VECTOR('',#462,10.);
#133=VECTOR('',#463,10.);
#134=VECTOR('',#466,10.);
#135=VECTOR('',#467,10.);
#136=VECTOR('',#470,10.);
#137=VECTOR('',#471,10.);
#138=VECTOR('',#474,10.);
#139=CIRCLE('',#367,4.5);
#140=CIRCLE('',#368,4.5);
#141=CIRCLE('',#371,4.5);
#142=CIRCLE('',#372,4.5);
#143=CIRCLE('',#375,4.5);
#144=CIRCLE('',#376,4.5);
#145=CIRCLE('',#379,4.5);
#146=CIRCLE('',#380,4.5);
#147=VERTEX_POINT('',#482);
#148=VERTEX_POINT('',#483);
#149=VERTEX_POINT('',#485);
#150=VERTEX_POINT('',#487);
#151=VERTEX_POINT('',#491);
#152=VERTEX_POINT('',#493);
#153=VERTEX_POINT('',#497);
#154=VERTEX_POINT('',#499);
#155=VERTEX_POINT('',#506);
#156=VERTEX_POINT('',#507);
#157=VERTEX_POINT('',#509);
#158=VERTEX_POINT('',#511);
#159=VERTEX_POINT('',#515);
#160=VERTEX_POINT('',#517);
#161=VERTEX_POINT('',#521);
#162=VERTEX_POINT('',#523);
#163=VERTEX_POINT('',#530);
#164=VERTEX_POINT('',#531);
#165=VERTEX_POINT('',#533);
#166=VERTEX_POINT('',#535);
#167=VERTEX_POINT('',#537);
#168=VERTEX_POINT('',#539);
#169=VERTEX_POINT('',#543);
#170=VERTEX_POINT('',#544);
#171=VERTEX_POINT('',#549);
#172=VERTEX_POINT('',#553);
#173=VERTEX_POINT('',#557);
#174=VERTEX_POINT('',#561);
#175=EDGE_CURVE('',#147,#148,#139,.T.);
#176=EDGE_CURVE('',#149,#147,#71,.T.);
#177=EDGE_CURVE('',#150,#149,#140,.T.);
#178=EDGE_CURVE('',#150,#148,#72,.T.);
#179=EDGE_CURVE('',#148,#151,#73,.T.);
#180=EDGE_CURVE('',#152,#150,#74,.T.);
#181=EDGE_CURVE('',#152,#151,#75,.T.);
#182=EDGE_CURVE('',#151,#153,#141,.T.);
#183=EDGE_CURVE('',#154,#152,#142,.T.);
#184=EDGE_CURVE('',#154,#153,#76,.T.);
#185=EDGE_CURVE('',#153,#147,#77,.T.);
#186=EDGE_CURVE('',#149,#154,#78,.T.);
#187=EDGE_CURVE('',#155,#156,#143,.T.);
#188=EDGE_CURVE('',#157,#155,#79,.T.);
#189=EDGE_CURVE('',#158,#157,#144,.T.);
#190=EDGE_CURVE('',#158,#156,#80,.T.);
#191=EDGE_CURVE('',#156,#159,#81,.T.);
#192=EDGE_CURVE('',#160,#158,#82,.T.);
#193=EDGE_CURVE('',#160,#159,#83,.T.);
#194=EDGE_CURVE('',#159,#161,#145,.T.);
#195=EDGE_CURVE('',#162,#160,#146,.T.);
#196=EDGE_CURVE('',#162,#161,#84,.T.);
#197=EDGE_CURVE('',#161,#155,#85,.T.);
#198=EDGE_CURVE('',#157,#162,#86,.T.);
#199=EDGE_CURVE('',#163,#164,#87,.T.);
#200=EDGE_CURVE('',#165,#163,#88,.T.);
#201=EDGE_CURVE('',#166,#165,#89,.T.);
#202=EDGE_CURVE('',#167,#166,#90,.T.);
#203=EDGE_CURVE('',#168,#167,#91,.T.);
#204=EDGE_CURVE('',#164,#168,#92,.T.);
#205=EDGE_CURVE('',#169,#170,#93,.T.);
#206=EDGE_CURVE('',#166,#170,#94,.T.);
#207=EDGE_CURVE('',#169,#165,#95,.T.);
#208=EDGE_CURVE('',#170,#171,#96,.T.);
#209=EDGE_CURVE('',#167,#171,#97,.T.);
#210=EDGE_CURVE('',#171,#172,#98,.T.);
#211=EDGE_CURVE('',#168,#172,#99,.T.);
#212=EDGE_CURVE('',#172,#173,#100,.T.);
#213=EDGE_CURVE('',#164,#173,#101,.T.);
#214=EDGE_CURVE('',#173,#174,#102,.T.);
#215=EDGE_CURVE('',#163,#174,#103,.T.);
#216=EDGE_CURVE('',#174,#169,#104,.T.);
#217=ORIENTED_EDGE('',*,*,#175,.F.);
#218=ORIENTED_EDGE('',*,*,#176,.F.);
#219=ORIENTED_EDGE('',*,*,#177,.F.);
#220=ORIENTED_EDGE('',*,*,#178,.T.);
#221=ORIENTED_EDGE('',*,*,#179,.F.);
#222=ORIENTED_EDGE('',*,*,#178,.F.);
#223=ORIENTED_EDGE('',*,*,#180,.F.);
#224=ORIENTED_EDGE('',*,*,#181,.T.);
#225=ORIENTED_EDGE('',*,*,#182,.F.);
#226=ORIENTED_EDGE('',*,*,#181,.F.);
#227=ORIENTED_EDGE('',*,*,#183,.F.);
#228=ORIENTED_EDGE('',*,*,#184,.T.);
#229=ORIENTED_EDGE('',*,*,#185,.F.);
#230=ORIENTED_EDGE('',*,*,#184,.F.);
#231=ORIENTED_EDGE('',*,*,#186,.F.);
#232=ORIENTED_EDGE('',*,*,#176,.T.);
#233=ORIENTED_EDGE('',*,*,#187,.F.);
#234=ORIENTED_EDGE('',*,*,#188,.F.);
#235=ORIENTED_EDGE('',*,*,#189,.F.);
#236=ORIENTED_EDGE('',*,*,#190,.T.);
#237=ORIENTED_EDGE('',*,*,#191,.F.);
#238=ORIENTED_EDGE('',*,*,#190,.F.);
#239=ORIENTED_EDGE('',*,*,#192,.F.);
#240=ORIENTED_EDGE('',*,*,#193,.T.);
#241=ORIENTED_EDGE('',*,*,#194,.F.);
#242=ORIENTED_EDGE('',*,*,#193,.F.);
#243=ORIENTED_EDGE('',*,*,#195,.F.);
#244=ORIENTED_EDGE('',*,*,#196,.T.);
#245=ORIENTED_EDGE('',*,*,#197,.F.);
#246=ORIENTED_EDGE('',*,*,#196,.F.);
#247=ORIENTED_EDGE('',*,*,#198,.F.);
#248=ORIENTED_EDGE('',*,*,#188,.T.);
#249=ORIENTED_EDGE('',*,*,#199,.F.);
#250=ORIENTED_EDGE('',*,*,#200,.F.);
#251=ORIENTED_EDGE('',*,*,#201,.F.);
#252=ORIENTED_EDGE('',*,*,#202,.F.);
#253=ORIENTED_EDGE('',*,*,#203,.F.);
#254=ORIENTED_EDGE('',*,*,#204,.F.);
#255=ORIENTED_EDGE('',*,*,#205,.T.);
#256=ORIENTED_EDGE('',*,*,#206,.F.);
#257=ORIENTED_EDGE('',*,*,#201,.T.);
#258=ORIENTED_EDGE('',*,*,#207,.F.);
#259=ORIENTED_EDGE('',*,*,#208,.T.);
#260=ORIENTED_EDGE('',*,*,#209,.F.);
#261=ORIENTED_EDGE('',*,*,#202,.T.);
#262=ORIENTED_EDGE('',*,*,#206,.T.);
#263=ORIENTED_EDGE('',*,*,#182,.T.);
#264=ORIENTED_EDGE('',*,*,#185,.T.);
#265=ORIENTED_EDGE('',*,*,#175,.T.);
#266=ORIENTED_EDGE('',*,*,#179,.T.);
#267=ORIENTED_EDGE('',*,*,#210,.T.);
#268=ORIENTED_EDGE('',*,*,#211,.F.);
#269=ORIENTED_EDGE('',*,*,#203,.T.);
#270=ORIENTED_EDGE('',*,*,#209,.T.);
#271=ORIENTED_EDGE('',*,*,#194,.T.);
#272=ORIENTED_EDGE('',*,*,#197,.T.);
#273=ORIENTED_EDGE('',*,*,#187,.T.);
#274=ORIENTED_EDGE('',*,*,#191,.T.);
#275=ORIENTED_EDGE('',*,*,#212,.T.);
#276=ORIENTED_EDGE('',*,*,#213,.F.);
#277=ORIENTED_EDGE('',*,*,#204,.T.);
#278=ORIENTED_EDGE('',*,*,#211,.T.);
#279=ORIENTED_EDGE('',*,*,#214,.T.);
#280=ORIENTED_EDGE('',*,*,#215,.F.);
#281=ORIENTED_EDGE('',*,*,#199,.T.);
#282=ORIENTED_EDGE('',*,*,#213,.T.);
#283=ORIENTED_EDGE('',*,*,#195,.T.);
#284=ORIENTED_EDGE('',*,*,#192,.T.);
#285=ORIENTED_EDGE('',*,*,#189,.T.);
#286=ORIENTED_EDGE('',*,*,#198,.T.);
#287=ORIENTED_EDGE('',*,*,#216,.T.);
#288=ORIENTED_EDGE('',*,*,#207,.T.);
#289=ORIENTED_EDGE('',*,*,#200,.T.);
#290=ORIENTED_EDGE('',*,*,#215,.T.);
#291=ORIENTED_EDGE('',*,*,#183,.T.);
#292=ORIENTED_EDGE('',*,*,#180,.T.);
#293=ORIENTED_EDGE('',*,*,#177,.T.);
#294=ORIENTED_EDGE('',*,*,#186,.T.);
#295=ORIENTED_EDGE('',*,*,#205,.F.);
#296=ORIENTED_EDGE('',*,*,#216,.F.);
#297=ORIENTED_EDGE('',*,*,#214,.F.);
#298=ORIENTED_EDGE('',*,*,#212,.F.);
#299=ORIENTED_EDGE('',*,*,#210,.F.);
#300=ORIENTED_EDGE('',*,*,#208,.F.);
#301=CYLINDRICAL_SURFACE('',#366,4.5);
#302=CYLINDRICAL_SURFACE('',#370,4.5);
#303=CYLINDRICAL_SURFACE('',#374,4.5);
#304=CYLINDRICAL_SURFACE('',#378,4.5);
#305=ADVANCED_FACE('',(#35),#301,.F.);
#306=ADVANCED_FACE('',(#36),#23,.F.);
#307=ADVANCED_FACE('',(#37),#302,.F.);
#308=ADVANCED_FACE('',(#38),#24,.F.);
#309=ADVANCED_FACE('',(#39),#303,.F.);
#310=ADVANCED_FACE('',(#40),#25,.F.);
#311=ADVANCED_FACE('',(#41),#304,.F.);
#312=ADVANCED_FACE('',(#42),#26,.F.);
#313=ADVANCED_FACE('',(#43),#27,.F.);
#314=ADVANCED_FACE('',(#44),#28,.T.);
#315=ADVANCED_FACE('',(#45,#19),#29,.T.);
#316=ADVANCED_FACE('',(#46,#20),#30,.T.);
#317=ADVANCED_FACE('',(#47),#31,.T.);
#318=ADVANCED_FACE('',(#48,#21),#32,.T.);
#319=ADVANCED_FACE('',(#49,#22),#33,.T.);
#320=ADVANCED_FACE('',(#50),#34,.T.);
#321=CLOSED_SHELL('',(#305,#306,#307,#308,#309,#310,#311,#312,#313,#314,
#315,#316,#317,#318,#319,#320));
#322=DERIVED_UNIT_ELEMENT(#324,1.);
#323=DERIVED_UNIT_ELEMENT(#575,-3.);
#324=(
MASS_UNIT()
NAMED_UNIT(*)
SI_UNIT($,.GRAM.)
);
#325=DERIVED_UNIT((#322,#323));
#326=MEASURE_REPRESENTATION_ITEM('density measure',
POSITIVE_RATIO_MEASURE(7.85),#325);
#327=PROPERTY_DEFINITION_REPRESENTATION(#332,#329);
#328=PROPERTY_DEFINITION_REPRESENTATION(#333,#330);
#329=REPRESENTATION('material name',(#331),#572);
#330=REPRESENTATION('density',(#326),#572);
#331=DESCRIPTIVE_REPRESENTATION_ITEM('Steel','Steel');
#332=PROPERTY_DEFINITION('material property','material name',#587);
#333=PROPERTY_DEFINITION('material property','density of part',#587);
#334=PRESENTATION_STYLE_ASSIGNMENT((#336));
#335=PRESENTATION_STYLE_ASSIGNMENT((#337));
#336=SURFACE_STYLE_USAGE(.BOTH.,#342);
#337=SURFACE_STYLE_USAGE(.BOTH.,#343);
#338=SURFACE_STYLE_RENDERING_WITH_PROPERTIES($,#350,(#340));
#339=SURFACE_STYLE_RENDERING_WITH_PROPERTIES($,#351,(#341));
#340=SURFACE_STYLE_TRANSPARENT(0.);
#341=SURFACE_STYLE_TRANSPARENT(0.);
#342=SURFACE_SIDE_STYLE('',(#344,#338));
#343=SURFACE_SIDE_STYLE('',(#345,#339));
#344=SURFACE_STYLE_FILL_AREA(#346);
#345=SURFACE_STYLE_FILL_AREA(#347);
#346=FILL_AREA_STYLE('',(#348));
#347=FILL_AREA_STYLE('',(#349));
#348=FILL_AREA_STYLE_COLOUR('',#350);
#349=FILL_AREA_STYLE_COLOUR('',#351);
#350=COLOUR_RGB('',0.749019607843137,0.749019607843137,0.749019607843137);
#351=COLOUR_RGB('',0.745098039215686,0.737254901960784,0.729411764705882);
#352=DATE_TIME_ROLE('creation_date');
#353=DATE_TIME_ROLE('creation_date');
#354=APPLIED_DATE_AND_TIME_ASSIGNMENT(#356,#352,(#586));
#355=APPLIED_DATE_AND_TIME_ASSIGNMENT(#357,#353,(#587));
#356=DATE_AND_TIME(#358,#360);
#357=DATE_AND_TIME(#359,#361);
#358=CALENDAR_DATE(2024,30,4);
#359=CALENDAR_DATE(2023,20,3);
#360=LOCAL_TIME(16,36,25.,#362);
#361=LOCAL_TIME(0,0,0.,#363);
#362=COORDINATED_UNIVERSAL_TIME_OFFSET(0,0,.BEHIND.);
#363=COORDINATED_UNIVERSAL_TIME_OFFSET(0,0,.BEHIND.);
#364=AXIS2_PLACEMENT_3D('placement',#479,#391,#392);
#365=AXIS2_PLACEMENT_3D('placement',#480,#393,#394);
#366=AXIS2_PLACEMENT_3D('',#481,#395,#396);
#367=AXIS2_PLACEMENT_3D('',#484,#397,#398);
#368=AXIS2_PLACEMENT_3D('',#488,#400,#401);
#369=AXIS2_PLACEMENT_3D('',#490,#403,#404);
#370=AXIS2_PLACEMENT_3D('',#496,#408,#409);
#371=AXIS2_PLACEMENT_3D('',#498,#410,#411);
#372=AXIS2_PLACEMENT_3D('',#500,#412,#413);
#373=AXIS2_PLACEMENT_3D('',#502,#415,#416);
#374=AXIS2_PLACEMENT_3D('',#505,#419,#420);
#375=AXIS2_PLACEMENT_3D('',#508,#421,#422);
#376=AXIS2_PLACEMENT_3D('',#512,#424,#425);
#377=AXIS2_PLACEMENT_3D('',#514,#427,#428);
#378=AXIS2_PLACEMENT_3D('',#520,#432,#433);
#379=AXIS2_PLACEMENT_3D('',#522,#434,#435);
#380=AXIS2_PLACEMENT_3D('',#524,#436,#437);
#381=AXIS2_PLACEMENT_3D('',#526,#439,#440);
#382=AXIS2_PLACEMENT_3D('',#529,#443,#444);
#383=AXIS2_PLACEMENT_3D('',#542,#451,#452);
#384=AXIS2_PLACEMENT_3D('',#548,#456,#457);
#385=AXIS2_PLACEMENT_3D('',#552,#460,#461);
#386=AXIS2_PLACEMENT_3D('',#556,#464,#465);
#387=AXIS2_PLACEMENT_3D('',#560,#468,#469);
#388=AXIS2_PLACEMENT_3D('',#564,#472,#473);
#389=AXIS2_PLACEMENT_3D('',#566,#475,#476);
#390=AXIS2_PLACEMENT_3D('',#567,#477,#478);
#391=DIRECTION('axis',(0.,0.,1.));
#392=DIRECTION('refdir',(1.,0.,0.));
#393=DIRECTION('axis',(0.,0.,1.));
#394=DIRECTION('refdir',(1.,0.,0.));
#395=DIRECTION('center_axis',(0.,1.,0.));
#396=DIRECTION('ref_axis',(0.,0.,1.));
#397=DIRECTION('center_axis',(9.25185853854297E-17,-1.,0.));
#398=DIRECTION('ref_axis',(0.,0.,1.));
#399=DIRECTION('',(0.,1.,0.));
#400=DIRECTION('center_axis',(0.,1.,0.));
#401=DIRECTION('ref_axis',(0.,0.,1.));
#402=DIRECTION('',(0.,1.,0.));
#403=DIRECTION('center_axis',(0.,0.,1.));
#404=DIRECTION('ref_axis',(1.,0.,0.));
#405=DIRECTION('',(-1.,-9.25185853854297E-17,0.));
#406=DIRECTION('',(1.,0.,0.));
#407=DIRECTION('',(0.,1.,0.));
#408=DIRECTION('center_axis',(0.,1.,0.));
#409=DIRECTION('ref_axis',(0.,0.,-1.));
#410=DIRECTION('center_axis',(9.25185853854297E-17,-1.,0.));
#411=DIRECTION('ref_axis',(0.,0.,-1.));
#412=DIRECTION('center_axis',(0.,1.,0.));
#413=DIRECTION('ref_axis',(0.,0.,-1.));
#414=DIRECTION('',(0.,1.,0.));
#415=DIRECTION('center_axis',(0.,0.,-1.));
#416=DIRECTION('ref_axis',(-1.,0.,0.));
#417=DIRECTION('',(1.,9.25185853854297E-17,0.));
#418=DIRECTION('',(-1.,0.,0.));
#419=DIRECTION('center_axis',(-1.,0.,0.));
#420=DIRECTION('ref_axis',(0.,9.86864910777917E-16,1.));
#421=DIRECTION('center_axis',(1.,1.2335811384724E-16,0.));
#422=DIRECTION('ref_axis',(-1.21737794015589E-31,9.86864910777917E-16,1.));
#423=DIRECTION('',(-1.,0.,0.));
#424=DIRECTION('center_axis',(-1.,0.,0.));
#425=DIRECTION('ref_axis',(0.,9.86864910777917E-16,1.));
#426=DIRECTION('',(-1.,0.,0.));
#427=DIRECTION('center_axis',(0.,0.,1.));
#428=DIRECTION('ref_axis',(1.,0.,0.));
#429=DIRECTION('',(1.2335811384724E-16,-1.,0.));
#430=DIRECTION('',(0.,1.,0.));
#431=DIRECTION('',(-1.,0.,0.));
#432=DIRECTION('center_axis',(-1.,0.,0.));
#433=DIRECTION('ref_axis',(0.,0.,-1.));
#434=DIRECTION('center_axis',(1.,1.2335811384724E-16,0.));
#435=DIRECTION('ref_axis',(0.,0.,-1.));
#436=DIRECTION('center_axis',(-1.,0.,0.));
#437=DIRECTION('ref_axis',(0.,0.,-1.));
#438=DIRECTION('',(-1.,0.,0.));
#439=DIRECTION('center_axis',(0.,0.,-1.));
#440=DIRECTION('ref_axis',(-1.,0.,0.));
#441=DIRECTION('',(-1.2335811384724E-16,1.,0.));
#442=DIRECTION('',(0.,-1.,0.));
#443=DIRECTION('center_axis',(0.,0.,1.));
#444=DIRECTION('ref_axis',(1.,0.,0.));
#445=DIRECTION('',(0.,1.,0.));
#446=DIRECTION('',(1.,0.,0.));
#447=DIRECTION('',(0.,-1.,0.));
#448=DIRECTION('',(-1.,-9.25185853854297E-17,0.));
#449=DIRECTION('',(1.2335811384724E-16,-1.,0.));
#450=DIRECTION('',(-1.,0.,0.));
#451=DIRECTION('center_axis',(-1.,0.,0.));
#452=DIRECTION('ref_axis',(0.,0.,1.));
#453=DIRECTION('',(0.,1.,0.));
#454=DIRECTION('',(0.,0.,1.));
#455=DIRECTION('',(0.,0.,-1.));
#456=DIRECTION('center_axis',(-9.25185853854297E-17,1.,0.));
#457=DIRECTION('ref_axis',(0.,0.,1.));
#458=DIRECTION('',(1.,9.25185853854297E-17,0.));
#459=DIRECTION('',(0.,0.,1.));
#460=DIRECTION('center_axis',(-1.,-1.2335811384724E-16,0.));
#461=DIRECTION('ref_axis',(0.,0.,1.));
#462=DIRECTION('',(-1.2335811384724E-16,1.,0.));
#463=DIRECTION('',(0.,0.,1.));
#464=DIRECTION('center_axis',(0.,1.,0.));
#465=DIRECTION('ref_axis',(0.,0.,1.));
#466=DIRECTION('',(1.,0.,0.));
#467=DIRECTION('',(0.,0.,1.));
#468=DIRECTION('center_axis',(1.,0.,0.));
#469=DIRECTION('ref_axis',(0.,0.,-1.));
#470=DIRECTION('',(0.,-1.,0.));
#471=DIRECTION('',(0.,0.,1.));
#472=DIRECTION('center_axis',(0.,-1.,0.));
#473=DIRECTION('ref_axis',(0.,0.,-1.));
#474=DIRECTION('',(-1.,0.,0.));
#475=DIRECTION('center_axis',(0.,0.,1.));
#476=DIRECTION('ref_axis',(1.,0.,0.));
#477=DIRECTION('',(0.,0.,1.));
#478=DIRECTION('',(1.,0.,0.));
#479=CARTESIAN_POINT('',(0.,0.,0.));
#480=CARTESIAN_POINT('',(0.,0.,0.));
#481=CARTESIAN_POINT('Origin',(-18.5,0.,-2.22044604925031E-15));
#482=CARTESIAN_POINT('',(-18.5,4.,-4.5));
#483=CARTESIAN_POINT('',(-18.5,4.,4.5));
#484=CARTESIAN_POINT('Origin',(-18.5,4.,-2.22044604925031E-15));
#485=CARTESIAN_POINT('',(-18.5,0.,-4.5));
#486=CARTESIAN_POINT('',(-18.5,0.,-4.5));
#487=CARTESIAN_POINT('',(-18.5,0.,4.5));
#488=CARTESIAN_POINT('Origin',(-18.5,0.,-2.22044604925031E-15));
#489=CARTESIAN_POINT('',(-18.5,0.,4.5));
#490=CARTESIAN_POINT('Origin',(-18.5,0.,4.5));
#491=CARTESIAN_POINT('',(-27.5,4.,4.5));
#492=CARTESIAN_POINT('',(-29.25,4.,4.5));
#493=CARTESIAN_POINT('',(-27.5,0.,4.5));
#494=CARTESIAN_POINT('',(-9.25000000000001,0.,4.5));
#495=CARTESIAN_POINT('',(-27.5,0.,4.5));
#496=CARTESIAN_POINT('Origin',(-27.5,0.,0.));
#497=CARTESIAN_POINT('',(-27.5,4.,-4.5));
#498=CARTESIAN_POINT('Origin',(-27.5,4.,0.));
#499=CARTESIAN_POINT('',(-27.5,0.,-4.5));
#500=CARTESIAN_POINT('Origin',(-27.5,0.,0.));
#501=CARTESIAN_POINT('',(-27.5,0.,-4.5));
#502=CARTESIAN_POINT('Origin',(-27.5,0.,-4.5));
#503=CARTESIAN_POINT('',(-33.75,4.,-4.5));
#504=CARTESIAN_POINT('',(-13.75,0.,-4.5));
#505=CARTESIAN_POINT('Origin',(0.,27.5,0.));
#506=CARTESIAN_POINT('',(-4.,27.5,-4.5));
#507=CARTESIAN_POINT('',(-4.,27.5,4.5));
#508=CARTESIAN_POINT('Origin',(-4.,27.5,0.));
#509=CARTESIAN_POINT('',(0.,27.5,-4.5));
#510=CARTESIAN_POINT('',(0.,27.5,-4.5));
#511=CARTESIAN_POINT('',(0.,27.5,4.5));
#512=CARTESIAN_POINT('Origin',(0.,27.5,0.));
#513=CARTESIAN_POINT('',(0.,27.5,4.5));
#514=CARTESIAN_POINT('Origin',(0.,27.5,4.5));
#515=CARTESIAN_POINT('',(-4.,18.5,4.5));
#516=CARTESIAN_POINT('',(-4.,15.75,4.5));
#517=CARTESIAN_POINT('',(0.,18.5,4.5));
#518=CARTESIAN_POINT('',(0.,33.75,4.5));
#519=CARTESIAN_POINT('',(0.,18.5,4.5));
#520=CARTESIAN_POINT('Origin',(0.,18.5,0.));
#521=CARTESIAN_POINT('',(-4.,18.5,-4.5));
#522=CARTESIAN_POINT('Origin',(-4.,18.5,0.));
#523=CARTESIAN_POINT('',(0.,18.5,-4.5));
#524=CARTESIAN_POINT('Origin',(0.,18.5,0.));
#525=CARTESIAN_POINT('',(0.,18.5,-4.5));
#526=CARTESIAN_POINT('Origin',(0.,18.5,-4.5));
#527=CARTESIAN_POINT('',(-4.,11.25,-4.5));
#528=CARTESIAN_POINT('',(0.,29.25,-4.5));
#529=CARTESIAN_POINT('Origin',(-11.9,11.9,-20.));
#530=CARTESIAN_POINT('',(0.,0.,-20.));
#531=CARTESIAN_POINT('',(0.,40.,-20.));
#532=CARTESIAN_POINT('',(0.,0.,-20.));
#533=CARTESIAN_POINT('',(-40.,0.,-20.));
#534=CARTESIAN_POINT('',(-40.,0.,-20.));
#535=CARTESIAN_POINT('',(-40.,4.,-20.));
#536=CARTESIAN_POINT('',(-40.,4.,-20.));
#537=CARTESIAN_POINT('',(-4.,4.,-20.));
#538=CARTESIAN_POINT('',(-4.,4.,-20.));
#539=CARTESIAN_POINT('',(-4.,40.,-20.));
#540=CARTESIAN_POINT('',(-4.,40.,-20.));
#541=CARTESIAN_POINT('',(0.,40.,-20.));
#542=CARTESIAN_POINT('Origin',(-40.,0.,0.));
#543=CARTESIAN_POINT('',(-40.,0.,20.));
#544=CARTESIAN_POINT('',(-40.,4.,20.));
#545=CARTESIAN_POINT('',(-40.,4.,20.));
#546=CARTESIAN_POINT('',(-40.,4.,0.));
#547=CARTESIAN_POINT('',(-40.,0.,0.));
#548=CARTESIAN_POINT('Origin',(-40.,4.,0.));
#549=CARTESIAN_POINT('',(-4.,4.,20.));
#550=CARTESIAN_POINT('',(-4.,4.,20.));
#551=CARTESIAN_POINT('',(-4.,4.,0.));
#552=CARTESIAN_POINT('Origin',(-4.,4.,0.));
#553=CARTESIAN_POINT('',(-4.,40.,20.));
#554=CARTESIAN_POINT('',(-4.,40.,20.));
#555=CARTESIAN_POINT('',(-4.,40.,0.));
#556=CARTESIAN_POINT('Origin',(-4.,40.,0.));
#557=CARTESIAN_POINT('',(0.,40.,20.));
#558=CARTESIAN_POINT('',(0.,40.,20.));
#559=CARTESIAN_POINT('',(0.,40.,0.));
#560=CARTESIAN_POINT('Origin',(0.,40.,0.));
#561=CARTESIAN_POINT('',(0.,0.,20.));
#562=CARTESIAN_POINT('',(0.,0.,20.));
#563=CARTESIAN_POINT('',(0.,0.,0.));
#564=CARTESIAN_POINT('Origin',(0.,0.,0.));
#565=CARTESIAN_POINT('',(-40.,0.,20.));
#566=CARTESIAN_POINT('Origin',(-11.9,11.9,20.));
#567=CARTESIAN_POINT('',(0.,0.,0.));
#568=UNCERTAINTY_MEASURE_WITH_UNIT(LENGTH_MEASURE(0.01),#574,
'DISTANCE_ACCURACY_VALUE',
'Maximum model space distance between geometric entities at asserted c
onnectivities');
#569=UNCERTAINTY_MEASURE_WITH_UNIT(LENGTH_MEASURE(0.01),#574,
'DISTANCE_ACCURACY_VALUE',
'Maximum model space distance between geometric entities at asserted c
onnectivities');
#570=UNCERTAINTY_MEASURE_WITH_UNIT(LENGTH_MEASURE(0.01),#574,
'DISTANCE_ACCURACY_VALUE',
'Maximum model space distance between geometric entities at asserted c
onnectivities');
#571=(
GEOMETRIC_REPRESENTATION_CONTEXT(3)
GLOBAL_UNCERTAINTY_ASSIGNED_CONTEXT((#568))
GLOBAL_UNIT_ASSIGNED_CONTEXT((#574,#576,#577))
REPRESENTATION_CONTEXT('','3D')
);
#572=(
GEOMETRIC_REPRESENTATION_CONTEXT(3)
GLOBAL_UNCERTAINTY_ASSIGNED_CONTEXT((#569))
GLOBAL_UNIT_ASSIGNED_CONTEXT((#574,#576,#577))
REPRESENTATION_CONTEXT('','3D')
);
#573=(
GEOMETRIC_REPRESENTATION_CONTEXT(3)
GLOBAL_UNCERTAINTY_ASSIGNED_CONTEXT((#570))
GLOBAL_UNIT_ASSIGNED_CONTEXT((#574,#576,#577))
REPRESENTATION_CONTEXT('','3D')
);
#574=(
LENGTH_UNIT()
NAMED_UNIT(*)
SI_UNIT(.MILLI.,.METRE.)
);
#575=(
LENGTH_UNIT()
NAMED_UNIT(*)
SI_UNIT(.CENTI.,.METRE.)
);
#576=(
NAMED_UNIT(*)
PLANE_ANGLE_UNIT()
SI_UNIT($,.RADIAN.)
);
#577=(
NAMED_UNIT(*)
SI_UNIT($,.STERADIAN.)
SOLID_ANGLE_UNIT()
);
#578=SHAPE_DEFINITION_REPRESENTATION(#580,#583);
#579=SHAPE_DEFINITION_REPRESENTATION(#581,#584);
#580=PRODUCT_DEFINITION_SHAPE('',$,#586);
#581=PRODUCT_DEFINITION_SHAPE('',$,#587);
#582=PRODUCT_DEFINITION_SHAPE($,$,#14);
#583=SHAPE_REPRESENTATION('',(#364,#390),#571);
#584=SHAPE_REPRESENTATION('',(#365),#572);
#585=PRODUCT_DEFINITION_CONTEXT('part definition',#593,'design');
#586=PRODUCT_DEFINITION('1007780','1007780',#588,#585);
#587=PRODUCT_DEFINITION('1007780_1','1007780',#589,#585);
#588=PRODUCT_DEFINITION_FORMATION('',$,#595);
#589=PRODUCT_DEFINITION_FORMATION('',$,#596);
#590=PRODUCT_RELATED_PRODUCT_CATEGORY('1007780','1007780',(#595));
#591=PRODUCT_RELATED_PRODUCT_CATEGORY('1007780','1007780',(#596));
#592=APPLICATION_PROTOCOL_DEFINITION('international standard',
'automotive_design',2009,#593);
#593=APPLICATION_CONTEXT(
'Core Data for Automotive Mechanical Design Process');
#594=PRODUCT_CONTEXT('part definition',#593,'mechanical');
#595=PRODUCT('1007780','1007780',$,(#594));
#596=PRODUCT('1007780_1','1007780',$,(#594));
ENDSEC;
END-ISO-10303-21;
