ISO-10303-21;
HEADER;
/* Generated by software containing ST-Developer
 * from STEP Tools, Inc. (www.steptools.com) 
 */

FILE_DESCRIPTION(
/* description */ ('STEP AP203'),
/* implementation_level */ '2;1');

FILE_NAME(
/* name */ 
'C:\\Users\\b.steehouwer\\Desktop\\Producten\\ISB profielsysteem\\CAD-
files\\Profielverbinders\\Universele verbinders\\1007784.stp',
/* time_stamp */ '2024-05-17T09:14:56+02:00',
/* author */ ('b.steehouwer'),
/* organization */ (''),
/* preprocessor_version */ 'ST-DEVELOPER v18.1',
/* originating_system */ 'Autodesk Inventor 2021',
/* authorisation */ '');

FILE_SCHEMA (('AUTOMOTIVE_DESIGN { 1 0 10303 214 3 1 1 }'));
ENDSEC;

DATA;
#10=MECHANICAL_DESIGN_GEOMETRIC_PRESENTATION_REPRESENTATION('',(#13),#333);
#11=SHAPE_REPRESENTATION_RELATIONSHIP('SRR','None',#340,#12);
#12=ADVANCED_BREP_SHAPE_REPRESENTATION('',(#14),#332);
#13=STYLED_ITEM('',(#349),#14);
#14=MANIFOLD_SOLID_BREP('Solid1',#195);
#15=FACE_BOUND('',#43,.T.);
#16=FACE_BOUND('',#45,.T.);
#17=FACE_BOUND('',#48,.T.);
#18=FACE_BOUND('',#50,.T.);
#19=PLANE('',#221);
#20=PLANE('',#222);
#21=PLANE('',#223);
#22=PLANE('',#224);
#23=PLANE('',#225);
#24=PLANE('',#226);
#25=PLANE('',#227);
#26=PLANE('',#228);
#27=FACE_OUTER_BOUND('',#37,.T.);
#28=FACE_OUTER_BOUND('',#38,.T.);
#29=FACE_OUTER_BOUND('',#39,.T.);
#30=FACE_OUTER_BOUND('',#40,.T.);
#31=FACE_OUTER_BOUND('',#41,.T.);
#32=FACE_OUTER_BOUND('',#42,.T.);
#33=FACE_OUTER_BOUND('',#44,.T.);
#34=FACE_OUTER_BOUND('',#46,.T.);
#35=FACE_OUTER_BOUND('',#47,.T.);
#36=FACE_OUTER_BOUND('',#49,.T.);
#37=EDGE_LOOP('',(#135,#136,#137,#138));
#38=EDGE_LOOP('',(#139,#140,#141,#142));
#39=EDGE_LOOP('',(#143,#144,#145,#146));
#40=EDGE_LOOP('',(#147,#148,#149,#150,#151,#152));
#41=EDGE_LOOP('',(#153,#154,#155,#156,#157,#158));
#42=EDGE_LOOP('',(#159,#160,#161,#162));
#43=EDGE_LOOP('',(#163));
#44=EDGE_LOOP('',(#164,#165,#166,#167));
#45=EDGE_LOOP('',(#168));
#46=EDGE_LOOP('',(#169,#170,#171,#172));
#47=EDGE_LOOP('',(#173,#174,#175,#176));
#48=EDGE_LOOP('',(#177));
#49=EDGE_LOOP('',(#178,#179,#180,#181));
#50=EDGE_LOOP('',(#182));
#51=LINE('',#284,#71);
#52=LINE('',#290,#72);
#53=LINE('',#295,#73);
#54=LINE('',#297,#74);
#55=LINE('',#299,#75);
#56=LINE('',#300,#76);
#57=LINE('',#304,#77);
#58=LINE('',#306,#78);
#59=LINE('',#308,#79);
#60=LINE('',#309,#80);
#61=LINE('',#310,#81);
#62=LINE('',#314,#82);
#63=LINE('',#316,#83);
#64=LINE('',#317,#84);
#65=LINE('',#319,#85);
#66=LINE('',#320,#86);
#67=LINE('',#322,#87);
#68=LINE('',#323,#88);
#69=LINE('',#326,#89);
#70=LINE('',#328,#90);
#71=VECTOR('',#235,4.2);
#72=VECTOR('',#242,4.2);
#73=VECTOR('',#247,1000.);
#74=VECTOR('',#248,1000.);
#75=VECTOR('',#249,1000.);
#76=VECTOR('',#250,1000.);
#77=VECTOR('',#253,1000.);
#78=VECTOR('',#254,1000.);
#79=VECTOR('',#255,1000.);
#80=VECTOR('',#256,1000.);
#81=VECTOR('',#257,1000.);
#82=VECTOR('',#260,1000.);
#83=VECTOR('',#261,1000.);
#84=VECTOR('',#262,1000.);
#85=VECTOR('',#263,1000.);
#86=VECTOR('',#264,1000.);
#87=VECTOR('',#267,1000.);
#88=VECTOR('',#268,1000.);
#89=VECTOR('',#273,1000.);
#90=VECTOR('',#276,1000.);
#91=CIRCLE('',#216,4.2);
#92=CIRCLE('',#217,4.2);
#93=CIRCLE('',#219,4.2);
#94=CIRCLE('',#220,4.2);
#95=VERTEX_POINT('',#281);
#96=VERTEX_POINT('',#283);
#97=VERTEX_POINT('',#287);
#98=VERTEX_POINT('',#289);
#99=VERTEX_POINT('',#293);
#100=VERTEX_POINT('',#294);
#101=VERTEX_POINT('',#296);
#102=VERTEX_POINT('',#298);
#103=VERTEX_POINT('',#302);
#104=VERTEX_POINT('',#303);
#105=VERTEX_POINT('',#305);
#106=VERTEX_POINT('',#307);
#107=VERTEX_POINT('',#312);
#108=VERTEX_POINT('',#313);
#109=VERTEX_POINT('',#315);
#110=VERTEX_POINT('',#318);
#111=EDGE_CURVE('',#95,#95,#91,.T.);
#112=EDGE_CURVE('',#95,#96,#51,.T.);
#113=EDGE_CURVE('',#96,#96,#92,.T.);
#114=EDGE_CURVE('',#97,#97,#93,.T.);
#115=EDGE_CURVE('',#97,#98,#52,.T.);
#116=EDGE_CURVE('',#98,#98,#94,.T.);
#117=EDGE_CURVE('',#99,#100,#53,.T.);
#118=EDGE_CURVE('',#101,#99,#54,.T.);
#119=EDGE_CURVE('',#101,#102,#55,.T.);
#120=EDGE_CURVE('',#102,#100,#56,.T.);
#121=EDGE_CURVE('',#103,#104,#57,.T.);
#122=EDGE_CURVE('',#103,#105,#58,.T.);
#123=EDGE_CURVE('',#105,#106,#59,.T.);
#124=EDGE_CURVE('',#106,#101,#60,.T.);
#125=EDGE_CURVE('',#104,#99,#61,.T.);
#126=EDGE_CURVE('',#107,#108,#62,.T.);
#127=EDGE_CURVE('',#107,#109,#63,.T.);
#128=EDGE_CURVE('',#109,#100,#64,.T.);
#129=EDGE_CURVE('',#110,#102,#65,.T.);
#130=EDGE_CURVE('',#108,#110,#66,.T.);
#131=EDGE_CURVE('',#106,#110,#67,.T.);
#132=EDGE_CURVE('',#105,#108,#68,.T.);
#133=EDGE_CURVE('',#103,#107,#69,.T.);
#134=EDGE_CURVE('',#104,#109,#70,.T.);
#135=ORIENTED_EDGE('',*,*,#111,.F.);
#136=ORIENTED_EDGE('',*,*,#112,.T.);
#137=ORIENTED_EDGE('',*,*,#113,.T.);
#138=ORIENTED_EDGE('',*,*,#112,.F.);
#139=ORIENTED_EDGE('',*,*,#114,.F.);
#140=ORIENTED_EDGE('',*,*,#115,.T.);
#141=ORIENTED_EDGE('',*,*,#116,.T.);
#142=ORIENTED_EDGE('',*,*,#115,.F.);
#143=ORIENTED_EDGE('',*,*,#117,.F.);
#144=ORIENTED_EDGE('',*,*,#118,.F.);
#145=ORIENTED_EDGE('',*,*,#119,.T.);
#146=ORIENTED_EDGE('',*,*,#120,.T.);
#147=ORIENTED_EDGE('',*,*,#121,.F.);
#148=ORIENTED_EDGE('',*,*,#122,.T.);
#149=ORIENTED_EDGE('',*,*,#123,.T.);
#150=ORIENTED_EDGE('',*,*,#124,.T.);
#151=ORIENTED_EDGE('',*,*,#118,.T.);
#152=ORIENTED_EDGE('',*,*,#125,.F.);
#153=ORIENTED_EDGE('',*,*,#126,.F.);
#154=ORIENTED_EDGE('',*,*,#127,.T.);
#155=ORIENTED_EDGE('',*,*,#128,.T.);
#156=ORIENTED_EDGE('',*,*,#120,.F.);
#157=ORIENTED_EDGE('',*,*,#129,.F.);
#158=ORIENTED_EDGE('',*,*,#130,.F.);
#159=ORIENTED_EDGE('',*,*,#130,.T.);
#160=ORIENTED_EDGE('',*,*,#131,.F.);
#161=ORIENTED_EDGE('',*,*,#123,.F.);
#162=ORIENTED_EDGE('',*,*,#132,.T.);
#163=ORIENTED_EDGE('',*,*,#111,.T.);
#164=ORIENTED_EDGE('',*,*,#129,.T.);
#165=ORIENTED_EDGE('',*,*,#119,.F.);
#166=ORIENTED_EDGE('',*,*,#124,.F.);
#167=ORIENTED_EDGE('',*,*,#131,.T.);
#168=ORIENTED_EDGE('',*,*,#114,.T.);
#169=ORIENTED_EDGE('',*,*,#122,.F.);
#170=ORIENTED_EDGE('',*,*,#133,.T.);
#171=ORIENTED_EDGE('',*,*,#126,.T.);
#172=ORIENTED_EDGE('',*,*,#132,.F.);
#173=ORIENTED_EDGE('',*,*,#127,.F.);
#174=ORIENTED_EDGE('',*,*,#133,.F.);
#175=ORIENTED_EDGE('',*,*,#121,.T.);
#176=ORIENTED_EDGE('',*,*,#134,.T.);
#177=ORIENTED_EDGE('',*,*,#113,.F.);
#178=ORIENTED_EDGE('',*,*,#128,.F.);
#179=ORIENTED_EDGE('',*,*,#134,.F.);
#180=ORIENTED_EDGE('',*,*,#125,.T.);
#181=ORIENTED_EDGE('',*,*,#117,.T.);
#182=ORIENTED_EDGE('',*,*,#116,.F.);
#183=CYLINDRICAL_SURFACE('',#215,4.2);
#184=CYLINDRICAL_SURFACE('',#218,4.2);
#185=ADVANCED_FACE('',(#27),#183,.F.);
#186=ADVANCED_FACE('',(#28),#184,.F.);
#187=ADVANCED_FACE('',(#29),#19,.F.);
#188=ADVANCED_FACE('',(#30),#20,.F.);
#189=ADVANCED_FACE('',(#31),#21,.T.);
#190=ADVANCED_FACE('',(#32,#15),#22,.F.);
#191=ADVANCED_FACE('',(#33,#16),#23,.F.);
#192=ADVANCED_FACE('',(#34),#24,.F.);
#193=ADVANCED_FACE('',(#35,#17),#25,.T.);
#194=ADVANCED_FACE('',(#36,#18),#26,.T.);
#195=CLOSED_SHELL('',(#185,#186,#187,#188,#189,#190,#191,#192,#193,#194));
#196=DERIVED_UNIT_ELEMENT(#198,1.);
#197=DERIVED_UNIT_ELEMENT(#335,-3.);
#198=(
MASS_UNIT()
NAMED_UNIT(*)
SI_UNIT($,.GRAM.)
);
#199=DERIVED_UNIT((#196,#197));
#200=MEASURE_REPRESENTATION_ITEM('density measure',
POSITIVE_RATIO_MEASURE(1.),#199);
#201=PROPERTY_DEFINITION_REPRESENTATION(#206,#203);
#202=PROPERTY_DEFINITION_REPRESENTATION(#207,#204);
#203=REPRESENTATION('material name',(#205),#332);
#204=REPRESENTATION('density',(#200),#332);
#205=DESCRIPTIVE_REPRESENTATION_ITEM('Generic','Generic');
#206=PROPERTY_DEFINITION('material property','material name',#342);
#207=PROPERTY_DEFINITION('material property','density of part',#342);
#208=DATE_TIME_ROLE('creation_date');
#209=APPLIED_DATE_AND_TIME_ASSIGNMENT(#210,#208,(#342));
#210=DATE_AND_TIME(#211,#212);
#211=CALENDAR_DATE(2024,15,5);
#212=LOCAL_TIME(13,0,6.,#213);
#213=COORDINATED_UNIVERSAL_TIME_OFFSET(0,0,.BEHIND.);
#214=AXIS2_PLACEMENT_3D('placement',#279,#229,#230);
#215=AXIS2_PLACEMENT_3D('',#280,#231,#232);
#216=AXIS2_PLACEMENT_3D('',#282,#233,#234);
#217=AXIS2_PLACEMENT_3D('',#285,#236,#237);
#218=AXIS2_PLACEMENT_3D('',#286,#238,#239);
#219=AXIS2_PLACEMENT_3D('',#288,#240,#241);
#220=AXIS2_PLACEMENT_3D('',#291,#243,#244);
#221=AXIS2_PLACEMENT_3D('',#292,#245,#246);
#222=AXIS2_PLACEMENT_3D('',#301,#251,#252);
#223=AXIS2_PLACEMENT_3D('',#311,#258,#259);
#224=AXIS2_PLACEMENT_3D('',#321,#265,#266);
#225=AXIS2_PLACEMENT_3D('',#324,#269,#270);
#226=AXIS2_PLACEMENT_3D('',#325,#271,#272);
#227=AXIS2_PLACEMENT_3D('',#327,#274,#275);
#228=AXIS2_PLACEMENT_3D('',#329,#277,#278);
#229=DIRECTION('axis',(0.,0.,1.));
#230=DIRECTION('refdir',(1.,0.,0.));
#231=DIRECTION('center_axis',(1.,0.,0.));
#232=DIRECTION('ref_axis',(0.,0.,-1.));
#233=DIRECTION('center_axis',(1.,0.,0.));
#234=DIRECTION('ref_axis',(0.,0.,-1.));
#235=DIRECTION('',(1.,0.,0.));
#236=DIRECTION('center_axis',(1.,0.,0.));
#237=DIRECTION('ref_axis',(0.,0.,-1.));
#238=DIRECTION('center_axis',(0.,1.,0.));
#239=DIRECTION('ref_axis',(0.,0.,1.));
#240=DIRECTION('center_axis',(0.,1.,0.));
#241=DIRECTION('ref_axis',(0.,0.,1.));
#242=DIRECTION('',(0.,1.,0.));
#243=DIRECTION('center_axis',(0.,1.,0.));
#244=DIRECTION('ref_axis',(0.,0.,1.));
#245=DIRECTION('center_axis',(-1.,0.,0.));
#246=DIRECTION('ref_axis',(0.,0.,1.));
#247=DIRECTION('',(0.,0.,-1.));
#248=DIRECTION('',(0.,1.,0.));
#249=DIRECTION('',(0.,0.,-1.));
#250=DIRECTION('',(0.,1.,0.));
#251=DIRECTION('center_axis',(0.,0.,-1.));
#252=DIRECTION('ref_axis',(-1.,0.,0.));
#253=DIRECTION('',(0.,-1.,0.));
#254=DIRECTION('',(-1.,0.,0.));
#255=DIRECTION('',(0.,-1.,0.));
#256=DIRECTION('',(1.,0.,0.));
#257=DIRECTION('',(1.,0.,0.));
#258=DIRECTION('center_axis',(0.,0.,-1.));
#259=DIRECTION('ref_axis',(-1.,0.,0.));
#260=DIRECTION('',(-1.,0.,0.));
#261=DIRECTION('',(0.,-1.,0.));
#262=DIRECTION('',(1.,0.,0.));
#263=DIRECTION('',(1.,0.,0.));
#264=DIRECTION('',(0.,-1.,0.));
#265=DIRECTION('center_axis',(1.,0.,0.));
#266=DIRECTION('ref_axis',(0.,0.,-1.));
#267=DIRECTION('',(0.,0.,-1.));
#268=DIRECTION('',(0.,0.,-1.));
#269=DIRECTION('center_axis',(0.,1.,0.));
#270=DIRECTION('ref_axis',(0.,0.,1.));
#271=DIRECTION('center_axis',(0.,-1.,0.));
#272=DIRECTION('ref_axis',(0.,0.,-1.));
#273=DIRECTION('',(0.,0.,-1.));
#274=DIRECTION('center_axis',(1.,0.,0.));
#275=DIRECTION('ref_axis',(0.,0.,-1.));
#276=DIRECTION('',(0.,0.,-1.));
#277=DIRECTION('center_axis',(0.,1.,0.));
#278=DIRECTION('ref_axis',(0.,0.,1.));
#279=CARTESIAN_POINT('',(0.,0.,0.));
#280=CARTESIAN_POINT('Origin',(0.,20.,20.));
#281=CARTESIAN_POINT('',(0.,20.,24.2));
#282=CARTESIAN_POINT('Origin',(0.,20.,20.));
#283=CARTESIAN_POINT('',(5.,20.,24.2));
#284=CARTESIAN_POINT('',(0.,20.,24.2));
#285=CARTESIAN_POINT('Origin',(5.,20.,20.));
#286=CARTESIAN_POINT('Origin',(20.,0.,20.));
#287=CARTESIAN_POINT('',(20.,0.,15.8));
#288=CARTESIAN_POINT('Origin',(20.,0.,20.));
#289=CARTESIAN_POINT('',(20.,5.,15.8));
#290=CARTESIAN_POINT('',(20.,0.,15.8));
#291=CARTESIAN_POINT('Origin',(20.,5.,20.));
#292=CARTESIAN_POINT('Origin',(40.,0.,40.));
#293=CARTESIAN_POINT('',(40.,5.,40.));
#294=CARTESIAN_POINT('',(40.,5.,0.));
#295=CARTESIAN_POINT('',(40.,5.,40.));
#296=CARTESIAN_POINT('',(40.,0.,40.));
#297=CARTESIAN_POINT('',(40.,0.,40.));
#298=CARTESIAN_POINT('',(40.,0.,0.));
#299=CARTESIAN_POINT('',(40.,0.,40.));
#300=CARTESIAN_POINT('',(40.,0.,0.));
#301=CARTESIAN_POINT('Origin',(0.,40.,40.));
#302=CARTESIAN_POINT('',(5.,40.,40.));
#303=CARTESIAN_POINT('',(5.,5.,40.));
#304=CARTESIAN_POINT('',(5.,40.,40.));
#305=CARTESIAN_POINT('',(0.,40.,40.));
#306=CARTESIAN_POINT('',(0.,40.,40.));
#307=CARTESIAN_POINT('',(0.,0.,40.));
#308=CARTESIAN_POINT('',(0.,0.,40.));
#309=CARTESIAN_POINT('',(0.,0.,40.));
#310=CARTESIAN_POINT('',(0.,5.,40.));
#311=CARTESIAN_POINT('Origin',(0.,40.,0.));
#312=CARTESIAN_POINT('',(5.,40.,0.));
#313=CARTESIAN_POINT('',(0.,40.,0.));
#314=CARTESIAN_POINT('',(0.,40.,0.));
#315=CARTESIAN_POINT('',(5.,5.,0.));
#316=CARTESIAN_POINT('',(5.,40.,0.));
#317=CARTESIAN_POINT('',(0.,5.,0.));
#318=CARTESIAN_POINT('',(0.,0.,0.));
#319=CARTESIAN_POINT('',(0.,0.,0.));
#320=CARTESIAN_POINT('',(0.,0.,0.));
#321=CARTESIAN_POINT('Origin',(0.,0.,40.));
#322=CARTESIAN_POINT('',(0.,0.,40.));
#323=CARTESIAN_POINT('',(0.,40.,40.));
#324=CARTESIAN_POINT('Origin',(0.,0.,40.));
#325=CARTESIAN_POINT('Origin',(0.,40.,40.));
#326=CARTESIAN_POINT('',(5.,40.,40.));
#327=CARTESIAN_POINT('Origin',(5.,0.,40.));
#328=CARTESIAN_POINT('',(5.,5.,40.));
#329=CARTESIAN_POINT('Origin',(0.,5.,40.));
#330=UNCERTAINTY_MEASURE_WITH_UNIT(LENGTH_MEASURE(0.01),#334,
'DISTANCE_ACCURACY_VALUE',
'Maximum model space distance between geometric entities at asserted c
onnectivities');
#331=UNCERTAINTY_MEASURE_WITH_UNIT(LENGTH_MEASURE(0.01),#334,
'DISTANCE_ACCURACY_VALUE',
'Maximum model space distance between geometric entities at asserted c
onnectivities');
#332=(
GEOMETRIC_REPRESENTATION_CONTEXT(3)
GLOBAL_UNCERTAINTY_ASSIGNED_CONTEXT((#330))
GLOBAL_UNIT_ASSIGNED_CONTEXT((#334,#336,#337))
REPRESENTATION_CONTEXT('','3D')
);
#333=(
GEOMETRIC_REPRESENTATION_CONTEXT(3)
GLOBAL_UNCERTAINTY_ASSIGNED_CONTEXT((#331))
GLOBAL_UNIT_ASSIGNED_CONTEXT((#334,#336,#337))
REPRESENTATION_CONTEXT('','3D')
);
#334=(
LENGTH_UNIT()
NAMED_UNIT(*)
SI_UNIT(.MILLI.,.METRE.)
);
#335=(
LENGTH_UNIT()
NAMED_UNIT(*)
SI_UNIT(.CENTI.,.METRE.)
);
#336=(
NAMED_UNIT(*)
PLANE_ANGLE_UNIT()
SI_UNIT($,.RADIAN.)
);
#337=(
NAMED_UNIT(*)
SI_UNIT($,.STERADIAN.)
SOLID_ANGLE_UNIT()
);
#338=SHAPE_DEFINITION_REPRESENTATION(#339,#340);
#339=PRODUCT_DEFINITION_SHAPE('',$,#342);
#340=SHAPE_REPRESENTATION('',(#214),#332);
#341=PRODUCT_DEFINITION_CONTEXT('part definition',#346,'design');
#342=PRODUCT_DEFINITION('1007784','1007784',#343,#341);
#343=PRODUCT_DEFINITION_FORMATION('ANY',$,#348);
#344=PRODUCT_RELATED_PRODUCT_CATEGORY('1007784','1007784',(#348));
#345=APPLICATION_PROTOCOL_DEFINITION('international standard',
'automotive_design',2009,#346);
#346=APPLICATION_CONTEXT(
'Core Data for Automotive Mechanical Design Process');
#347=PRODUCT_CONTEXT('part definition',#346,'mechanical');
#348=PRODUCT('1007784','1007784','STEP AP203',(#347));
#349=PRESENTATION_STYLE_ASSIGNMENT((#350));
#350=SURFACE_STYLE_USAGE(.BOTH.,#353);
#351=SURFACE_STYLE_RENDERING_WITH_PROPERTIES($,#357,(#352));
#352=SURFACE_STYLE_TRANSPARENT(0.);
#353=SURFACE_SIDE_STYLE('',(#354,#351));
#354=SURFACE_STYLE_FILL_AREA(#355);
#355=FILL_AREA_STYLE('',(#356));
#356=FILL_AREA_STYLE_COLOUR('',#357);
#357=COLOUR_RGB('',0.749019607843137,0.749019607843137,0.749019607843137);
ENDSEC;
END-ISO-10303-21;
