ISO-10303-21;
HEADER;
/* Generated by software containing ST-Developer
 * from STEP Tools, Inc. (www.steptools.com) 
 */

FILE_DESCRIPTION(
/* description */ (''),
/* implementation_level */ '2;1');

FILE_NAME(
/* name */ '1007785.stp',
/* time_stamp */ '2024-11-19T08:43:32+01:00',
/* author */ ('Bo'),
/* organization */ (''),
/* preprocessor_version */ 'ST-DEVELOPER v20',
/* originating_system */ 'Autodesk Inventor 2025',
/* authorisation */ '');

FILE_SCHEMA (('AUTOMOTIVE_DESIGN { 1 0 10303 214 3 1 1 }'));
ENDSEC;

DATA;
#10=MECHANICAL_DESIGN_GEOMETRIC_PRESENTATION_REPRESENTATION('',(#13),#413);
#11=SHAPE_REPRESENTATION_RELATIONSHIP('SRR','None',#424,#12);
#12=ADVANCED_BREP_SHAPE_REPRESENTATION('',(#14),#412);
#13=STYLED_ITEM('',(#434),#14);
#14=MANIFOLD_SOLID_BREP('Solid2',#241);
#15=FACE_BOUND('',#48,.T.);
#16=FACE_BOUND('',#49,.T.);
#17=FACE_BOUND('',#52,.T.);
#18=FACE_BOUND('',#53,.T.);
#19=FACE_BOUND('',#55,.T.);
#20=FACE_BOUND('',#56,.T.);
#21=FACE_BOUND('',#59,.T.);
#22=FACE_BOUND('',#60,.T.);
#23=PLANE('',#275);
#24=PLANE('',#276);
#25=PLANE('',#277);
#26=PLANE('',#278);
#27=PLANE('',#279);
#28=PLANE('',#280);
#29=PLANE('',#281);
#30=PLANE('',#282);
#31=FACE_OUTER_BOUND('',#43,.T.);
#32=FACE_OUTER_BOUND('',#44,.T.);
#33=FACE_OUTER_BOUND('',#45,.T.);
#34=FACE_OUTER_BOUND('',#46,.T.);
#35=FACE_OUTER_BOUND('',#47,.T.);
#36=FACE_OUTER_BOUND('',#50,.T.);
#37=FACE_OUTER_BOUND('',#51,.T.);
#38=FACE_OUTER_BOUND('',#54,.T.);
#39=FACE_OUTER_BOUND('',#57,.T.);
#40=FACE_OUTER_BOUND('',#58,.T.);
#41=FACE_OUTER_BOUND('',#61,.T.);
#42=FACE_OUTER_BOUND('',#62,.T.);
#43=EDGE_LOOP('',(#165,#166,#167,#168));
#44=EDGE_LOOP('',(#169,#170,#171,#172));
#45=EDGE_LOOP('',(#173,#174,#175,#176));
#46=EDGE_LOOP('',(#177,#178,#179,#180));
#47=EDGE_LOOP('',(#181,#182,#183,#184));
#48=EDGE_LOOP('',(#185));
#49=EDGE_LOOP('',(#186));
#50=EDGE_LOOP('',(#187,#188,#189,#190));
#51=EDGE_LOOP('',(#191,#192,#193,#194));
#52=EDGE_LOOP('',(#195));
#53=EDGE_LOOP('',(#196));
#54=EDGE_LOOP('',(#197,#198,#199,#200));
#55=EDGE_LOOP('',(#201));
#56=EDGE_LOOP('',(#202));
#57=EDGE_LOOP('',(#203,#204,#205,#206));
#58=EDGE_LOOP('',(#207,#208,#209,#210));
#59=EDGE_LOOP('',(#211));
#60=EDGE_LOOP('',(#212));
#61=EDGE_LOOP('',(#213,#214,#215,#216,#217,#218));
#62=EDGE_LOOP('',(#219,#220,#221,#222,#223,#224));
#63=LINE('',#352,#85);
#64=LINE('',#358,#86);
#65=LINE('',#364,#87);
#66=LINE('',#370,#88);
#67=LINE('',#375,#89);
#68=LINE('',#377,#90);
#69=LINE('',#379,#91);
#70=LINE('',#380,#92);
#71=LINE('',#383,#93);
#72=LINE('',#385,#94);
#73=LINE('',#386,#95);
#74=LINE('',#389,#96);
#75=LINE('',#391,#97);
#76=LINE('',#392,#98);
#77=LINE('',#395,#99);
#78=LINE('',#397,#100);
#79=LINE('',#398,#101);
#80=LINE('',#401,#102);
#81=LINE('',#403,#103);
#82=LINE('',#404,#104);
#83=LINE('',#406,#105);
#84=LINE('',#407,#106);
#85=VECTOR('',#289,0.177165354330709);
#86=VECTOR('',#296,0.177165354330709);
#87=VECTOR('',#303,0.177165354330709);
#88=VECTOR('',#310,0.177165354330709);
#89=VECTOR('',#315,1.5748031496063);
#90=VECTOR('',#316,3.1496062992126);
#91=VECTOR('',#317,1.5748031496063);
#92=VECTOR('',#318,3.1496062992126);
#93=VECTOR('',#321,0.15748031496063);
#94=VECTOR('',#322,3.1496062992126);
#95=VECTOR('',#323,0.15748031496063);
#96=VECTOR('',#326,1.41732283464567);
#97=VECTOR('',#327,3.1496062992126);
#98=VECTOR('',#328,1.41732283464567);
#99=VECTOR('',#331,1.41732283464567);
#100=VECTOR('',#332,3.1496062992126);
#101=VECTOR('',#333,1.41732283464567);
#102=VECTOR('',#336,0.15748031496063);
#103=VECTOR('',#337,3.1496062992126);
#104=VECTOR('',#338,0.15748031496063);
#105=VECTOR('',#341,1.5748031496063);
#106=VECTOR('',#342,1.5748031496063);
#107=CIRCLE('',#264,0.177165354330709);
#108=CIRCLE('',#265,0.177165354330709);
#109=CIRCLE('',#267,0.177165354330709);
#110=CIRCLE('',#268,0.177165354330709);
#111=CIRCLE('',#270,0.177165354330709);
#112=CIRCLE('',#271,0.177165354330709);
#113=CIRCLE('',#273,0.177165354330709);
#114=CIRCLE('',#274,0.177165354330709);
#115=VERTEX_POINT('',#349);
#116=VERTEX_POINT('',#351);
#117=VERTEX_POINT('',#355);
#118=VERTEX_POINT('',#357);
#119=VERTEX_POINT('',#361);
#120=VERTEX_POINT('',#363);
#121=VERTEX_POINT('',#367);
#122=VERTEX_POINT('',#369);
#123=VERTEX_POINT('',#373);
#124=VERTEX_POINT('',#374);
#125=VERTEX_POINT('',#376);
#126=VERTEX_POINT('',#378);
#127=VERTEX_POINT('',#382);
#128=VERTEX_POINT('',#384);
#129=VERTEX_POINT('',#388);
#130=VERTEX_POINT('',#390);
#131=VERTEX_POINT('',#394);
#132=VERTEX_POINT('',#396);
#133=VERTEX_POINT('',#400);
#134=VERTEX_POINT('',#402);
#135=EDGE_CURVE('',#115,#115,#107,.T.);
#136=EDGE_CURVE('',#115,#116,#63,.T.);
#137=EDGE_CURVE('',#116,#116,#108,.T.);
#138=EDGE_CURVE('',#117,#117,#109,.T.);
#139=EDGE_CURVE('',#117,#118,#64,.T.);
#140=EDGE_CURVE('',#118,#118,#110,.T.);
#141=EDGE_CURVE('',#119,#119,#111,.T.);
#142=EDGE_CURVE('',#119,#120,#65,.T.);
#143=EDGE_CURVE('',#120,#120,#112,.T.);
#144=EDGE_CURVE('',#121,#121,#113,.T.);
#145=EDGE_CURVE('',#121,#122,#66,.T.);
#146=EDGE_CURVE('',#122,#122,#114,.T.);
#147=EDGE_CURVE('',#123,#124,#67,.T.);
#148=EDGE_CURVE('',#125,#124,#68,.T.);
#149=EDGE_CURVE('',#126,#125,#69,.T.);
#150=EDGE_CURVE('',#126,#123,#70,.T.);
#151=EDGE_CURVE('',#124,#127,#71,.T.);
#152=EDGE_CURVE('',#128,#127,#72,.T.);
#153=EDGE_CURVE('',#125,#128,#73,.T.);
#154=EDGE_CURVE('',#127,#129,#74,.T.);
#155=EDGE_CURVE('',#130,#129,#75,.T.);
#156=EDGE_CURVE('',#128,#130,#76,.T.);
#157=EDGE_CURVE('',#129,#131,#77,.T.);
#158=EDGE_CURVE('',#132,#131,#78,.T.);
#159=EDGE_CURVE('',#130,#132,#79,.T.);
#160=EDGE_CURVE('',#131,#133,#80,.T.);
#161=EDGE_CURVE('',#134,#133,#81,.T.);
#162=EDGE_CURVE('',#132,#134,#82,.T.);
#163=EDGE_CURVE('',#133,#123,#83,.T.);
#164=EDGE_CURVE('',#134,#126,#84,.T.);
#165=ORIENTED_EDGE('',*,*,#135,.F.);
#166=ORIENTED_EDGE('',*,*,#136,.T.);
#167=ORIENTED_EDGE('',*,*,#137,.F.);
#168=ORIENTED_EDGE('',*,*,#136,.F.);
#169=ORIENTED_EDGE('',*,*,#138,.F.);
#170=ORIENTED_EDGE('',*,*,#139,.T.);
#171=ORIENTED_EDGE('',*,*,#140,.F.);
#172=ORIENTED_EDGE('',*,*,#139,.F.);
#173=ORIENTED_EDGE('',*,*,#141,.F.);
#174=ORIENTED_EDGE('',*,*,#142,.T.);
#175=ORIENTED_EDGE('',*,*,#143,.F.);
#176=ORIENTED_EDGE('',*,*,#142,.F.);
#177=ORIENTED_EDGE('',*,*,#144,.F.);
#178=ORIENTED_EDGE('',*,*,#145,.T.);
#179=ORIENTED_EDGE('',*,*,#146,.F.);
#180=ORIENTED_EDGE('',*,*,#145,.F.);
#181=ORIENTED_EDGE('',*,*,#147,.T.);
#182=ORIENTED_EDGE('',*,*,#148,.F.);
#183=ORIENTED_EDGE('',*,*,#149,.F.);
#184=ORIENTED_EDGE('',*,*,#150,.T.);
#185=ORIENTED_EDGE('',*,*,#143,.T.);
#186=ORIENTED_EDGE('',*,*,#146,.T.);
#187=ORIENTED_EDGE('',*,*,#151,.T.);
#188=ORIENTED_EDGE('',*,*,#152,.F.);
#189=ORIENTED_EDGE('',*,*,#153,.F.);
#190=ORIENTED_EDGE('',*,*,#148,.T.);
#191=ORIENTED_EDGE('',*,*,#154,.T.);
#192=ORIENTED_EDGE('',*,*,#155,.F.);
#193=ORIENTED_EDGE('',*,*,#156,.F.);
#194=ORIENTED_EDGE('',*,*,#152,.T.);
#195=ORIENTED_EDGE('',*,*,#141,.T.);
#196=ORIENTED_EDGE('',*,*,#144,.T.);
#197=ORIENTED_EDGE('',*,*,#157,.T.);
#198=ORIENTED_EDGE('',*,*,#158,.F.);
#199=ORIENTED_EDGE('',*,*,#159,.F.);
#200=ORIENTED_EDGE('',*,*,#155,.T.);
#201=ORIENTED_EDGE('',*,*,#135,.T.);
#202=ORIENTED_EDGE('',*,*,#138,.T.);
#203=ORIENTED_EDGE('',*,*,#160,.T.);
#204=ORIENTED_EDGE('',*,*,#161,.F.);
#205=ORIENTED_EDGE('',*,*,#162,.F.);
#206=ORIENTED_EDGE('',*,*,#158,.T.);
#207=ORIENTED_EDGE('',*,*,#163,.T.);
#208=ORIENTED_EDGE('',*,*,#150,.F.);
#209=ORIENTED_EDGE('',*,*,#164,.F.);
#210=ORIENTED_EDGE('',*,*,#161,.T.);
#211=ORIENTED_EDGE('',*,*,#137,.T.);
#212=ORIENTED_EDGE('',*,*,#140,.T.);
#213=ORIENTED_EDGE('',*,*,#147,.F.);
#214=ORIENTED_EDGE('',*,*,#163,.F.);
#215=ORIENTED_EDGE('',*,*,#160,.F.);
#216=ORIENTED_EDGE('',*,*,#157,.F.);
#217=ORIENTED_EDGE('',*,*,#154,.F.);
#218=ORIENTED_EDGE('',*,*,#151,.F.);
#219=ORIENTED_EDGE('',*,*,#164,.T.);
#220=ORIENTED_EDGE('',*,*,#149,.T.);
#221=ORIENTED_EDGE('',*,*,#153,.T.);
#222=ORIENTED_EDGE('',*,*,#156,.T.);
#223=ORIENTED_EDGE('',*,*,#159,.T.);
#224=ORIENTED_EDGE('',*,*,#162,.T.);
#225=CYLINDRICAL_SURFACE('',#263,0.177165354330709);
#226=CYLINDRICAL_SURFACE('',#266,0.177165354330709);
#227=CYLINDRICAL_SURFACE('',#269,0.177165354330709);
#228=CYLINDRICAL_SURFACE('',#272,0.177165354330709);
#229=ADVANCED_FACE('',(#31),#225,.F.);
#230=ADVANCED_FACE('',(#32),#226,.F.);
#231=ADVANCED_FACE('',(#33),#227,.F.);
#232=ADVANCED_FACE('',(#34),#228,.F.);
#233=ADVANCED_FACE('',(#35,#15,#16),#23,.T.);
#234=ADVANCED_FACE('',(#36),#24,.T.);
#235=ADVANCED_FACE('',(#37,#17,#18),#25,.T.);
#236=ADVANCED_FACE('',(#38,#19,#20),#26,.T.);
#237=ADVANCED_FACE('',(#39),#27,.T.);
#238=ADVANCED_FACE('',(#40,#21,#22),#28,.T.);
#239=ADVANCED_FACE('',(#41),#29,.T.);
#240=ADVANCED_FACE('',(#42),#30,.F.);
#241=CLOSED_SHELL('',(#229,#230,#231,#232,#233,#234,#235,#236,#237,#238,
#239,#240));
#242=DERIVED_UNIT_ELEMENT(#244,1.);
#243=DERIVED_UNIT_ELEMENT(#418,-3.);
#244=(
CONVERSION_BASED_UNIT('gram',#246)
MASS_UNIT()
NAMED_UNIT(#415)
);
#245=(
MASS_UNIT()
NAMED_UNIT(*)
SI_UNIT(.KILO.,.GRAM.)
);
#246=MASS_MEASURE_WITH_UNIT(MASS_MEASURE(0.001),#245);
#247=DERIVED_UNIT((#242,#243));
#248=MEASURE_REPRESENTATION_ITEM('density measure',
POSITIVE_RATIO_MEASURE(1.),#247);
#249=PROPERTY_DEFINITION_REPRESENTATION(#254,#251);
#250=PROPERTY_DEFINITION_REPRESENTATION(#255,#252);
#251=REPRESENTATION('material name',(#253),#412);
#252=REPRESENTATION('density',(#248),#412);
#253=DESCRIPTIVE_REPRESENTATION_ITEM('Generic','Generic');
#254=PROPERTY_DEFINITION('material property','material name',#426);
#255=PROPERTY_DEFINITION('material property','density of part',#426);
#256=DATE_TIME_ROLE('creation_date');
#257=APPLIED_DATE_AND_TIME_ASSIGNMENT(#258,#256,(#426));
#258=DATE_AND_TIME(#259,#260);
#259=CALENDAR_DATE(2010,13,7);
#260=LOCAL_TIME(15,41,12.,#261);
#261=COORDINATED_UNIVERSAL_TIME_OFFSET(0,0,.BEHIND.);
#262=AXIS2_PLACEMENT_3D('',#347,#283,#284);
#263=AXIS2_PLACEMENT_3D('',#348,#285,#286);
#264=AXIS2_PLACEMENT_3D('',#350,#287,#288);
#265=AXIS2_PLACEMENT_3D('',#353,#290,#291);
#266=AXIS2_PLACEMENT_3D('',#354,#292,#293);
#267=AXIS2_PLACEMENT_3D('',#356,#294,#295);
#268=AXIS2_PLACEMENT_3D('',#359,#297,#298);
#269=AXIS2_PLACEMENT_3D('',#360,#299,#300);
#270=AXIS2_PLACEMENT_3D('',#362,#301,#302);
#271=AXIS2_PLACEMENT_3D('',#365,#304,#305);
#272=AXIS2_PLACEMENT_3D('',#366,#306,#307);
#273=AXIS2_PLACEMENT_3D('',#368,#308,#309);
#274=AXIS2_PLACEMENT_3D('',#371,#311,#312);
#275=AXIS2_PLACEMENT_3D('',#372,#313,#314);
#276=AXIS2_PLACEMENT_3D('',#381,#319,#320);
#277=AXIS2_PLACEMENT_3D('',#387,#324,#325);
#278=AXIS2_PLACEMENT_3D('',#393,#329,#330);
#279=AXIS2_PLACEMENT_3D('',#399,#334,#335);
#280=AXIS2_PLACEMENT_3D('',#405,#339,#340);
#281=AXIS2_PLACEMENT_3D('',#408,#343,#344);
#282=AXIS2_PLACEMENT_3D('',#409,#345,#346);
#283=DIRECTION('axis',(0.,0.,1.));
#284=DIRECTION('refdir',(1.,0.,0.));
#285=DIRECTION('center_axis',(0.,1.,0.));
#286=DIRECTION('ref_axis',(1.,0.,0.));
#287=DIRECTION('center_axis',(0.,1.,0.));
#288=DIRECTION('ref_axis',(1.,0.,0.));
#289=DIRECTION('',(0.,1.,0.));
#290=DIRECTION('center_axis',(0.,-1.,0.));
#291=DIRECTION('ref_axis',(1.,0.,0.));
#292=DIRECTION('center_axis',(0.,1.,0.));
#293=DIRECTION('ref_axis',(1.,0.,0.));
#294=DIRECTION('center_axis',(0.,1.,0.));
#295=DIRECTION('ref_axis',(1.,0.,0.));
#296=DIRECTION('',(0.,1.,0.));
#297=DIRECTION('center_axis',(0.,-1.,0.));
#298=DIRECTION('ref_axis',(1.,0.,0.));
#299=DIRECTION('center_axis',(1.,1.665335E-16,0.));
#300=DIRECTION('ref_axis',(0.,0.,-1.));
#301=DIRECTION('center_axis',(1.,0.,0.));
#302=DIRECTION('ref_axis',(0.,0.,-1.));
#303=DIRECTION('',(1.,1.665335E-16,0.));
#304=DIRECTION('center_axis',(-1.,0.,0.));
#305=DIRECTION('ref_axis',(0.,0.,-1.));
#306=DIRECTION('center_axis',(1.,1.665335E-16,0.));
#307=DIRECTION('ref_axis',(0.,0.,-1.));
#308=DIRECTION('center_axis',(1.,0.,0.));
#309=DIRECTION('ref_axis',(0.,0.,-1.));
#310=DIRECTION('',(1.,1.665335E-16,0.));
#311=DIRECTION('center_axis',(-1.,0.,0.));
#312=DIRECTION('ref_axis',(0.,0.,-1.));
#313=DIRECTION('center_axis',(1.,0.,0.));
#314=DIRECTION('ref_axis',(0.,0.,-1.));
#315=DIRECTION('',(0.,-1.,0.));
#316=DIRECTION('',(0.,0.,1.));
#317=DIRECTION('',(0.,-1.,0.));
#318=DIRECTION('',(0.,0.,1.));
#319=DIRECTION('center_axis',(0.,-1.,0.));
#320=DIRECTION('ref_axis',(0.,0.,-1.));
#321=DIRECTION('',(-1.,0.,0.));
#322=DIRECTION('',(0.,0.,1.));
#323=DIRECTION('',(-1.,0.,0.));
#324=DIRECTION('center_axis',(-1.,0.,0.));
#325=DIRECTION('ref_axis',(0.,0.,1.));
#326=DIRECTION('',(0.,1.,0.));
#327=DIRECTION('',(0.,0.,1.));
#328=DIRECTION('',(0.,1.,0.));
#329=DIRECTION('center_axis',(0.,-1.,0.));
#330=DIRECTION('ref_axis',(0.,0.,-1.));
#331=DIRECTION('',(-1.,0.,0.));
#332=DIRECTION('',(0.,0.,1.));
#333=DIRECTION('',(-1.,0.,0.));
#334=DIRECTION('center_axis',(-1.,0.,0.));
#335=DIRECTION('ref_axis',(0.,0.,1.));
#336=DIRECTION('',(0.,1.,0.));
#337=DIRECTION('',(0.,0.,1.));
#338=DIRECTION('',(0.,1.,0.));
#339=DIRECTION('center_axis',(0.,1.,0.));
#340=DIRECTION('ref_axis',(0.,0.,1.));
#341=DIRECTION('',(1.,0.,0.));
#342=DIRECTION('',(1.,0.,0.));
#343=DIRECTION('center_axis',(0.,0.,1.));
#344=DIRECTION('ref_axis',(1.,0.,0.));
#345=DIRECTION('center_axis',(0.,0.,1.));
#346=DIRECTION('ref_axis',(1.,0.,0.));
#347=CARTESIAN_POINT('',(0.,0.,0.));
#348=CARTESIAN_POINT('Origin',(-0.356990325852751,-2.55012279872782,2.36220472440945));
#349=CARTESIAN_POINT('',(-0.53415568018346,1.14986104817482,2.36220472440945));
#350=CARTESIAN_POINT('Origin',(-0.356990325852751,1.14986104817482,2.36220472440945));
#351=CARTESIAN_POINT('',(-0.53415568018346,1.30734136313545,2.36220472440945));
#352=CARTESIAN_POINT('',(-0.53415568018346,-2.55012279872782,2.36220472440945));
#353=CARTESIAN_POINT('Origin',(-0.356990325852751,1.30734136313545,2.36220472440945));
#354=CARTESIAN_POINT('Origin',(-0.356990325852751,-2.55012279872782,0.78740157480315));
#355=CARTESIAN_POINT('',(-0.53415568018346,1.14986104817482,0.78740157480315));
#356=CARTESIAN_POINT('Origin',(-0.356990325852751,1.14986104817482,0.78740157480315));
#357=CARTESIAN_POINT('',(-0.53415568018346,1.30734136313545,0.78740157480315));
#358=CARTESIAN_POINT('',(-0.53415568018346,-2.55012279872782,0.78740157480315));
#359=CARTESIAN_POINT('Origin',(-0.356990325852751,1.30734136313545,0.78740157480315));
#360=CARTESIAN_POINT('Origin',(-3.42705291291287,0.519939788332301,0.78740157480315));
#361=CARTESIAN_POINT('',(0.272930933989768,0.519939788332302,0.964566929133858));
#362=CARTESIAN_POINT('Origin',(0.272930933989768,0.519939788332302,0.78740157480315));
#363=CARTESIAN_POINT('',(0.430411248950398,0.519939788332302,0.964566929133858));
#364=CARTESIAN_POINT('',(-3.42705291291287,0.519939788332301,0.964566929133858));
#365=CARTESIAN_POINT('Origin',(0.430411248950398,0.519939788332302,0.78740157480315));
#366=CARTESIAN_POINT('Origin',(-3.42705291291287,0.519939788332301,2.36220472440945));
#367=CARTESIAN_POINT('',(0.272930933989768,0.519939788332302,2.53937007874016));
#368=CARTESIAN_POINT('Origin',(0.272930933989768,0.519939788332302,2.36220472440945));
#369=CARTESIAN_POINT('',(0.430411248950398,0.519939788332302,2.53937007874016));
#370=CARTESIAN_POINT('',(-3.42705291291287,0.519939788332301,2.53937007874016));
#371=CARTESIAN_POINT('Origin',(0.430411248950398,0.519939788332302,2.36220472440945));
#372=CARTESIAN_POINT('Origin',(0.430411248950398,1.30734136313545,0.));
#373=CARTESIAN_POINT('',(0.430411248950398,1.30734136313545,3.1496062992126));
#374=CARTESIAN_POINT('',(0.430411248950399,-0.267461786470848,3.1496062992126));
#375=CARTESIAN_POINT('',(0.430411248950398,1.30734136313545,3.1496062992126));
#376=CARTESIAN_POINT('',(0.430411248950399,-0.267461786470848,0.));
#377=CARTESIAN_POINT('',(0.430411248950399,-0.267461786470848,0.));
#378=CARTESIAN_POINT('',(0.430411248950398,1.30734136313545,0.));
#379=CARTESIAN_POINT('',(0.430411248950398,1.30734136313545,0.));
#380=CARTESIAN_POINT('',(0.430411248950398,1.30734136313545,0.));
#381=CARTESIAN_POINT('Origin',(0.430411248950399,-0.267461786470848,0.));
#382=CARTESIAN_POINT('',(0.272930933989768,-0.267461786470848,3.1496062992126));
#383=CARTESIAN_POINT('',(0.430411248950399,-0.267461786470848,3.1496062992126));
#384=CARTESIAN_POINT('',(0.272930933989768,-0.267461786470848,0.));
#385=CARTESIAN_POINT('',(0.272930933989768,-0.267461786470848,0.));
#386=CARTESIAN_POINT('',(0.430411248950399,-0.267461786470848,0.));
#387=CARTESIAN_POINT('Origin',(0.272930933989768,-0.267461786470848,0.));
#388=CARTESIAN_POINT('',(0.272930933989768,1.14986104817482,3.1496062992126));
#389=CARTESIAN_POINT('',(0.272930933989768,-0.267461786470848,3.1496062992126));
#390=CARTESIAN_POINT('',(0.272930933989768,1.14986104817482,0.));
#391=CARTESIAN_POINT('',(0.272930933989768,1.14986104817482,0.));
#392=CARTESIAN_POINT('',(0.272930933989768,-0.267461786470848,0.));
#393=CARTESIAN_POINT('Origin',(0.272930933989768,1.14986104817482,0.));
#394=CARTESIAN_POINT('',(-1.1443919006559,1.14986104817482,3.1496062992126));
#395=CARTESIAN_POINT('',(0.272930933989768,1.14986104817482,3.1496062992126));
#396=CARTESIAN_POINT('',(-1.1443919006559,1.14986104817482,0.));
#397=CARTESIAN_POINT('',(-1.1443919006559,1.14986104817482,0.));
#398=CARTESIAN_POINT('',(0.272930933989768,1.14986104817482,0.));
#399=CARTESIAN_POINT('Origin',(-1.1443919006559,1.14986104817482,0.));
#400=CARTESIAN_POINT('',(-1.1443919006559,1.30734136313545,3.1496062992126));
#401=CARTESIAN_POINT('',(-1.1443919006559,1.14986104817482,3.1496062992126));
#402=CARTESIAN_POINT('',(-1.1443919006559,1.30734136313545,0.));
#403=CARTESIAN_POINT('',(-1.1443919006559,1.30734136313545,0.));
#404=CARTESIAN_POINT('',(-1.1443919006559,1.14986104817482,0.));
#405=CARTESIAN_POINT('Origin',(-1.1443919006559,1.30734136313545,0.));
#406=CARTESIAN_POINT('',(-1.1443919006559,1.30734136313545,3.1496062992126));
#407=CARTESIAN_POINT('',(-1.1443919006559,1.30734136313545,0.));
#408=CARTESIAN_POINT('Origin',(-0.0380926880574758,0.838837426127577,3.1496062992126));
#409=CARTESIAN_POINT('Origin',(-0.0380926880574758,0.838837426127577,0.));
#410=UNCERTAINTY_MEASURE_WITH_UNIT(LENGTH_MEASURE(0.000393700787401575),
#416,'DISTANCE_ACCURACY_VALUE',
'Maximum model space distance between geometric entities at asserted c
onnectivities');
#411=UNCERTAINTY_MEASURE_WITH_UNIT(LENGTH_MEASURE(0.000393700787401575),
#416,'DISTANCE_ACCURACY_VALUE',
'Maximum model space distance between geometric entities at asserted c
onnectivities');
#412=(
GEOMETRIC_REPRESENTATION_CONTEXT(3)
GLOBAL_UNCERTAINTY_ASSIGNED_CONTEXT((#410))
GLOBAL_UNIT_ASSIGNED_CONTEXT((#416,#420,#421))
REPRESENTATION_CONTEXT('','3D')
);
#413=(
GEOMETRIC_REPRESENTATION_CONTEXT(3)
GLOBAL_UNCERTAINTY_ASSIGNED_CONTEXT((#411))
GLOBAL_UNIT_ASSIGNED_CONTEXT((#416,#420,#421))
REPRESENTATION_CONTEXT('','3D')
);
#414=DIMENSIONAL_EXPONENTS(1.,0.,0.,0.,0.,0.,0.);
#415=DIMENSIONAL_EXPONENTS(0.,1.,0.,0.,0.,0.,0.);
#416=(
CONVERSION_BASED_UNIT('inch',#419)
LENGTH_UNIT()
NAMED_UNIT(#414)
);
#417=(
LENGTH_UNIT()
NAMED_UNIT(*)
SI_UNIT(.MILLI.,.METRE.)
);
#418=(
LENGTH_UNIT()
NAMED_UNIT(*)
SI_UNIT(.CENTI.,.METRE.)
);
#419=LENGTH_MEASURE_WITH_UNIT(LENGTH_MEASURE(25.4),#417);
#420=(
NAMED_UNIT(*)
PLANE_ANGLE_UNIT()
SI_UNIT($,.RADIAN.)
);
#421=(
NAMED_UNIT(*)
SI_UNIT($,.STERADIAN.)
SOLID_ANGLE_UNIT()
);
#422=SHAPE_DEFINITION_REPRESENTATION(#423,#424);
#423=PRODUCT_DEFINITION_SHAPE('',$,#426);
#424=SHAPE_REPRESENTATION('',(#262),#412);
#425=PRODUCT_DEFINITION_CONTEXT('part definition',#430,'design');
#426=PRODUCT_DEFINITION('1007785','1007785',#427,#425);
#427=PRODUCT_DEFINITION_FORMATION('',$,#432);
#428=PRODUCT_RELATED_PRODUCT_CATEGORY('1007785','1007785',(#432));
#429=APPLICATION_PROTOCOL_DEFINITION('international standard',
'automotive_design',2009,#430);
#430=APPLICATION_CONTEXT(
'Core Data for Automotive Mechanical Design Process');
#431=PRODUCT_CONTEXT('part definition',#430,'mechanical');
#432=PRODUCT('1007785','1007785',$,(#431));
#433=PRESENTATION_STYLE_ASSIGNMENT((#435));
#434=PRESENTATION_STYLE_ASSIGNMENT((#436));
#435=SURFACE_STYLE_USAGE(.BOTH.,#441);
#436=SURFACE_STYLE_USAGE(.BOTH.,#442);
#437=SURFACE_STYLE_RENDERING_WITH_PROPERTIES($,#449,(#439));
#438=SURFACE_STYLE_RENDERING_WITH_PROPERTIES($,#450,(#440));
#439=SURFACE_STYLE_TRANSPARENT(0.);
#440=SURFACE_STYLE_TRANSPARENT(0.);
#441=SURFACE_SIDE_STYLE('',(#443,#437));
#442=SURFACE_SIDE_STYLE('',(#444,#438));
#443=SURFACE_STYLE_FILL_AREA(#445);
#444=SURFACE_STYLE_FILL_AREA(#446);
#445=FILL_AREA_STYLE('',(#447));
#446=FILL_AREA_STYLE('',(#448));
#447=FILL_AREA_STYLE_COLOUR('',#449);
#448=FILL_AREA_STYLE_COLOUR('',#450);
#449=COLOUR_RGB('',0.749019607843137,0.749019607843137,0.749019607843137);
#450=COLOUR_RGB('',1.,1.,1.);
ENDSEC;
END-ISO-10303-21;
