ISO-10303-21;
HEADER;
/* Generated by software containing ST-Developer
 * from STEP Tools, Inc. (www.steptools.com) 
 */

FILE_DESCRIPTION(
/* description */ (''),
/* implementation_level */ '2;1');

FILE_NAME(
/* name */ '1007793.stp',
/* time_stamp */ '2024-11-19T09:46:42+01:00',
/* author */ ('Bo'),
/* organization */ (''),
/* preprocessor_version */ 'ST-DEVELOPER v20',
/* originating_system */ 'Autodesk Inventor 2025',
/* authorisation */ '');

FILE_SCHEMA (('AUTOMOTIVE_DESIGN { 1 0 10303 214 3 1 1 }'));
ENDSEC;

DATA;
#10=MECHANICAL_DESIGN_GEOMETRIC_PRESENTATION_REPRESENTATION('',(#13),#471);
#11=SHAPE_REPRESENTATION_RELATIONSHIP('SRR','None',#482,#12);
#12=ADVANCED_BREP_SHAPE_REPRESENTATION('',(#14),#470);
#13=STYLED_ITEM('',(#492),#14);
#14=MANIFOLD_SOLID_BREP('Solid1',#275);
#15=FACE_BOUND('',#58,.T.);
#16=FACE_BOUND('',#59,.T.);
#17=FACE_BOUND('',#61,.T.);
#18=FACE_BOUND('',#62,.T.);
#19=CIRCLE('',#299,0.118110236220472);
#20=CIRCLE('',#300,0.118110236220472);
#21=CIRCLE('',#303,0.118110236220472);
#22=CIRCLE('',#304,0.118110236220472);
#23=CIRCLE('',#307,0.118110236220472);
#24=CIRCLE('',#308,0.118110236220472);
#25=CIRCLE('',#311,0.118110236220472);
#26=CIRCLE('',#312,0.118110236220472);
#27=CYLINDRICAL_SURFACE('',#298,0.118110236220472);
#28=CYLINDRICAL_SURFACE('',#302,0.118110236220472);
#29=CYLINDRICAL_SURFACE('',#306,0.118110236220472);
#30=CYLINDRICAL_SURFACE('',#310,0.118110236220472);
#31=FACE_OUTER_BOUND('',#45,.T.);
#32=FACE_OUTER_BOUND('',#46,.T.);
#33=FACE_OUTER_BOUND('',#47,.T.);
#34=FACE_OUTER_BOUND('',#48,.T.);
#35=FACE_OUTER_BOUND('',#49,.T.);
#36=FACE_OUTER_BOUND('',#50,.T.);
#37=FACE_OUTER_BOUND('',#51,.T.);
#38=FACE_OUTER_BOUND('',#52,.T.);
#39=FACE_OUTER_BOUND('',#53,.T.);
#40=FACE_OUTER_BOUND('',#54,.T.);
#41=FACE_OUTER_BOUND('',#55,.T.);
#42=FACE_OUTER_BOUND('',#56,.T.);
#43=FACE_OUTER_BOUND('',#57,.T.);
#44=FACE_OUTER_BOUND('',#60,.T.);
#45=EDGE_LOOP('',(#179,#180,#181,#182));
#46=EDGE_LOOP('',(#183,#184,#185,#186));
#47=EDGE_LOOP('',(#187,#188,#189,#190));
#48=EDGE_LOOP('',(#191,#192,#193,#194));
#49=EDGE_LOOP('',(#195,#196,#197,#198));
#50=EDGE_LOOP('',(#199,#200,#201,#202));
#51=EDGE_LOOP('',(#203,#204,#205,#206));
#52=EDGE_LOOP('',(#207,#208,#209,#210));
#53=EDGE_LOOP('',(#211,#212,#213,#214));
#54=EDGE_LOOP('',(#215,#216,#217,#218));
#55=EDGE_LOOP('',(#219,#220,#221,#222));
#56=EDGE_LOOP('',(#223,#224,#225,#226));
#57=EDGE_LOOP('',(#227,#228,#229,#230));
#58=EDGE_LOOP('',(#231,#232,#233,#234));
#59=EDGE_LOOP('',(#235,#236,#237,#238));
#60=EDGE_LOOP('',(#239,#240,#241,#242));
#61=EDGE_LOOP('',(#243,#244,#245,#246));
#62=EDGE_LOOP('',(#247,#248,#249,#250));
#63=LINE('',#397,#91);
#64=LINE('',#399,#92);
#65=LINE('',#401,#93);
#66=LINE('',#402,#94);
#67=LINE('',#408,#95);
#68=LINE('',#411,#96);
#69=LINE('',#413,#97);
#70=LINE('',#414,#98);
#71=LINE('',#421,#99);
#72=LINE('',#423,#100);
#73=LINE('',#425,#101);
#74=LINE('',#426,#102);
#75=LINE('',#432,#103);
#76=LINE('',#435,#104);
#77=LINE('',#437,#105);
#78=LINE('',#438,#106);
#79=LINE('',#445,#107);
#80=LINE('',#447,#108);
#81=LINE('',#449,#109);
#82=LINE('',#450,#110);
#83=LINE('',#453,#111);
#84=LINE('',#455,#112);
#85=LINE('',#456,#113);
#86=LINE('',#459,#114);
#87=LINE('',#461,#115);
#88=LINE('',#462,#116);
#89=LINE('',#464,#117);
#90=LINE('',#465,#118);
#91=VECTOR('',#323,0.236220472440945);
#92=VECTOR('',#324,0.118110236220472);
#93=VECTOR('',#325,0.236220472440945);
#94=VECTOR('',#326,0.118110236220472);
#95=VECTOR('',#333,0.118110236220472);
#96=VECTOR('',#336,0.236220472440945);
#97=VECTOR('',#337,0.236220472440945);
#98=VECTOR('',#338,0.118110236220472);
#99=VECTOR('',#347,0.236220472440945);
#100=VECTOR('',#348,0.118110236220472);
#101=VECTOR('',#349,0.236220472440945);
#102=VECTOR('',#350,0.118110236220472);
#103=VECTOR('',#357,0.118110236220472);
#104=VECTOR('',#360,0.236220472440945);
#105=VECTOR('',#361,0.236220472440945);
#106=VECTOR('',#362,0.118110236220472);
#107=VECTOR('',#371,0.78740157480315);
#108=VECTOR('',#372,0.118110236220472);
#109=VECTOR('',#373,0.78740157480315);
#110=VECTOR('',#374,0.118110236220472);
#111=VECTOR('',#377,1.5748031496063);
#112=VECTOR('',#378,0.118110236220472);
#113=VECTOR('',#379,1.5748031496063);
#114=VECTOR('',#382,0.78740157480315);
#115=VECTOR('',#383,0.118110236220472);
#116=VECTOR('',#384,0.78740157480315);
#117=VECTOR('',#387,1.5748031496063);
#118=VECTOR('',#388,1.5748031496063);
#119=VERTEX_POINT('',#395);
#120=VERTEX_POINT('',#396);
#121=VERTEX_POINT('',#398);
#122=VERTEX_POINT('',#400);
#123=VERTEX_POINT('',#404);
#124=VERTEX_POINT('',#406);
#125=VERTEX_POINT('',#410);
#126=VERTEX_POINT('',#412);
#127=VERTEX_POINT('',#419);
#128=VERTEX_POINT('',#420);
#129=VERTEX_POINT('',#422);
#130=VERTEX_POINT('',#424);
#131=VERTEX_POINT('',#428);
#132=VERTEX_POINT('',#430);
#133=VERTEX_POINT('',#434);
#134=VERTEX_POINT('',#436);
#135=VERTEX_POINT('',#443);
#136=VERTEX_POINT('',#444);
#137=VERTEX_POINT('',#446);
#138=VERTEX_POINT('',#448);
#139=VERTEX_POINT('',#452);
#140=VERTEX_POINT('',#454);
#141=VERTEX_POINT('',#458);
#142=VERTEX_POINT('',#460);
#143=EDGE_CURVE('',#119,#120,#63,.T.);
#144=EDGE_CURVE('',#121,#119,#64,.T.);
#145=EDGE_CURVE('',#122,#121,#65,.T.);
#146=EDGE_CURVE('',#122,#120,#66,.T.);
#147=EDGE_CURVE('',#120,#123,#19,.T.);
#148=EDGE_CURVE('',#124,#122,#20,.T.);
#149=EDGE_CURVE('',#124,#123,#67,.T.);
#150=EDGE_CURVE('',#123,#125,#68,.T.);
#151=EDGE_CURVE('',#126,#124,#69,.T.);
#152=EDGE_CURVE('',#126,#125,#70,.T.);
#153=EDGE_CURVE('',#125,#119,#21,.T.);
#154=EDGE_CURVE('',#121,#126,#22,.T.);
#155=EDGE_CURVE('',#127,#128,#71,.T.);
#156=EDGE_CURVE('',#129,#127,#72,.T.);
#157=EDGE_CURVE('',#130,#129,#73,.T.);
#158=EDGE_CURVE('',#130,#128,#74,.T.);
#159=EDGE_CURVE('',#128,#131,#23,.T.);
#160=EDGE_CURVE('',#132,#130,#24,.T.);
#161=EDGE_CURVE('',#132,#131,#75,.T.);
#162=EDGE_CURVE('',#131,#133,#76,.T.);
#163=EDGE_CURVE('',#134,#132,#77,.T.);
#164=EDGE_CURVE('',#134,#133,#78,.T.);
#165=EDGE_CURVE('',#133,#127,#25,.T.);
#166=EDGE_CURVE('',#129,#134,#26,.T.);
#167=EDGE_CURVE('',#135,#136,#79,.T.);
#168=EDGE_CURVE('',#137,#136,#80,.T.);
#169=EDGE_CURVE('',#137,#138,#81,.T.);
#170=EDGE_CURVE('',#138,#135,#82,.T.);
#171=EDGE_CURVE('',#136,#139,#83,.T.);
#172=EDGE_CURVE('',#140,#139,#84,.T.);
#173=EDGE_CURVE('',#140,#137,#85,.T.);
#174=EDGE_CURVE('',#139,#141,#86,.T.);
#175=EDGE_CURVE('',#142,#141,#87,.T.);
#176=EDGE_CURVE('',#142,#140,#88,.T.);
#177=EDGE_CURVE('',#141,#135,#89,.T.);
#178=EDGE_CURVE('',#138,#142,#90,.T.);
#179=ORIENTED_EDGE('',*,*,#143,.F.);
#180=ORIENTED_EDGE('',*,*,#144,.F.);
#181=ORIENTED_EDGE('',*,*,#145,.F.);
#182=ORIENTED_EDGE('',*,*,#146,.T.);
#183=ORIENTED_EDGE('',*,*,#147,.F.);
#184=ORIENTED_EDGE('',*,*,#146,.F.);
#185=ORIENTED_EDGE('',*,*,#148,.F.);
#186=ORIENTED_EDGE('',*,*,#149,.T.);
#187=ORIENTED_EDGE('',*,*,#150,.F.);
#188=ORIENTED_EDGE('',*,*,#149,.F.);
#189=ORIENTED_EDGE('',*,*,#151,.F.);
#190=ORIENTED_EDGE('',*,*,#152,.T.);
#191=ORIENTED_EDGE('',*,*,#153,.F.);
#192=ORIENTED_EDGE('',*,*,#152,.F.);
#193=ORIENTED_EDGE('',*,*,#154,.F.);
#194=ORIENTED_EDGE('',*,*,#144,.T.);
#195=ORIENTED_EDGE('',*,*,#155,.F.);
#196=ORIENTED_EDGE('',*,*,#156,.F.);
#197=ORIENTED_EDGE('',*,*,#157,.F.);
#198=ORIENTED_EDGE('',*,*,#158,.T.);
#199=ORIENTED_EDGE('',*,*,#159,.F.);
#200=ORIENTED_EDGE('',*,*,#158,.F.);
#201=ORIENTED_EDGE('',*,*,#160,.F.);
#202=ORIENTED_EDGE('',*,*,#161,.T.);
#203=ORIENTED_EDGE('',*,*,#162,.F.);
#204=ORIENTED_EDGE('',*,*,#161,.F.);
#205=ORIENTED_EDGE('',*,*,#163,.F.);
#206=ORIENTED_EDGE('',*,*,#164,.T.);
#207=ORIENTED_EDGE('',*,*,#165,.F.);
#208=ORIENTED_EDGE('',*,*,#164,.F.);
#209=ORIENTED_EDGE('',*,*,#166,.F.);
#210=ORIENTED_EDGE('',*,*,#156,.T.);
#211=ORIENTED_EDGE('',*,*,#167,.T.);
#212=ORIENTED_EDGE('',*,*,#168,.F.);
#213=ORIENTED_EDGE('',*,*,#169,.T.);
#214=ORIENTED_EDGE('',*,*,#170,.T.);
#215=ORIENTED_EDGE('',*,*,#171,.T.);
#216=ORIENTED_EDGE('',*,*,#172,.F.);
#217=ORIENTED_EDGE('',*,*,#173,.T.);
#218=ORIENTED_EDGE('',*,*,#168,.T.);
#219=ORIENTED_EDGE('',*,*,#174,.T.);
#220=ORIENTED_EDGE('',*,*,#175,.F.);
#221=ORIENTED_EDGE('',*,*,#176,.T.);
#222=ORIENTED_EDGE('',*,*,#172,.T.);
#223=ORIENTED_EDGE('',*,*,#177,.T.);
#224=ORIENTED_EDGE('',*,*,#170,.F.);
#225=ORIENTED_EDGE('',*,*,#178,.T.);
#226=ORIENTED_EDGE('',*,*,#175,.T.);
#227=ORIENTED_EDGE('',*,*,#178,.F.);
#228=ORIENTED_EDGE('',*,*,#169,.F.);
#229=ORIENTED_EDGE('',*,*,#173,.F.);
#230=ORIENTED_EDGE('',*,*,#176,.F.);
#231=ORIENTED_EDGE('',*,*,#145,.T.);
#232=ORIENTED_EDGE('',*,*,#154,.T.);
#233=ORIENTED_EDGE('',*,*,#151,.T.);
#234=ORIENTED_EDGE('',*,*,#148,.T.);
#235=ORIENTED_EDGE('',*,*,#157,.T.);
#236=ORIENTED_EDGE('',*,*,#166,.T.);
#237=ORIENTED_EDGE('',*,*,#163,.T.);
#238=ORIENTED_EDGE('',*,*,#160,.T.);
#239=ORIENTED_EDGE('',*,*,#167,.F.);
#240=ORIENTED_EDGE('',*,*,#177,.F.);
#241=ORIENTED_EDGE('',*,*,#174,.F.);
#242=ORIENTED_EDGE('',*,*,#171,.F.);
#243=ORIENTED_EDGE('',*,*,#143,.T.);
#244=ORIENTED_EDGE('',*,*,#147,.T.);
#245=ORIENTED_EDGE('',*,*,#150,.T.);
#246=ORIENTED_EDGE('',*,*,#153,.T.);
#247=ORIENTED_EDGE('',*,*,#155,.T.);
#248=ORIENTED_EDGE('',*,*,#159,.T.);
#249=ORIENTED_EDGE('',*,*,#162,.T.);
#250=ORIENTED_EDGE('',*,*,#165,.T.);
#251=PLANE('',#297);
#252=PLANE('',#301);
#253=PLANE('',#305);
#254=PLANE('',#309);
#255=PLANE('',#313);
#256=PLANE('',#314);
#257=PLANE('',#315);
#258=PLANE('',#316);
#259=PLANE('',#317);
#260=PLANE('',#318);
#261=ADVANCED_FACE('',(#31),#251,.F.);
#262=ADVANCED_FACE('',(#32),#27,.F.);
#263=ADVANCED_FACE('',(#33),#252,.F.);
#264=ADVANCED_FACE('',(#34),#28,.F.);
#265=ADVANCED_FACE('',(#35),#253,.F.);
#266=ADVANCED_FACE('',(#36),#29,.F.);
#267=ADVANCED_FACE('',(#37),#254,.F.);
#268=ADVANCED_FACE('',(#38),#30,.F.);
#269=ADVANCED_FACE('',(#39),#255,.T.);
#270=ADVANCED_FACE('',(#40),#256,.T.);
#271=ADVANCED_FACE('',(#41),#257,.T.);
#272=ADVANCED_FACE('',(#42),#258,.T.);
#273=ADVANCED_FACE('',(#43,#15,#16),#259,.F.);
#274=ADVANCED_FACE('',(#44,#17,#18),#260,.T.);
#275=CLOSED_SHELL('',(#261,#262,#263,#264,#265,#266,#267,#268,#269,#270,
#271,#272,#273,#274));
#276=DERIVED_UNIT_ELEMENT(#278,1.);
#277=DERIVED_UNIT_ELEMENT(#476,-3.);
#278=(
CONVERSION_BASED_UNIT('gram',#280)
MASS_UNIT()
NAMED_UNIT(#473)
);
#279=(
MASS_UNIT()
NAMED_UNIT(*)
SI_UNIT(.KILO.,.GRAM.)
);
#280=MASS_MEASURE_WITH_UNIT(MASS_MEASURE(0.001),#279);
#281=DERIVED_UNIT((#276,#277));
#282=MEASURE_REPRESENTATION_ITEM('density measure',
POSITIVE_RATIO_MEASURE(1.),#281);
#283=PROPERTY_DEFINITION_REPRESENTATION(#288,#285);
#284=PROPERTY_DEFINITION_REPRESENTATION(#289,#286);
#285=REPRESENTATION('material name',(#287),#470);
#286=REPRESENTATION('density',(#282),#470);
#287=DESCRIPTIVE_REPRESENTATION_ITEM('Generic','Generic');
#288=PROPERTY_DEFINITION('material property','material name',#484);
#289=PROPERTY_DEFINITION('material property','density of part',#484);
#290=DATE_TIME_ROLE('creation_date');
#291=APPLIED_DATE_AND_TIME_ASSIGNMENT(#292,#290,(#484));
#292=DATE_AND_TIME(#293,#294);
#293=CALENDAR_DATE(2009,5,5);
#294=LOCAL_TIME(8,33,16.,#295);
#295=COORDINATED_UNIVERSAL_TIME_OFFSET(0,0,.BEHIND.);
#296=AXIS2_PLACEMENT_3D('',#393,#319,#320);
#297=AXIS2_PLACEMENT_3D('',#394,#321,#322);
#298=AXIS2_PLACEMENT_3D('',#403,#327,#328);
#299=AXIS2_PLACEMENT_3D('',#405,#329,#330);
#300=AXIS2_PLACEMENT_3D('',#407,#331,#332);
#301=AXIS2_PLACEMENT_3D('',#409,#334,#335);
#302=AXIS2_PLACEMENT_3D('',#415,#339,#340);
#303=AXIS2_PLACEMENT_3D('',#416,#341,#342);
#304=AXIS2_PLACEMENT_3D('',#417,#343,#344);
#305=AXIS2_PLACEMENT_3D('',#418,#345,#346);
#306=AXIS2_PLACEMENT_3D('',#427,#351,#352);
#307=AXIS2_PLACEMENT_3D('',#429,#353,#354);
#308=AXIS2_PLACEMENT_3D('',#431,#355,#356);
#309=AXIS2_PLACEMENT_3D('',#433,#358,#359);
#310=AXIS2_PLACEMENT_3D('',#439,#363,#364);
#311=AXIS2_PLACEMENT_3D('',#440,#365,#366);
#312=AXIS2_PLACEMENT_3D('',#441,#367,#368);
#313=AXIS2_PLACEMENT_3D('',#442,#369,#370);
#314=AXIS2_PLACEMENT_3D('',#451,#375,#376);
#315=AXIS2_PLACEMENT_3D('',#457,#380,#381);
#316=AXIS2_PLACEMENT_3D('',#463,#385,#386);
#317=AXIS2_PLACEMENT_3D('',#466,#389,#390);
#318=AXIS2_PLACEMENT_3D('',#467,#391,#392);
#319=DIRECTION('axis',(0.,0.,1.));
#320=DIRECTION('refdir',(1.,0.,0.));
#321=DIRECTION('center_axis',(0.,1.,0.));
#322=DIRECTION('ref_axis',(0.,0.,1.));
#323=DIRECTION('',(1.,0.,0.));
#324=DIRECTION('',(0.,0.,1.));
#325=DIRECTION('',(-1.,0.,0.));
#326=DIRECTION('',(0.,0.,1.));
#327=DIRECTION('center_axis',(0.,0.,1.));
#328=DIRECTION('ref_axis',(0.,1.,0.));
#329=DIRECTION('center_axis',(0.,0.,-1.));
#330=DIRECTION('ref_axis',(0.,1.,0.));
#331=DIRECTION('center_axis',(0.,0.,1.));
#332=DIRECTION('ref_axis',(0.,1.,0.));
#333=DIRECTION('',(0.,0.,1.));
#334=DIRECTION('center_axis',(0.,-1.,0.));
#335=DIRECTION('ref_axis',(0.,0.,-1.));
#336=DIRECTION('',(-1.,0.,0.));
#337=DIRECTION('',(1.,0.,0.));
#338=DIRECTION('',(0.,0.,1.));
#339=DIRECTION('center_axis',(0.,0.,1.));
#340=DIRECTION('ref_axis',(0.,-1.,0.));
#341=DIRECTION('center_axis',(0.,0.,-1.));
#342=DIRECTION('ref_axis',(0.,-1.,0.));
#343=DIRECTION('center_axis',(0.,0.,1.));
#344=DIRECTION('ref_axis',(0.,-1.,0.));
#345=DIRECTION('center_axis',(0.,1.,0.));
#346=DIRECTION('ref_axis',(0.,0.,1.));
#347=DIRECTION('',(1.,0.,0.));
#348=DIRECTION('',(0.,0.,1.));
#349=DIRECTION('',(-1.,0.,0.));
#350=DIRECTION('',(0.,0.,1.));
#351=DIRECTION('center_axis',(0.,0.,1.));
#352=DIRECTION('ref_axis',(0.,-1.,0.));
#353=DIRECTION('center_axis',(0.,0.,-1.));
#354=DIRECTION('ref_axis',(0.,-1.,0.));
#355=DIRECTION('center_axis',(0.,0.,1.));
#356=DIRECTION('ref_axis',(0.,-1.,0.));
#357=DIRECTION('',(0.,0.,1.));
#358=DIRECTION('center_axis',(0.,-1.,0.));
#359=DIRECTION('ref_axis',(0.,0.,-1.));
#360=DIRECTION('',(-1.,0.,0.));
#361=DIRECTION('',(1.,0.,0.));
#362=DIRECTION('',(0.,0.,1.));
#363=DIRECTION('center_axis',(0.,0.,1.));
#364=DIRECTION('ref_axis',(0.,1.,0.));
#365=DIRECTION('center_axis',(0.,0.,-1.));
#366=DIRECTION('ref_axis',(0.,1.,0.));
#367=DIRECTION('center_axis',(0.,0.,1.));
#368=DIRECTION('ref_axis',(0.,1.,0.));
#369=DIRECTION('center_axis',(-1.,0.,0.));
#370=DIRECTION('ref_axis',(0.,0.,1.));
#371=DIRECTION('',(0.,1.,0.));
#372=DIRECTION('',(0.,0.,1.));
#373=DIRECTION('',(0.,-1.,0.));
#374=DIRECTION('',(0.,0.,1.));
#375=DIRECTION('center_axis',(0.,1.,0.));
#376=DIRECTION('ref_axis',(0.,0.,1.));
#377=DIRECTION('',(1.,0.,0.));
#378=DIRECTION('',(0.,0.,1.));
#379=DIRECTION('',(-1.,0.,0.));
#380=DIRECTION('center_axis',(1.,0.,0.));
#381=DIRECTION('ref_axis',(0.,0.,-1.));
#382=DIRECTION('',(0.,-1.,0.));
#383=DIRECTION('',(0.,0.,1.));
#384=DIRECTION('',(0.,1.,0.));
#385=DIRECTION('center_axis',(0.,-1.,0.));
#386=DIRECTION('ref_axis',(0.,0.,-1.));
#387=DIRECTION('',(-1.,0.,0.));
#388=DIRECTION('',(1.,0.,0.));
#389=DIRECTION('center_axis',(0.,0.,1.));
#390=DIRECTION('ref_axis',(1.,0.,0.));
#391=DIRECTION('center_axis',(0.,0.,1.));
#392=DIRECTION('ref_axis',(1.,0.,0.));
#393=CARTESIAN_POINT('',(0.,0.,0.));
#394=CARTESIAN_POINT('Origin',(1.05558919591926,0.524111824193221,0.));
#395=CARTESIAN_POINT('',(1.05558919591926,0.524111824193221,0.118110236220472));
#396=CARTESIAN_POINT('',(1.2918096683602,0.524111824193221,0.118110236220472));
#397=CARTESIAN_POINT('',(1.05558919591926,0.524111824193221,0.118110236220472));
#398=CARTESIAN_POINT('',(1.05558919591926,0.524111824193221,0.));
#399=CARTESIAN_POINT('',(1.05558919591926,0.524111824193221,0.));
#400=CARTESIAN_POINT('',(1.2918096683602,0.524111824193221,0.));
#401=CARTESIAN_POINT('',(1.2918096683602,0.524111824193221,0.));
#402=CARTESIAN_POINT('',(1.2918096683602,0.524111824193221,0.));
#403=CARTESIAN_POINT('Origin',(1.2918096683602,0.406001587972749,0.));
#404=CARTESIAN_POINT('',(1.2918096683602,0.287891351752276,0.118110236220472));
#405=CARTESIAN_POINT('Origin',(1.2918096683602,0.406001587972749,0.118110236220472));
#406=CARTESIAN_POINT('',(1.2918096683602,0.287891351752276,0.));
#407=CARTESIAN_POINT('Origin',(1.2918096683602,0.406001587972749,0.));
#408=CARTESIAN_POINT('',(1.2918096683602,0.287891351752276,0.));
#409=CARTESIAN_POINT('Origin',(1.2918096683602,0.287891351752276,0.));
#410=CARTESIAN_POINT('',(1.05558919591926,0.287891351752276,0.118110236220472));
#411=CARTESIAN_POINT('',(1.2918096683602,0.287891351752276,0.118110236220472));
#412=CARTESIAN_POINT('',(1.05558919591926,0.287891351752276,0.));
#413=CARTESIAN_POINT('',(1.05558919591926,0.287891351752276,0.));
#414=CARTESIAN_POINT('',(1.05558919591926,0.287891351752276,0.));
#415=CARTESIAN_POINT('Origin',(1.05558919591926,0.406001587972749,0.));
#416=CARTESIAN_POINT('Origin',(1.05558919591926,0.406001587972749,0.118110236220472));
#417=CARTESIAN_POINT('Origin',(1.05558919591926,0.406001587972749,0.));
#418=CARTESIAN_POINT('Origin',(0.268187621116109,0.524111824193221,0.));
#419=CARTESIAN_POINT('',(0.268187621116109,0.524111824193221,0.118110236220472));
#420=CARTESIAN_POINT('',(0.504408093557054,0.524111824193221,0.118110236220472));
#421=CARTESIAN_POINT('',(0.268187621116109,0.524111824193221,0.118110236220472));
#422=CARTESIAN_POINT('',(0.268187621116109,0.524111824193221,0.));
#423=CARTESIAN_POINT('',(0.268187621116109,0.524111824193221,0.));
#424=CARTESIAN_POINT('',(0.504408093557054,0.524111824193221,0.));
#425=CARTESIAN_POINT('',(0.504408093557054,0.524111824193221,0.));
#426=CARTESIAN_POINT('',(0.504408093557054,0.524111824193221,0.));
#427=CARTESIAN_POINT('Origin',(0.504408093557054,0.406001587972749,0.));
#428=CARTESIAN_POINT('',(0.504408093557054,0.287891351752276,0.118110236220472));
#429=CARTESIAN_POINT('Origin',(0.504408093557054,0.406001587972749,0.118110236220472));
#430=CARTESIAN_POINT('',(0.504408093557054,0.287891351752276,0.));
#431=CARTESIAN_POINT('Origin',(0.504408093557054,0.406001587972749,0.));
#432=CARTESIAN_POINT('',(0.504408093557054,0.287891351752276,0.));
#433=CARTESIAN_POINT('Origin',(0.504408093557054,0.287891351752276,0.));
#434=CARTESIAN_POINT('',(0.268187621116109,0.287891351752276,0.118110236220472));
#435=CARTESIAN_POINT('',(0.504408093557054,0.287891351752276,0.118110236220472));
#436=CARTESIAN_POINT('',(0.268187621116109,0.287891351752276,0.));
#437=CARTESIAN_POINT('',(0.268187621116109,0.287891351752276,0.));
#438=CARTESIAN_POINT('',(0.268187621116109,0.287891351752276,0.));
#439=CARTESIAN_POINT('Origin',(0.268187621116109,0.406001587972749,0.));
#440=CARTESIAN_POINT('Origin',(0.268187621116109,0.406001587972749,0.118110236220472));
#441=CARTESIAN_POINT('Origin',(0.268187621116109,0.406001587972749,0.));
#442=CARTESIAN_POINT('Origin',(-0.00740293006499354,0.0123008005711739,
0.));
#443=CARTESIAN_POINT('',(-0.00740293006499354,0.0123008005711739,0.118110236220472));
#444=CARTESIAN_POINT('',(-0.00740293006499378,0.799702375374324,0.118110236220472));
#445=CARTESIAN_POINT('',(-0.00740293006499354,0.012300800571174,0.118110236220472));
#446=CARTESIAN_POINT('',(-0.00740293006499378,0.799702375374324,0.));
#447=CARTESIAN_POINT('',(-0.00740293006499378,0.799702375374324,0.));
#448=CARTESIAN_POINT('',(-0.00740293006499354,0.0123008005711739,0.));
#449=CARTESIAN_POINT('',(-0.00740293006499378,0.799702375374324,0.));
#450=CARTESIAN_POINT('',(-0.00740293006499354,0.0123008005711739,0.));
#451=CARTESIAN_POINT('Origin',(-0.00740293006499378,0.799702375374324,0.));
#452=CARTESIAN_POINT('',(1.56740021954131,0.799702375374324,0.118110236220472));
#453=CARTESIAN_POINT('',(-0.00740293006499374,0.799702375374324,0.118110236220472));
#454=CARTESIAN_POINT('',(1.56740021954131,0.799702375374324,0.));
#455=CARTESIAN_POINT('',(1.56740021954131,0.799702375374324,0.));
#456=CARTESIAN_POINT('',(1.56740021954131,0.799702375374324,0.));
#457=CARTESIAN_POINT('Origin',(1.56740021954131,0.799702375374324,0.));
#458=CARTESIAN_POINT('',(1.56740021954131,0.0123008005711739,0.118110236220472));
#459=CARTESIAN_POINT('',(1.56740021954131,0.799702375374324,0.118110236220472));
#460=CARTESIAN_POINT('',(1.56740021954131,0.0123008005711739,0.));
#461=CARTESIAN_POINT('',(1.56740021954131,0.0123008005711739,0.));
#462=CARTESIAN_POINT('',(1.56740021954131,0.0123008005711739,0.));
#463=CARTESIAN_POINT('Origin',(1.56740021954131,0.0123008005711739,0.));
#464=CARTESIAN_POINT('',(1.56740021954131,0.0123008005711739,0.118110236220472));
#465=CARTESIAN_POINT('',(-0.00740293006499354,0.0123008005711739,0.));
#466=CARTESIAN_POINT('Origin',(0.779998644738156,0.406001587972749,0.));
#467=CARTESIAN_POINT('Origin',(0.779998644738156,0.406001587972749,0.118110236220472));
#468=UNCERTAINTY_MEASURE_WITH_UNIT(LENGTH_MEASURE(0.000393700787401575),
#474,'DISTANCE_ACCURACY_VALUE',
'Maximum model space distance between geometric entities at asserted c
onnectivities');
#469=UNCERTAINTY_MEASURE_WITH_UNIT(LENGTH_MEASURE(0.000393700787401575),
#474,'DISTANCE_ACCURACY_VALUE',
'Maximum model space distance between geometric entities at asserted c
onnectivities');
#470=(
GEOMETRIC_REPRESENTATION_CONTEXT(3)
GLOBAL_UNCERTAINTY_ASSIGNED_CONTEXT((#468))
GLOBAL_UNIT_ASSIGNED_CONTEXT((#474,#478,#479))
REPRESENTATION_CONTEXT('','3D')
);
#471=(
GEOMETRIC_REPRESENTATION_CONTEXT(3)
GLOBAL_UNCERTAINTY_ASSIGNED_CONTEXT((#469))
GLOBAL_UNIT_ASSIGNED_CONTEXT((#474,#478,#479))
REPRESENTATION_CONTEXT('','3D')
);
#472=DIMENSIONAL_EXPONENTS(1.,0.,0.,0.,0.,0.,0.);
#473=DIMENSIONAL_EXPONENTS(0.,1.,0.,0.,0.,0.,0.);
#474=(
CONVERSION_BASED_UNIT('inch',#477)
LENGTH_UNIT()
NAMED_UNIT(#472)
);
#475=(
LENGTH_UNIT()
NAMED_UNIT(*)
SI_UNIT(.MILLI.,.METRE.)
);
#476=(
LENGTH_UNIT()
NAMED_UNIT(*)
SI_UNIT(.CENTI.,.METRE.)
);
#477=LENGTH_MEASURE_WITH_UNIT(LENGTH_MEASURE(25.4),#475);
#478=(
NAMED_UNIT(*)
PLANE_ANGLE_UNIT()
SI_UNIT($,.RADIAN.)
);
#479=(
NAMED_UNIT(*)
SI_UNIT($,.STERADIAN.)
SOLID_ANGLE_UNIT()
);
#480=SHAPE_DEFINITION_REPRESENTATION(#481,#482);
#481=PRODUCT_DEFINITION_SHAPE('',$,#484);
#482=SHAPE_REPRESENTATION('',(#296),#470);
#483=PRODUCT_DEFINITION_CONTEXT('part definition',#488,'design');
#484=PRODUCT_DEFINITION('1007793','1007793',#485,#483);
#485=PRODUCT_DEFINITION_FORMATION('',$,#490);
#486=PRODUCT_RELATED_PRODUCT_CATEGORY('1007793','1007793',(#490));
#487=APPLICATION_PROTOCOL_DEFINITION('international standard',
'automotive_design',2009,#488);
#488=APPLICATION_CONTEXT(
'Core Data for Automotive Mechanical Design Process');
#489=PRODUCT_CONTEXT('part definition',#488,'mechanical');
#490=PRODUCT('1007793','1007793',$,(#489));
#491=PRESENTATION_STYLE_ASSIGNMENT((#493));
#492=PRESENTATION_STYLE_ASSIGNMENT((#494));
#493=SURFACE_STYLE_USAGE(.BOTH.,#499);
#494=SURFACE_STYLE_USAGE(.BOTH.,#500);
#495=SURFACE_STYLE_RENDERING_WITH_PROPERTIES($,#507,(#497));
#496=SURFACE_STYLE_RENDERING_WITH_PROPERTIES($,#508,(#498));
#497=SURFACE_STYLE_TRANSPARENT(0.);
#498=SURFACE_STYLE_TRANSPARENT(0.);
#499=SURFACE_SIDE_STYLE('',(#501,#495));
#500=SURFACE_SIDE_STYLE('',(#502,#496));
#501=SURFACE_STYLE_FILL_AREA(#503);
#502=SURFACE_STYLE_FILL_AREA(#504);
#503=FILL_AREA_STYLE('',(#505));
#504=FILL_AREA_STYLE('',(#506));
#505=FILL_AREA_STYLE_COLOUR('',#507);
#506=FILL_AREA_STYLE_COLOUR('',#508);
#507=COLOUR_RGB('',0.749019607843137,0.749019607843137,0.749019607843137);
#508=COLOUR_RGB('',0.63921568627451,0.63921568627451,0.686274509803922);
ENDSEC;
END-ISO-10303-21;
