ISO-10303-21;
HEADER;
/* Generated by software containing ST-Developer
 * from STEP Tools, Inc. (www.steptools.com) 
 */

FILE_DESCRIPTION(
/* description */ (''),
/* implementation_level */ '2;1');

FILE_NAME(
/* name */ '1007794.stp',
/* time_stamp */ '2024-11-19T09:41:08+01:00',
/* author */ ('Bo'),
/* organization */ (''),
/* preprocessor_version */ 'ST-DEVELOPER v20',
/* originating_system */ 'Autodesk Inventor 2025',
/* authorisation */ '');

FILE_SCHEMA (('AUTOMOTIVE_DESIGN { 1 0 10303 214 3 1 1 }'));
ENDSEC;

DATA;
#10=MECHANICAL_DESIGN_GEOMETRIC_PRESENTATION_REPRESENTATION('',(#13),#611);
#11=SHAPE_REPRESENTATION_RELATIONSHIP('SRR','None',#622,#12);
#12=ADVANCED_BREP_SHAPE_REPRESENTATION('',(#14),#610);
#13=STYLED_ITEM('',(#632),#14);
#14=MANIFOLD_SOLID_BREP('Solid1',#351);
#15=FACE_BOUND('',#50,.T.);
#16=FACE_BOUND('',#51,.T.);
#17=FACE_BOUND('',#67,.T.);
#18=FACE_BOUND('',#68,.T.);
#19=PLANE('',#376);
#20=PLANE('',#377);
#21=PLANE('',#387);
#22=PLANE('',#394);
#23=PLANE('',#397);
#24=PLANE('',#400);
#25=PLANE('',#403);
#26=PLANE('',#404);
#27=PLANE('',#405);
#28=PLANE('',#406);
#29=FACE_OUTER_BOUND('',#47,.T.);
#30=FACE_OUTER_BOUND('',#48,.T.);
#31=FACE_OUTER_BOUND('',#49,.T.);
#32=FACE_OUTER_BOUND('',#52,.T.);
#33=FACE_OUTER_BOUND('',#53,.T.);
#34=FACE_OUTER_BOUND('',#54,.T.);
#35=FACE_OUTER_BOUND('',#55,.T.);
#36=FACE_OUTER_BOUND('',#56,.T.);
#37=FACE_OUTER_BOUND('',#57,.T.);
#38=FACE_OUTER_BOUND('',#58,.T.);
#39=FACE_OUTER_BOUND('',#59,.T.);
#40=FACE_OUTER_BOUND('',#60,.T.);
#41=FACE_OUTER_BOUND('',#61,.T.);
#42=FACE_OUTER_BOUND('',#62,.T.);
#43=FACE_OUTER_BOUND('',#63,.T.);
#44=FACE_OUTER_BOUND('',#64,.T.);
#45=FACE_OUTER_BOUND('',#65,.T.);
#46=FACE_OUTER_BOUND('',#66,.T.);
#47=EDGE_LOOP('',(#229,#230,#231,#232));
#48=EDGE_LOOP('',(#233,#234,#235,#236));
#49=EDGE_LOOP('',(#237,#238,#239,#240,#241,#242,#243,#244));
#50=EDGE_LOOP('',(#245,#246,#247,#248));
#51=EDGE_LOOP('',(#249,#250,#251,#252));
#52=EDGE_LOOP('',(#253,#254,#255,#256));
#53=EDGE_LOOP('',(#257,#258,#259,#260));
#54=EDGE_LOOP('',(#261,#262,#263,#264));
#55=EDGE_LOOP('',(#265,#266,#267,#268));
#56=EDGE_LOOP('',(#269,#270,#271,#272));
#57=EDGE_LOOP('',(#273,#274,#275,#276));
#58=EDGE_LOOP('',(#277,#278,#279,#280));
#59=EDGE_LOOP('',(#281,#282,#283,#284));
#60=EDGE_LOOP('',(#285,#286,#287,#288));
#61=EDGE_LOOP('',(#289,#290,#291,#292));
#62=EDGE_LOOP('',(#293,#294,#295,#296));
#63=EDGE_LOOP('',(#297,#298,#299,#300));
#64=EDGE_LOOP('',(#301,#302,#303,#304));
#65=EDGE_LOOP('',(#305,#306,#307,#308));
#66=EDGE_LOOP('',(#309,#310,#311,#312,#313,#314,#315,#316));
#67=EDGE_LOOP('',(#317,#318,#319,#320));
#68=EDGE_LOOP('',(#321,#322,#323,#324));
#69=LINE('',#515,#101);
#70=LINE('',#518,#102);
#71=LINE('',#521,#103);
#72=LINE('',#523,#104);
#73=LINE('',#524,#105);
#74=LINE('',#527,#106);
#75=LINE('',#531,#107);
#76=LINE('',#535,#108);
#77=LINE('',#541,#109);
#78=LINE('',#544,#110);
#79=LINE('',#549,#111);
#80=LINE('',#552,#112);
#81=LINE('',#557,#113);
#82=LINE('',#558,#114);
#83=LINE('',#561,#115);
#84=LINE('',#562,#116);
#85=LINE('',#566,#117);
#86=LINE('',#570,#118);
#87=LINE('',#575,#119);
#88=LINE('',#576,#120);
#89=LINE('',#579,#121);
#90=LINE('',#580,#122);
#91=LINE('',#584,#123);
#92=LINE('',#586,#124);
#93=LINE('',#591,#125);
#94=LINE('',#592,#126);
#95=LINE('',#595,#127);
#96=LINE('',#596,#128);
#97=LINE('',#600,#129);
#98=LINE('',#602,#130);
#99=LINE('',#604,#131);
#100=LINE('',#606,#132);
#101=VECTOR('',#413,0.15748031496063);
#102=VECTOR('',#416,0.15748031496063);
#103=VECTOR('',#419,2.1259842519685);
#104=VECTOR('',#420,0.15748031496063);
#105=VECTOR('',#421,2.1259842519685);
#106=VECTOR('',#424,0.94488188976378);
#107=VECTOR('',#427,2.1259842519685);
#108=VECTOR('',#430,0.94488188976378);
#109=VECTOR('',#435,0.275590551181102);
#110=VECTOR('',#438,0.275590551181102);
#111=VECTOR('',#441,0.275590551181102);
#112=VECTOR('',#444,0.275590551181102);
#113=VECTOR('',#449,0.15748031496063);
#114=VECTOR('',#450,0.15748031496063);
#115=VECTOR('',#453,2.1259842519685);
#116=VECTOR('',#454,0.15748031496063);
#117=VECTOR('',#459,0.15748031496063);
#118=VECTOR('',#464,0.15748031496063);
#119=VECTOR('',#469,0.15748031496063);
#120=VECTOR('',#470,0.15748031496063);
#121=VECTOR('',#473,0.275590551181102);
#122=VECTOR('',#474,0.15748031496063);
#123=VECTOR('',#479,0.15748031496063);
#124=VECTOR('',#482,0.275590551181102);
#125=VECTOR('',#487,0.15748031496063);
#126=VECTOR('',#488,0.15748031496063);
#127=VECTOR('',#491,0.275590551181102);
#128=VECTOR('',#492,0.15748031496063);
#129=VECTOR('',#497,0.15748031496063);
#130=VECTOR('',#500,0.275590551181102);
#131=VECTOR('',#503,0.94488188976378);
#132=VECTOR('',#506,0.94488188976378);
#133=CIRCLE('',#374,0.118110236220472);
#134=CIRCLE('',#375,0.118110236220472);
#135=CIRCLE('',#378,0.118110236220472);
#136=CIRCLE('',#379,0.118110236220472);
#137=CIRCLE('',#380,0.118110236220472);
#138=CIRCLE('',#381,0.177165354330709);
#139=CIRCLE('',#382,0.177165354330709);
#140=CIRCLE('',#383,0.177165354330709);
#141=CIRCLE('',#384,0.177165354330709);
#142=CIRCLE('',#386,0.118110236220472);
#143=CIRCLE('',#389,0.118110236220472);
#144=CIRCLE('',#391,0.118110236220472);
#145=CIRCLE('',#393,0.177165354330709);
#146=CIRCLE('',#396,0.177165354330709);
#147=CIRCLE('',#399,0.177165354330709);
#148=CIRCLE('',#402,0.177165354330709);
#149=VERTEX_POINT('',#511);
#150=VERTEX_POINT('',#512);
#151=VERTEX_POINT('',#514);
#152=VERTEX_POINT('',#516);
#153=VERTEX_POINT('',#520);
#154=VERTEX_POINT('',#522);
#155=VERTEX_POINT('',#526);
#156=VERTEX_POINT('',#528);
#157=VERTEX_POINT('',#530);
#158=VERTEX_POINT('',#532);
#159=VERTEX_POINT('',#534);
#160=VERTEX_POINT('',#537);
#161=VERTEX_POINT('',#538);
#162=VERTEX_POINT('',#540);
#163=VERTEX_POINT('',#542);
#164=VERTEX_POINT('',#545);
#165=VERTEX_POINT('',#546);
#166=VERTEX_POINT('',#548);
#167=VERTEX_POINT('',#550);
#168=VERTEX_POINT('',#554);
#169=VERTEX_POINT('',#555);
#170=VERTEX_POINT('',#560);
#171=VERTEX_POINT('',#564);
#172=VERTEX_POINT('',#568);
#173=VERTEX_POINT('',#572);
#174=VERTEX_POINT('',#573);
#175=VERTEX_POINT('',#578);
#176=VERTEX_POINT('',#582);
#177=VERTEX_POINT('',#588);
#178=VERTEX_POINT('',#589);
#179=VERTEX_POINT('',#594);
#180=VERTEX_POINT('',#598);
#181=EDGE_CURVE('',#149,#150,#133,.T.);
#182=EDGE_CURVE('',#150,#151,#69,.T.);
#183=EDGE_CURVE('',#151,#152,#134,.T.);
#184=EDGE_CURVE('',#152,#149,#70,.T.);
#185=EDGE_CURVE('',#153,#152,#71,.T.);
#186=EDGE_CURVE('',#154,#153,#72,.T.);
#187=EDGE_CURVE('',#154,#149,#73,.T.);
#188=EDGE_CURVE('',#151,#155,#74,.T.);
#189=EDGE_CURVE('',#156,#155,#135,.T.);
#190=EDGE_CURVE('',#156,#157,#75,.T.);
#191=EDGE_CURVE('',#158,#157,#136,.T.);
#192=EDGE_CURVE('',#158,#159,#76,.T.);
#193=EDGE_CURVE('',#153,#159,#137,.T.);
#194=EDGE_CURVE('',#160,#161,#138,.T.);
#195=EDGE_CURVE('',#161,#162,#77,.T.);
#196=EDGE_CURVE('',#162,#163,#139,.T.);
#197=EDGE_CURVE('',#163,#160,#78,.T.);
#198=EDGE_CURVE('',#164,#165,#140,.T.);
#199=EDGE_CURVE('',#165,#166,#79,.T.);
#200=EDGE_CURVE('',#166,#167,#141,.T.);
#201=EDGE_CURVE('',#167,#164,#80,.T.);
#202=EDGE_CURVE('',#168,#169,#142,.T.);
#203=EDGE_CURVE('',#169,#156,#81,.T.);
#204=EDGE_CURVE('',#155,#168,#82,.T.);
#205=EDGE_CURVE('',#169,#170,#83,.T.);
#206=EDGE_CURVE('',#157,#170,#84,.T.);
#207=EDGE_CURVE('',#170,#171,#143,.T.);
#208=EDGE_CURVE('',#171,#158,#85,.T.);
#209=EDGE_CURVE('',#172,#154,#144,.T.);
#210=EDGE_CURVE('',#159,#172,#86,.T.);
#211=EDGE_CURVE('',#173,#174,#145,.T.);
#212=EDGE_CURVE('',#161,#173,#87,.T.);
#213=EDGE_CURVE('',#160,#174,#88,.T.);
#214=EDGE_CURVE('',#174,#175,#89,.T.);
#215=EDGE_CURVE('',#163,#175,#90,.T.);
#216=EDGE_CURVE('',#175,#176,#146,.T.);
#217=EDGE_CURVE('',#162,#176,#91,.T.);
#218=EDGE_CURVE('',#176,#173,#92,.T.);
#219=EDGE_CURVE('',#177,#178,#147,.T.);
#220=EDGE_CURVE('',#165,#177,#93,.T.);
#221=EDGE_CURVE('',#164,#178,#94,.T.);
#222=EDGE_CURVE('',#178,#179,#95,.T.);
#223=EDGE_CURVE('',#167,#179,#96,.T.);
#224=EDGE_CURVE('',#179,#180,#148,.T.);
#225=EDGE_CURVE('',#166,#180,#97,.T.);
#226=EDGE_CURVE('',#180,#177,#98,.T.);
#227=EDGE_CURVE('',#171,#172,#99,.T.);
#228=EDGE_CURVE('',#150,#168,#100,.T.);
#229=ORIENTED_EDGE('',*,*,#181,.T.);
#230=ORIENTED_EDGE('',*,*,#182,.T.);
#231=ORIENTED_EDGE('',*,*,#183,.T.);
#232=ORIENTED_EDGE('',*,*,#184,.T.);
#233=ORIENTED_EDGE('',*,*,#184,.F.);
#234=ORIENTED_EDGE('',*,*,#185,.F.);
#235=ORIENTED_EDGE('',*,*,#186,.F.);
#236=ORIENTED_EDGE('',*,*,#187,.T.);
#237=ORIENTED_EDGE('',*,*,#183,.F.);
#238=ORIENTED_EDGE('',*,*,#188,.T.);
#239=ORIENTED_EDGE('',*,*,#189,.F.);
#240=ORIENTED_EDGE('',*,*,#190,.T.);
#241=ORIENTED_EDGE('',*,*,#191,.F.);
#242=ORIENTED_EDGE('',*,*,#192,.T.);
#243=ORIENTED_EDGE('',*,*,#193,.F.);
#244=ORIENTED_EDGE('',*,*,#185,.T.);
#245=ORIENTED_EDGE('',*,*,#194,.T.);
#246=ORIENTED_EDGE('',*,*,#195,.T.);
#247=ORIENTED_EDGE('',*,*,#196,.T.);
#248=ORIENTED_EDGE('',*,*,#197,.T.);
#249=ORIENTED_EDGE('',*,*,#198,.T.);
#250=ORIENTED_EDGE('',*,*,#199,.T.);
#251=ORIENTED_EDGE('',*,*,#200,.T.);
#252=ORIENTED_EDGE('',*,*,#201,.T.);
#253=ORIENTED_EDGE('',*,*,#202,.T.);
#254=ORIENTED_EDGE('',*,*,#203,.T.);
#255=ORIENTED_EDGE('',*,*,#189,.T.);
#256=ORIENTED_EDGE('',*,*,#204,.T.);
#257=ORIENTED_EDGE('',*,*,#203,.F.);
#258=ORIENTED_EDGE('',*,*,#205,.T.);
#259=ORIENTED_EDGE('',*,*,#206,.F.);
#260=ORIENTED_EDGE('',*,*,#190,.F.);
#261=ORIENTED_EDGE('',*,*,#207,.T.);
#262=ORIENTED_EDGE('',*,*,#208,.T.);
#263=ORIENTED_EDGE('',*,*,#191,.T.);
#264=ORIENTED_EDGE('',*,*,#206,.T.);
#265=ORIENTED_EDGE('',*,*,#209,.T.);
#266=ORIENTED_EDGE('',*,*,#186,.T.);
#267=ORIENTED_EDGE('',*,*,#193,.T.);
#268=ORIENTED_EDGE('',*,*,#210,.T.);
#269=ORIENTED_EDGE('',*,*,#211,.F.);
#270=ORIENTED_EDGE('',*,*,#212,.F.);
#271=ORIENTED_EDGE('',*,*,#194,.F.);
#272=ORIENTED_EDGE('',*,*,#213,.T.);
#273=ORIENTED_EDGE('',*,*,#214,.F.);
#274=ORIENTED_EDGE('',*,*,#213,.F.);
#275=ORIENTED_EDGE('',*,*,#197,.F.);
#276=ORIENTED_EDGE('',*,*,#215,.T.);
#277=ORIENTED_EDGE('',*,*,#216,.F.);
#278=ORIENTED_EDGE('',*,*,#215,.F.);
#279=ORIENTED_EDGE('',*,*,#196,.F.);
#280=ORIENTED_EDGE('',*,*,#217,.T.);
#281=ORIENTED_EDGE('',*,*,#218,.F.);
#282=ORIENTED_EDGE('',*,*,#217,.F.);
#283=ORIENTED_EDGE('',*,*,#195,.F.);
#284=ORIENTED_EDGE('',*,*,#212,.T.);
#285=ORIENTED_EDGE('',*,*,#219,.F.);
#286=ORIENTED_EDGE('',*,*,#220,.F.);
#287=ORIENTED_EDGE('',*,*,#198,.F.);
#288=ORIENTED_EDGE('',*,*,#221,.T.);
#289=ORIENTED_EDGE('',*,*,#222,.F.);
#290=ORIENTED_EDGE('',*,*,#221,.F.);
#291=ORIENTED_EDGE('',*,*,#201,.F.);
#292=ORIENTED_EDGE('',*,*,#223,.T.);
#293=ORIENTED_EDGE('',*,*,#224,.F.);
#294=ORIENTED_EDGE('',*,*,#223,.F.);
#295=ORIENTED_EDGE('',*,*,#200,.F.);
#296=ORIENTED_EDGE('',*,*,#225,.T.);
#297=ORIENTED_EDGE('',*,*,#226,.F.);
#298=ORIENTED_EDGE('',*,*,#225,.F.);
#299=ORIENTED_EDGE('',*,*,#199,.F.);
#300=ORIENTED_EDGE('',*,*,#220,.T.);
#301=ORIENTED_EDGE('',*,*,#208,.F.);
#302=ORIENTED_EDGE('',*,*,#227,.T.);
#303=ORIENTED_EDGE('',*,*,#210,.F.);
#304=ORIENTED_EDGE('',*,*,#192,.F.);
#305=ORIENTED_EDGE('',*,*,#182,.F.);
#306=ORIENTED_EDGE('',*,*,#228,.T.);
#307=ORIENTED_EDGE('',*,*,#204,.F.);
#308=ORIENTED_EDGE('',*,*,#188,.F.);
#309=ORIENTED_EDGE('',*,*,#181,.F.);
#310=ORIENTED_EDGE('',*,*,#187,.F.);
#311=ORIENTED_EDGE('',*,*,#209,.F.);
#312=ORIENTED_EDGE('',*,*,#227,.F.);
#313=ORIENTED_EDGE('',*,*,#207,.F.);
#314=ORIENTED_EDGE('',*,*,#205,.F.);
#315=ORIENTED_EDGE('',*,*,#202,.F.);
#316=ORIENTED_EDGE('',*,*,#228,.F.);
#317=ORIENTED_EDGE('',*,*,#211,.T.);
#318=ORIENTED_EDGE('',*,*,#214,.T.);
#319=ORIENTED_EDGE('',*,*,#216,.T.);
#320=ORIENTED_EDGE('',*,*,#218,.T.);
#321=ORIENTED_EDGE('',*,*,#219,.T.);
#322=ORIENTED_EDGE('',*,*,#222,.T.);
#323=ORIENTED_EDGE('',*,*,#224,.T.);
#324=ORIENTED_EDGE('',*,*,#226,.T.);
#325=CYLINDRICAL_SURFACE('',#373,0.118110236220472);
#326=CYLINDRICAL_SURFACE('',#385,0.118110236220472);
#327=CYLINDRICAL_SURFACE('',#388,0.118110236220472);
#328=CYLINDRICAL_SURFACE('',#390,0.118110236220472);
#329=CYLINDRICAL_SURFACE('',#392,0.177165354330709);
#330=CYLINDRICAL_SURFACE('',#395,0.177165354330709);
#331=CYLINDRICAL_SURFACE('',#398,0.177165354330709);
#332=CYLINDRICAL_SURFACE('',#401,0.177165354330709);
#333=ADVANCED_FACE('',(#29),#325,.T.);
#334=ADVANCED_FACE('',(#30),#19,.T.);
#335=ADVANCED_FACE('',(#31,#15,#16),#20,.F.);
#336=ADVANCED_FACE('',(#32),#326,.T.);
#337=ADVANCED_FACE('',(#33),#21,.T.);
#338=ADVANCED_FACE('',(#34),#327,.T.);
#339=ADVANCED_FACE('',(#35),#328,.T.);
#340=ADVANCED_FACE('',(#36),#329,.F.);
#341=ADVANCED_FACE('',(#37),#22,.F.);
#342=ADVANCED_FACE('',(#38),#330,.F.);
#343=ADVANCED_FACE('',(#39),#23,.F.);
#344=ADVANCED_FACE('',(#40),#331,.F.);
#345=ADVANCED_FACE('',(#41),#24,.F.);
#346=ADVANCED_FACE('',(#42),#332,.F.);
#347=ADVANCED_FACE('',(#43),#25,.F.);
#348=ADVANCED_FACE('',(#44),#26,.T.);
#349=ADVANCED_FACE('',(#45),#27,.T.);
#350=ADVANCED_FACE('',(#46,#17,#18),#28,.T.);
#351=CLOSED_SHELL('',(#333,#334,#335,#336,#337,#338,#339,#340,#341,#342,
#343,#344,#345,#346,#347,#348,#349,#350));
#352=DERIVED_UNIT_ELEMENT(#354,1.);
#353=DERIVED_UNIT_ELEMENT(#616,-3.);
#354=(
CONVERSION_BASED_UNIT('gram',#356)
MASS_UNIT()
NAMED_UNIT(#613)
);
#355=(
MASS_UNIT()
NAMED_UNIT(*)
SI_UNIT(.KILO.,.GRAM.)
);
#356=MASS_MEASURE_WITH_UNIT(MASS_MEASURE(0.001),#355);
#357=DERIVED_UNIT((#352,#353));
#358=MEASURE_REPRESENTATION_ITEM('density measure',
POSITIVE_RATIO_MEASURE(1.),#357);
#359=PROPERTY_DEFINITION_REPRESENTATION(#364,#361);
#360=PROPERTY_DEFINITION_REPRESENTATION(#365,#362);
#361=REPRESENTATION('material name',(#363),#610);
#362=REPRESENTATION('density',(#358),#610);
#363=DESCRIPTIVE_REPRESENTATION_ITEM('Generic','Generic');
#364=PROPERTY_DEFINITION('material property','material name',#624);
#365=PROPERTY_DEFINITION('material property','density of part',#624);
#366=DATE_TIME_ROLE('creation_date');
#367=APPLIED_DATE_AND_TIME_ASSIGNMENT(#368,#366,(#624));
#368=DATE_AND_TIME(#369,#370);
#369=CALENDAR_DATE(2009,5,5);
#370=LOCAL_TIME(9,32,15.,#371);
#371=COORDINATED_UNIVERSAL_TIME_OFFSET(0,0,.BEHIND.);
#372=AXIS2_PLACEMENT_3D('',#509,#407,#408);
#373=AXIS2_PLACEMENT_3D('',#510,#409,#410);
#374=AXIS2_PLACEMENT_3D('',#513,#411,#412);
#375=AXIS2_PLACEMENT_3D('',#517,#414,#415);
#376=AXIS2_PLACEMENT_3D('',#519,#417,#418);
#377=AXIS2_PLACEMENT_3D('',#525,#422,#423);
#378=AXIS2_PLACEMENT_3D('',#529,#425,#426);
#379=AXIS2_PLACEMENT_3D('',#533,#428,#429);
#380=AXIS2_PLACEMENT_3D('',#536,#431,#432);
#381=AXIS2_PLACEMENT_3D('',#539,#433,#434);
#382=AXIS2_PLACEMENT_3D('',#543,#436,#437);
#383=AXIS2_PLACEMENT_3D('',#547,#439,#440);
#384=AXIS2_PLACEMENT_3D('',#551,#442,#443);
#385=AXIS2_PLACEMENT_3D('',#553,#445,#446);
#386=AXIS2_PLACEMENT_3D('',#556,#447,#448);
#387=AXIS2_PLACEMENT_3D('',#559,#451,#452);
#388=AXIS2_PLACEMENT_3D('',#563,#455,#456);
#389=AXIS2_PLACEMENT_3D('',#565,#457,#458);
#390=AXIS2_PLACEMENT_3D('',#567,#460,#461);
#391=AXIS2_PLACEMENT_3D('',#569,#462,#463);
#392=AXIS2_PLACEMENT_3D('',#571,#465,#466);
#393=AXIS2_PLACEMENT_3D('',#574,#467,#468);
#394=AXIS2_PLACEMENT_3D('',#577,#471,#472);
#395=AXIS2_PLACEMENT_3D('',#581,#475,#476);
#396=AXIS2_PLACEMENT_3D('',#583,#477,#478);
#397=AXIS2_PLACEMENT_3D('',#585,#480,#481);
#398=AXIS2_PLACEMENT_3D('',#587,#483,#484);
#399=AXIS2_PLACEMENT_3D('',#590,#485,#486);
#400=AXIS2_PLACEMENT_3D('',#593,#489,#490);
#401=AXIS2_PLACEMENT_3D('',#597,#493,#494);
#402=AXIS2_PLACEMENT_3D('',#599,#495,#496);
#403=AXIS2_PLACEMENT_3D('',#601,#498,#499);
#404=AXIS2_PLACEMENT_3D('',#603,#501,#502);
#405=AXIS2_PLACEMENT_3D('',#605,#504,#505);
#406=AXIS2_PLACEMENT_3D('',#607,#507,#508);
#407=DIRECTION('axis',(0.,0.,1.));
#408=DIRECTION('refdir',(1.,0.,0.));
#409=DIRECTION('center_axis',(0.,0.,1.));
#410=DIRECTION('ref_axis',(-0.707106781186547,-0.707106781186548,0.));
#411=DIRECTION('center_axis',(0.,0.,-1.));
#412=DIRECTION('ref_axis',(-0.707106781186547,-0.707106781186548,0.));
#413=DIRECTION('',(0.,0.,-1.));
#414=DIRECTION('center_axis',(0.,0.,1.));
#415=DIRECTION('ref_axis',(-0.707106781186547,-0.707106781186548,0.));
#416=DIRECTION('',(0.,0.,1.));
#417=DIRECTION('center_axis',(0.,-1.,0.));
#418=DIRECTION('ref_axis',(0.,0.,-1.));
#419=DIRECTION('',(-1.,0.,0.));
#420=DIRECTION('',(0.,0.,-1.));
#421=DIRECTION('',(-1.,0.,0.));
#422=DIRECTION('center_axis',(0.,0.,1.));
#423=DIRECTION('ref_axis',(1.,0.,0.));
#424=DIRECTION('',(0.,1.,0.));
#425=DIRECTION('center_axis',(0.,0.,1.));
#426=DIRECTION('ref_axis',(-0.707106781186548,0.707106781186548,0.));
#427=DIRECTION('',(1.,0.,0.));
#428=DIRECTION('center_axis',(0.,0.,1.));
#429=DIRECTION('ref_axis',(0.707106781186547,0.707106781186548,0.));
#430=DIRECTION('',(0.,-1.,0.));
#431=DIRECTION('center_axis',(0.,0.,1.));
#432=DIRECTION('ref_axis',(0.707106781186548,-0.707106781186548,0.));
#433=DIRECTION('center_axis',(0.,0.,1.));
#434=DIRECTION('ref_axis',(0.,1.,0.));
#435=DIRECTION('',(-1.,0.,0.));
#436=DIRECTION('center_axis',(0.,0.,1.));
#437=DIRECTION('ref_axis',(0.,-1.,0.));
#438=DIRECTION('',(1.,0.,0.));
#439=DIRECTION('center_axis',(0.,0.,1.));
#440=DIRECTION('ref_axis',(0.,1.,0.));
#441=DIRECTION('',(-1.,0.,0.));
#442=DIRECTION('center_axis',(0.,0.,1.));
#443=DIRECTION('ref_axis',(0.,-1.,0.));
#444=DIRECTION('',(1.,0.,0.));
#445=DIRECTION('center_axis',(0.,0.,1.));
#446=DIRECTION('ref_axis',(-0.707106781186548,0.707106781186548,0.));
#447=DIRECTION('center_axis',(0.,0.,-1.));
#448=DIRECTION('ref_axis',(-0.707106781186548,0.707106781186548,0.));
#449=DIRECTION('',(0.,0.,-1.));
#450=DIRECTION('',(0.,0.,1.));
#451=DIRECTION('center_axis',(0.,1.,0.));
#452=DIRECTION('ref_axis',(0.,0.,1.));
#453=DIRECTION('',(1.,0.,0.));
#454=DIRECTION('',(0.,0.,1.));
#455=DIRECTION('center_axis',(0.,0.,1.));
#456=DIRECTION('ref_axis',(0.707106781186547,0.707106781186548,0.));
#457=DIRECTION('center_axis',(0.,0.,-1.));
#458=DIRECTION('ref_axis',(0.707106781186547,0.707106781186548,0.));
#459=DIRECTION('',(0.,0.,-1.));
#460=DIRECTION('center_axis',(0.,0.,1.));
#461=DIRECTION('ref_axis',(0.707106781186548,-0.707106781186548,0.));
#462=DIRECTION('center_axis',(0.,0.,-1.));
#463=DIRECTION('ref_axis',(0.707106781186548,-0.707106781186548,0.));
#464=DIRECTION('',(0.,0.,1.));
#465=DIRECTION('center_axis',(0.,0.,1.));
#466=DIRECTION('ref_axis',(0.,1.,0.));
#467=DIRECTION('center_axis',(0.,0.,-1.));
#468=DIRECTION('ref_axis',(0.,1.,0.));
#469=DIRECTION('',(0.,0.,1.));
#470=DIRECTION('',(0.,0.,1.));
#471=DIRECTION('center_axis',(0.,-1.,0.));
#472=DIRECTION('ref_axis',(0.,0.,-1.));
#473=DIRECTION('',(-1.,0.,0.));
#474=DIRECTION('',(0.,0.,1.));
#475=DIRECTION('center_axis',(0.,0.,1.));
#476=DIRECTION('ref_axis',(0.,-1.,0.));
#477=DIRECTION('center_axis',(0.,0.,-1.));
#478=DIRECTION('ref_axis',(0.,-1.,0.));
#479=DIRECTION('',(0.,0.,1.));
#480=DIRECTION('center_axis',(0.,1.,0.));
#481=DIRECTION('ref_axis',(0.,0.,1.));
#482=DIRECTION('',(1.,0.,0.));
#483=DIRECTION('center_axis',(0.,0.,1.));
#484=DIRECTION('ref_axis',(0.,1.,0.));
#485=DIRECTION('center_axis',(0.,0.,-1.));
#486=DIRECTION('ref_axis',(0.,1.,0.));
#487=DIRECTION('',(0.,0.,1.));
#488=DIRECTION('',(0.,0.,1.));
#489=DIRECTION('center_axis',(0.,-1.,0.));
#490=DIRECTION('ref_axis',(0.,0.,-1.));
#491=DIRECTION('',(-1.,0.,0.));
#492=DIRECTION('',(0.,0.,1.));
#493=DIRECTION('center_axis',(0.,0.,1.));
#494=DIRECTION('ref_axis',(0.,-1.,0.));
#495=DIRECTION('center_axis',(0.,0.,-1.));
#496=DIRECTION('ref_axis',(0.,-1.,0.));
#497=DIRECTION('',(0.,0.,1.));
#498=DIRECTION('center_axis',(0.,1.,0.));
#499=DIRECTION('ref_axis',(0.,0.,1.));
#500=DIRECTION('',(1.,0.,0.));
#501=DIRECTION('center_axis',(1.,0.,0.));
#502=DIRECTION('ref_axis',(0.,0.,-1.));
#503=DIRECTION('',(0.,-1.,0.));
#504=DIRECTION('center_axis',(-1.,0.,0.));
#505=DIRECTION('ref_axis',(0.,0.,1.));
#506=DIRECTION('',(0.,1.,0.));
#507=DIRECTION('center_axis',(0.,0.,1.));
#508=DIRECTION('ref_axis',(1.,0.,0.));
#509=CARTESIAN_POINT('',(0.,0.,0.));
#510=CARTESIAN_POINT('Origin',(-1.06299212598425,-0.47244094488189,0.));
#511=CARTESIAN_POINT('',(-1.06299212598425,-0.590551181102362,0.15748031496063));
#512=CARTESIAN_POINT('',(-1.18110236220472,-0.47244094488189,0.15748031496063));
#513=CARTESIAN_POINT('Origin',(-1.06299212598425,-0.47244094488189,0.15748031496063));
#514=CARTESIAN_POINT('',(-1.18110236220472,-0.47244094488189,0.));
#515=CARTESIAN_POINT('',(-1.18110236220472,-0.47244094488189,0.15748031496063));
#516=CARTESIAN_POINT('',(-1.06299212598425,-0.590551181102362,0.));
#517=CARTESIAN_POINT('Origin',(-1.06299212598425,-0.47244094488189,0.));
#518=CARTESIAN_POINT('',(-1.06299212598425,-0.590551181102362,0.));
#519=CARTESIAN_POINT('Origin',(1.18110236220472,-0.590551181102362,0.));
#520=CARTESIAN_POINT('',(1.06299212598425,-0.590551181102362,0.));
#521=CARTESIAN_POINT('',(1.06299212598425,-0.590551181102362,0.));
#522=CARTESIAN_POINT('',(1.06299212598425,-0.590551181102362,0.15748031496063));
#523=CARTESIAN_POINT('',(1.06299212598425,-0.590551181102362,0.15748031496063));
#524=CARTESIAN_POINT('',(1.06299212598425,-0.590551181102362,0.15748031496063));
#525=CARTESIAN_POINT('Origin',(0.,-2.64906456692913E-18,0.));
#526=CARTESIAN_POINT('',(-1.18110236220472,0.47244094488189,0.));
#527=CARTESIAN_POINT('',(-1.18110236220472,-0.47244094488189,0.));
#528=CARTESIAN_POINT('',(-1.06299212598425,0.590551181102362,0.));
#529=CARTESIAN_POINT('Origin',(-1.06299212598425,0.47244094488189,0.));
#530=CARTESIAN_POINT('',(1.06299212598425,0.590551181102362,0.));
#531=CARTESIAN_POINT('',(-1.06299212598425,0.590551181102362,0.));
#532=CARTESIAN_POINT('',(1.18110236220472,0.47244094488189,0.));
#533=CARTESIAN_POINT('Origin',(1.06299212598425,0.47244094488189,0.));
#534=CARTESIAN_POINT('',(1.18110236220472,-0.47244094488189,0.));
#535=CARTESIAN_POINT('',(1.18110236220472,0.47244094488189,0.));
#536=CARTESIAN_POINT('Origin',(1.06299212598425,-0.47244094488189,0.));
#537=CARTESIAN_POINT('',(0.728346456692913,-0.177165354330709,0.));
#538=CARTESIAN_POINT('',(0.728346456692913,0.177165354330709,0.));
#539=CARTESIAN_POINT('Origin',(0.728346456692913,0.,0.));
#540=CARTESIAN_POINT('',(0.452755905511811,0.177165354330709,0.));
#541=CARTESIAN_POINT('',(0.728346456692913,0.177165354330709,0.));
#542=CARTESIAN_POINT('',(0.452755905511811,-0.177165354330709,0.));
#543=CARTESIAN_POINT('Origin',(0.452755905511811,2.2610031496063E-17,0.));
#544=CARTESIAN_POINT('',(0.452755905511811,-0.177165354330709,0.));
#545=CARTESIAN_POINT('',(-0.452755905511811,-0.177165354330709,0.));
#546=CARTESIAN_POINT('',(-0.452755905511811,0.177165354330709,0.));
#547=CARTESIAN_POINT('Origin',(-0.452755905511811,0.,0.));
#548=CARTESIAN_POINT('',(-0.728346456692913,0.177165354330709,0.));
#549=CARTESIAN_POINT('',(-0.452755905511811,0.177165354330709,0.));
#550=CARTESIAN_POINT('',(-0.728346456692913,-0.177165354330709,0.));
#551=CARTESIAN_POINT('Origin',(-0.728346456692913,2.2610031496063E-17,0.));
#552=CARTESIAN_POINT('',(-0.728346456692913,-0.177165354330709,0.));
#553=CARTESIAN_POINT('Origin',(-1.06299212598425,0.47244094488189,0.));
#554=CARTESIAN_POINT('',(-1.18110236220472,0.47244094488189,0.15748031496063));
#555=CARTESIAN_POINT('',(-1.06299212598425,0.590551181102362,0.15748031496063));
#556=CARTESIAN_POINT('Origin',(-1.06299212598425,0.47244094488189,0.15748031496063));
#557=CARTESIAN_POINT('',(-1.06299212598425,0.590551181102362,0.15748031496063));
#558=CARTESIAN_POINT('',(-1.18110236220472,0.47244094488189,0.));
#559=CARTESIAN_POINT('Origin',(-1.18110236220472,0.590551181102362,0.));
#560=CARTESIAN_POINT('',(1.06299212598425,0.590551181102362,0.15748031496063));
#561=CARTESIAN_POINT('',(-1.06299212598425,0.590551181102362,0.15748031496063));
#562=CARTESIAN_POINT('',(1.06299212598425,0.590551181102362,0.));
#563=CARTESIAN_POINT('Origin',(1.06299212598425,0.47244094488189,0.));
#564=CARTESIAN_POINT('',(1.18110236220472,0.47244094488189,0.15748031496063));
#565=CARTESIAN_POINT('Origin',(1.06299212598425,0.47244094488189,0.15748031496063));
#566=CARTESIAN_POINT('',(1.18110236220472,0.47244094488189,0.15748031496063));
#567=CARTESIAN_POINT('Origin',(1.06299212598425,-0.47244094488189,0.));
#568=CARTESIAN_POINT('',(1.18110236220472,-0.47244094488189,0.15748031496063));
#569=CARTESIAN_POINT('Origin',(1.06299212598425,-0.47244094488189,0.15748031496063));
#570=CARTESIAN_POINT('',(1.18110236220472,-0.47244094488189,0.));
#571=CARTESIAN_POINT('Origin',(0.728346456692913,0.,0.));
#572=CARTESIAN_POINT('',(0.728346456692913,0.177165354330709,0.15748031496063));
#573=CARTESIAN_POINT('',(0.728346456692913,-0.177165354330709,0.15748031496063));
#574=CARTESIAN_POINT('Origin',(0.728346456692913,0.,0.15748031496063));
#575=CARTESIAN_POINT('',(0.728346456692913,0.177165354330709,0.));
#576=CARTESIAN_POINT('',(0.728346456692913,-0.177165354330709,0.));
#577=CARTESIAN_POINT('Origin',(0.728346456692913,-0.177165354330709,0.));
#578=CARTESIAN_POINT('',(0.452755905511811,-0.177165354330709,0.15748031496063));
#579=CARTESIAN_POINT('',(0.728346456692913,-0.177165354330709,0.15748031496063));
#580=CARTESIAN_POINT('',(0.452755905511811,-0.177165354330709,0.));
#581=CARTESIAN_POINT('Origin',(0.452755905511811,2.2610031496063E-17,0.));
#582=CARTESIAN_POINT('',(0.452755905511811,0.177165354330709,0.15748031496063));
#583=CARTESIAN_POINT('Origin',(0.452755905511811,2.2610031496063E-17,0.15748031496063));
#584=CARTESIAN_POINT('',(0.452755905511811,0.177165354330709,0.));
#585=CARTESIAN_POINT('Origin',(0.452755905511811,0.177165354330709,0.));
#586=CARTESIAN_POINT('',(0.452755905511811,0.177165354330709,0.15748031496063));
#587=CARTESIAN_POINT('Origin',(-0.452755905511811,0.,0.));
#588=CARTESIAN_POINT('',(-0.452755905511811,0.177165354330709,0.15748031496063));
#589=CARTESIAN_POINT('',(-0.452755905511811,-0.177165354330709,0.15748031496063));
#590=CARTESIAN_POINT('Origin',(-0.452755905511811,0.,0.15748031496063));
#591=CARTESIAN_POINT('',(-0.452755905511811,0.177165354330709,0.));
#592=CARTESIAN_POINT('',(-0.452755905511811,-0.177165354330709,0.));
#593=CARTESIAN_POINT('Origin',(-0.452755905511811,-0.177165354330709,0.));
#594=CARTESIAN_POINT('',(-0.728346456692913,-0.177165354330709,0.15748031496063));
#595=CARTESIAN_POINT('',(-0.452755905511811,-0.177165354330709,0.15748031496063));
#596=CARTESIAN_POINT('',(-0.728346456692913,-0.177165354330709,0.));
#597=CARTESIAN_POINT('Origin',(-0.728346456692913,2.2610031496063E-17,0.));
#598=CARTESIAN_POINT('',(-0.728346456692913,0.177165354330709,0.15748031496063));
#599=CARTESIAN_POINT('Origin',(-0.728346456692913,2.2610031496063E-17,0.15748031496063));
#600=CARTESIAN_POINT('',(-0.728346456692913,0.177165354330709,0.));
#601=CARTESIAN_POINT('Origin',(-0.728346456692913,0.177165354330709,0.));
#602=CARTESIAN_POINT('',(-0.728346456692913,0.177165354330709,0.15748031496063));
#603=CARTESIAN_POINT('Origin',(1.18110236220472,0.590551181102362,0.));
#604=CARTESIAN_POINT('',(1.18110236220472,0.47244094488189,0.15748031496063));
#605=CARTESIAN_POINT('Origin',(-1.18110236220472,-0.590551181102362,0.));
#606=CARTESIAN_POINT('',(-1.18110236220472,-0.47244094488189,0.15748031496063));
#607=CARTESIAN_POINT('Origin',(0.,2.64906456692913E-18,0.15748031496063));
#608=UNCERTAINTY_MEASURE_WITH_UNIT(LENGTH_MEASURE(0.000393700787401575),
#614,'DISTANCE_ACCURACY_VALUE',
'Maximum model space distance between geometric entities at asserted c
onnectivities');
#609=UNCERTAINTY_MEASURE_WITH_UNIT(LENGTH_MEASURE(0.000393700787401575),
#614,'DISTANCE_ACCURACY_VALUE',
'Maximum model space distance between geometric entities at asserted c
onnectivities');
#610=(
GEOMETRIC_REPRESENTATION_CONTEXT(3)
GLOBAL_UNCERTAINTY_ASSIGNED_CONTEXT((#608))
GLOBAL_UNIT_ASSIGNED_CONTEXT((#614,#618,#619))
REPRESENTATION_CONTEXT('','3D')
);
#611=(
GEOMETRIC_REPRESENTATION_CONTEXT(3)
GLOBAL_UNCERTAINTY_ASSIGNED_CONTEXT((#609))
GLOBAL_UNIT_ASSIGNED_CONTEXT((#614,#618,#619))
REPRESENTATION_CONTEXT('','3D')
);
#612=DIMENSIONAL_EXPONENTS(1.,0.,0.,0.,0.,0.,0.);
#613=DIMENSIONAL_EXPONENTS(0.,1.,0.,0.,0.,0.,0.);
#614=(
CONVERSION_BASED_UNIT('inch',#617)
LENGTH_UNIT()
NAMED_UNIT(#612)
);
#615=(
LENGTH_UNIT()
NAMED_UNIT(*)
SI_UNIT(.MILLI.,.METRE.)
);
#616=(
LENGTH_UNIT()
NAMED_UNIT(*)
SI_UNIT(.CENTI.,.METRE.)
);
#617=LENGTH_MEASURE_WITH_UNIT(LENGTH_MEASURE(25.4),#615);
#618=(
NAMED_UNIT(*)
PLANE_ANGLE_UNIT()
SI_UNIT($,.RADIAN.)
);
#619=(
NAMED_UNIT(*)
SI_UNIT($,.STERADIAN.)
SOLID_ANGLE_UNIT()
);
#620=SHAPE_DEFINITION_REPRESENTATION(#621,#622);
#621=PRODUCT_DEFINITION_SHAPE('',$,#624);
#622=SHAPE_REPRESENTATION('',(#372),#610);
#623=PRODUCT_DEFINITION_CONTEXT('part definition',#628,'design');
#624=PRODUCT_DEFINITION('1007794','1007794',#625,#623);
#625=PRODUCT_DEFINITION_FORMATION('',$,#630);
#626=PRODUCT_RELATED_PRODUCT_CATEGORY('1007794','1007794',(#630));
#627=APPLICATION_PROTOCOL_DEFINITION('international standard',
'automotive_design',2009,#628);
#628=APPLICATION_CONTEXT(
'Core Data for Automotive Mechanical Design Process');
#629=PRODUCT_CONTEXT('part definition',#628,'mechanical');
#630=PRODUCT('1007794','1007794',$,(#629));
#631=PRESENTATION_STYLE_ASSIGNMENT((#633));
#632=PRESENTATION_STYLE_ASSIGNMENT((#634));
#633=SURFACE_STYLE_USAGE(.BOTH.,#639);
#634=SURFACE_STYLE_USAGE(.BOTH.,#640);
#635=SURFACE_STYLE_RENDERING_WITH_PROPERTIES($,#647,(#637));
#636=SURFACE_STYLE_RENDERING_WITH_PROPERTIES($,#648,(#638));
#637=SURFACE_STYLE_TRANSPARENT(0.);
#638=SURFACE_STYLE_TRANSPARENT(0.);
#639=SURFACE_SIDE_STYLE('',(#641,#635));
#640=SURFACE_SIDE_STYLE('',(#642,#636));
#641=SURFACE_STYLE_FILL_AREA(#643);
#642=SURFACE_STYLE_FILL_AREA(#644);
#643=FILL_AREA_STYLE('',(#645));
#644=FILL_AREA_STYLE('',(#646));
#645=FILL_AREA_STYLE_COLOUR('',#647);
#646=FILL_AREA_STYLE_COLOUR('',#648);
#647=COLOUR_RGB('',0.749019607843137,0.749019607843137,0.749019607843137);
#648=COLOUR_RGB('',0.63921568627451,0.63921568627451,0.686274509803922);
ENDSEC;
END-ISO-10303-21;
