ISO-10303-21;
HEADER;
/* Generated by software containing ST-Developer
 * from STEP Tools, Inc. (www.steptools.com) 
 */

FILE_DESCRIPTION(
/* description */ (''),
/* implementation_level */ '2;1');

FILE_NAME(
/* name */ 
'C:\\Users\\b.steehouwer\\Desktop\\Producten\\ISB profielsysteem\\CAD-
files\\Profielverbinders\\Universele verbinders\\1007795.stp',
/* time_stamp */ '2024-04-30T16:37:56+02:00',
/* author */ ('b.steehouwer'),
/* organization */ (''),
/* preprocessor_version */ 'ST-DEVELOPER v18.1',
/* originating_system */ 'Autodesk Inventor 2021',
/* authorisation */ '');

FILE_SCHEMA (('AUTOMOTIVE_DESIGN { 1 0 10303 214 3 1 1 }'));
ENDSEC;

DATA;
#10=MECHANICAL_DESIGN_GEOMETRIC_PRESENTATION_REPRESENTATION('',(#20,#21),
#637);
#11=CONTEXT_DEPENDENT_OVER_RIDING_STYLED_ITEM('',(#661),#648,#21,(#15));
#12=MAPPED_ITEM('',#13,#421);
#13=REPRESENTATION_MAP(#421,#647);
#14=ITEM_DEFINED_TRANSFORMATION($,$,#385,#420);
#15=(
REPRESENTATION_RELATIONSHIP($,$,#648,#647)
REPRESENTATION_RELATIONSHIP_WITH_TRANSFORMATION(#14)
SHAPE_REPRESENTATION_RELATIONSHIP()
);
#16=CONTEXT_DEPENDENT_SHAPE_REPRESENTATION(#15,#646);
#17=NEXT_ASSEMBLY_USAGE_OCCURRENCE('1007795','1007795','1007795',#650,#651,
'1007795');
#18=SHAPE_REPRESENTATION_RELATIONSHIP('SRR','None',#648,#19);
#19=ADVANCED_BREP_SHAPE_REPRESENTATION('',(#22),#636);
#20=STYLED_ITEM('',(#663),#22);
#21=STYLED_ITEM('',(#664),#12);
#22=MANIFOLD_SOLID_BREP('Solid2',#359);
#23=FACE_BOUND('',#58,.T.);
#24=FACE_BOUND('',#59,.T.);
#25=FACE_BOUND('',#75,.T.);
#26=FACE_BOUND('',#76,.T.);
#27=PLANE('',#389);
#28=PLANE('',#390);
#29=PLANE('',#400);
#30=PLANE('',#407);
#31=PLANE('',#410);
#32=PLANE('',#413);
#33=PLANE('',#416);
#34=PLANE('',#417);
#35=PLANE('',#418);
#36=PLANE('',#419);
#37=FACE_OUTER_BOUND('',#55,.T.);
#38=FACE_OUTER_BOUND('',#56,.T.);
#39=FACE_OUTER_BOUND('',#57,.T.);
#40=FACE_OUTER_BOUND('',#60,.T.);
#41=FACE_OUTER_BOUND('',#61,.T.);
#42=FACE_OUTER_BOUND('',#62,.T.);
#43=FACE_OUTER_BOUND('',#63,.T.);
#44=FACE_OUTER_BOUND('',#64,.T.);
#45=FACE_OUTER_BOUND('',#65,.T.);
#46=FACE_OUTER_BOUND('',#66,.T.);
#47=FACE_OUTER_BOUND('',#67,.T.);
#48=FACE_OUTER_BOUND('',#68,.T.);
#49=FACE_OUTER_BOUND('',#69,.T.);
#50=FACE_OUTER_BOUND('',#70,.T.);
#51=FACE_OUTER_BOUND('',#71,.T.);
#52=FACE_OUTER_BOUND('',#72,.T.);
#53=FACE_OUTER_BOUND('',#73,.T.);
#54=FACE_OUTER_BOUND('',#74,.T.);
#55=EDGE_LOOP('',(#237,#238,#239,#240));
#56=EDGE_LOOP('',(#241,#242,#243,#244));
#57=EDGE_LOOP('',(#245,#246,#247,#248,#249,#250,#251,#252));
#58=EDGE_LOOP('',(#253,#254,#255,#256));
#59=EDGE_LOOP('',(#257,#258,#259,#260));
#60=EDGE_LOOP('',(#261,#262,#263,#264));
#61=EDGE_LOOP('',(#265,#266,#267,#268));
#62=EDGE_LOOP('',(#269,#270,#271,#272));
#63=EDGE_LOOP('',(#273,#274,#275,#276));
#64=EDGE_LOOP('',(#277,#278,#279,#280));
#65=EDGE_LOOP('',(#281,#282,#283,#284));
#66=EDGE_LOOP('',(#285,#286,#287,#288));
#67=EDGE_LOOP('',(#289,#290,#291,#292));
#68=EDGE_LOOP('',(#293,#294,#295,#296));
#69=EDGE_LOOP('',(#297,#298,#299,#300));
#70=EDGE_LOOP('',(#301,#302,#303,#304));
#71=EDGE_LOOP('',(#305,#306,#307,#308));
#72=EDGE_LOOP('',(#309,#310,#311,#312));
#73=EDGE_LOOP('',(#313,#314,#315,#316));
#74=EDGE_LOOP('',(#317,#318,#319,#320,#321,#322,#323,#324));
#75=EDGE_LOOP('',(#325,#326,#327,#328));
#76=EDGE_LOOP('',(#329,#330,#331,#332));
#77=LINE('',#537,#109);
#78=LINE('',#540,#110);
#79=LINE('',#543,#111);
#80=LINE('',#545,#112);
#81=LINE('',#546,#113);
#82=LINE('',#549,#114);
#83=LINE('',#553,#115);
#84=LINE('',#557,#116);
#85=LINE('',#563,#117);
#86=LINE('',#566,#118);
#87=LINE('',#571,#119);
#88=LINE('',#574,#120);
#89=LINE('',#579,#121);
#90=LINE('',#580,#122);
#91=LINE('',#583,#123);
#92=LINE('',#584,#124);
#93=LINE('',#588,#125);
#94=LINE('',#592,#126);
#95=LINE('',#597,#127);
#96=LINE('',#598,#128);
#97=LINE('',#601,#129);
#98=LINE('',#602,#130);
#99=LINE('',#606,#131);
#100=LINE('',#608,#132);
#101=LINE('',#613,#133);
#102=LINE('',#614,#134);
#103=LINE('',#617,#135);
#104=LINE('',#618,#136);
#105=LINE('',#622,#137);
#106=LINE('',#624,#138);
#107=LINE('',#626,#139);
#108=LINE('',#628,#140);
#109=VECTOR('',#430,10.);
#110=VECTOR('',#433,10.);
#111=VECTOR('',#436,10.);
#112=VECTOR('',#437,10.);
#113=VECTOR('',#438,10.);
#114=VECTOR('',#441,10.);
#115=VECTOR('',#444,10.);
#116=VECTOR('',#447,10.);
#117=VECTOR('',#452,10.);
#118=VECTOR('',#455,10.);
#119=VECTOR('',#458,10.);
#120=VECTOR('',#461,10.);
#121=VECTOR('',#466,10.);
#122=VECTOR('',#467,10.);
#123=VECTOR('',#470,10.);
#124=VECTOR('',#471,10.);
#125=VECTOR('',#476,10.);
#126=VECTOR('',#481,10.);
#127=VECTOR('',#486,10.);
#128=VECTOR('',#487,10.);
#129=VECTOR('',#490,10.);
#130=VECTOR('',#491,10.);
#131=VECTOR('',#496,10.);
#132=VECTOR('',#499,10.);
#133=VECTOR('',#504,10.);
#134=VECTOR('',#505,10.);
#135=VECTOR('',#508,10.);
#136=VECTOR('',#509,10.);
#137=VECTOR('',#514,10.);
#138=VECTOR('',#517,10.);
#139=VECTOR('',#520,10.);
#140=VECTOR('',#523,10.);
#141=CIRCLE('',#387,3.);
#142=CIRCLE('',#388,3.);
#143=CIRCLE('',#391,3.);
#144=CIRCLE('',#392,3.);
#145=CIRCLE('',#393,3.);
#146=CIRCLE('',#394,4.5);
#147=CIRCLE('',#395,4.5);
#148=CIRCLE('',#396,4.5);
#149=CIRCLE('',#397,4.5);
#150=CIRCLE('',#399,3.);
#151=CIRCLE('',#402,3.);
#152=CIRCLE('',#404,3.);
#153=CIRCLE('',#406,4.5);
#154=CIRCLE('',#409,4.5);
#155=CIRCLE('',#412,4.5);
#156=CIRCLE('',#415,4.5);
#157=VERTEX_POINT('',#533);
#158=VERTEX_POINT('',#534);
#159=VERTEX_POINT('',#536);
#160=VERTEX_POINT('',#538);
#161=VERTEX_POINT('',#542);
#162=VERTEX_POINT('',#544);
#163=VERTEX_POINT('',#548);
#164=VERTEX_POINT('',#550);
#165=VERTEX_POINT('',#552);
#166=VERTEX_POINT('',#554);
#167=VERTEX_POINT('',#556);
#168=VERTEX_POINT('',#559);
#169=VERTEX_POINT('',#560);
#170=VERTEX_POINT('',#562);
#171=VERTEX_POINT('',#564);
#172=VERTEX_POINT('',#567);
#173=VERTEX_POINT('',#568);
#174=VERTEX_POINT('',#570);
#175=VERTEX_POINT('',#572);
#176=VERTEX_POINT('',#576);
#177=VERTEX_POINT('',#577);
#178=VERTEX_POINT('',#582);
#179=VERTEX_POINT('',#586);
#180=VERTEX_POINT('',#590);
#181=VERTEX_POINT('',#594);
#182=VERTEX_POINT('',#595);
#183=VERTEX_POINT('',#600);
#184=VERTEX_POINT('',#604);
#185=VERTEX_POINT('',#610);
#186=VERTEX_POINT('',#611);
#187=VERTEX_POINT('',#616);
#188=VERTEX_POINT('',#620);
#189=EDGE_CURVE('',#157,#158,#141,.T.);
#190=EDGE_CURVE('',#158,#159,#77,.T.);
#191=EDGE_CURVE('',#159,#160,#142,.T.);
#192=EDGE_CURVE('',#160,#157,#78,.T.);
#193=EDGE_CURVE('',#161,#160,#79,.T.);
#194=EDGE_CURVE('',#162,#161,#80,.T.);
#195=EDGE_CURVE('',#162,#157,#81,.T.);
#196=EDGE_CURVE('',#159,#163,#82,.T.);
#197=EDGE_CURVE('',#164,#163,#143,.T.);
#198=EDGE_CURVE('',#164,#165,#83,.T.);
#199=EDGE_CURVE('',#166,#165,#144,.T.);
#200=EDGE_CURVE('',#166,#167,#84,.T.);
#201=EDGE_CURVE('',#161,#167,#145,.T.);
#202=EDGE_CURVE('',#168,#169,#146,.T.);
#203=EDGE_CURVE('',#169,#170,#85,.T.);
#204=EDGE_CURVE('',#170,#171,#147,.T.);
#205=EDGE_CURVE('',#171,#168,#86,.T.);
#206=EDGE_CURVE('',#172,#173,#148,.T.);
#207=EDGE_CURVE('',#173,#174,#87,.T.);
#208=EDGE_CURVE('',#174,#175,#149,.T.);
#209=EDGE_CURVE('',#175,#172,#88,.T.);
#210=EDGE_CURVE('',#176,#177,#150,.T.);
#211=EDGE_CURVE('',#177,#164,#89,.T.);
#212=EDGE_CURVE('',#163,#176,#90,.T.);
#213=EDGE_CURVE('',#177,#178,#91,.T.);
#214=EDGE_CURVE('',#165,#178,#92,.T.);
#215=EDGE_CURVE('',#178,#179,#151,.T.);
#216=EDGE_CURVE('',#179,#166,#93,.T.);
#217=EDGE_CURVE('',#180,#162,#152,.T.);
#218=EDGE_CURVE('',#167,#180,#94,.T.);
#219=EDGE_CURVE('',#181,#182,#153,.T.);
#220=EDGE_CURVE('',#169,#181,#95,.T.);
#221=EDGE_CURVE('',#168,#182,#96,.T.);
#222=EDGE_CURVE('',#182,#183,#97,.T.);
#223=EDGE_CURVE('',#171,#183,#98,.T.);
#224=EDGE_CURVE('',#183,#184,#154,.T.);
#225=EDGE_CURVE('',#170,#184,#99,.T.);
#226=EDGE_CURVE('',#184,#181,#100,.T.);
#227=EDGE_CURVE('',#185,#186,#155,.T.);
#228=EDGE_CURVE('',#173,#185,#101,.T.);
#229=EDGE_CURVE('',#172,#186,#102,.T.);
#230=EDGE_CURVE('',#186,#187,#103,.T.);
#231=EDGE_CURVE('',#175,#187,#104,.T.);
#232=EDGE_CURVE('',#187,#188,#156,.T.);
#233=EDGE_CURVE('',#174,#188,#105,.T.);
#234=EDGE_CURVE('',#188,#185,#106,.T.);
#235=EDGE_CURVE('',#179,#180,#107,.T.);
#236=EDGE_CURVE('',#158,#176,#108,.T.);
#237=ORIENTED_EDGE('',*,*,#189,.T.);
#238=ORIENTED_EDGE('',*,*,#190,.T.);
#239=ORIENTED_EDGE('',*,*,#191,.T.);
#240=ORIENTED_EDGE('',*,*,#192,.T.);
#241=ORIENTED_EDGE('',*,*,#192,.F.);
#242=ORIENTED_EDGE('',*,*,#193,.F.);
#243=ORIENTED_EDGE('',*,*,#194,.F.);
#244=ORIENTED_EDGE('',*,*,#195,.T.);
#245=ORIENTED_EDGE('',*,*,#191,.F.);
#246=ORIENTED_EDGE('',*,*,#196,.T.);
#247=ORIENTED_EDGE('',*,*,#197,.F.);
#248=ORIENTED_EDGE('',*,*,#198,.T.);
#249=ORIENTED_EDGE('',*,*,#199,.F.);
#250=ORIENTED_EDGE('',*,*,#200,.T.);
#251=ORIENTED_EDGE('',*,*,#201,.F.);
#252=ORIENTED_EDGE('',*,*,#193,.T.);
#253=ORIENTED_EDGE('',*,*,#202,.T.);
#254=ORIENTED_EDGE('',*,*,#203,.T.);
#255=ORIENTED_EDGE('',*,*,#204,.T.);
#256=ORIENTED_EDGE('',*,*,#205,.T.);
#257=ORIENTED_EDGE('',*,*,#206,.T.);
#258=ORIENTED_EDGE('',*,*,#207,.T.);
#259=ORIENTED_EDGE('',*,*,#208,.T.);
#260=ORIENTED_EDGE('',*,*,#209,.T.);
#261=ORIENTED_EDGE('',*,*,#210,.T.);
#262=ORIENTED_EDGE('',*,*,#211,.T.);
#263=ORIENTED_EDGE('',*,*,#197,.T.);
#264=ORIENTED_EDGE('',*,*,#212,.T.);
#265=ORIENTED_EDGE('',*,*,#211,.F.);
#266=ORIENTED_EDGE('',*,*,#213,.T.);
#267=ORIENTED_EDGE('',*,*,#214,.F.);
#268=ORIENTED_EDGE('',*,*,#198,.F.);
#269=ORIENTED_EDGE('',*,*,#215,.T.);
#270=ORIENTED_EDGE('',*,*,#216,.T.);
#271=ORIENTED_EDGE('',*,*,#199,.T.);
#272=ORIENTED_EDGE('',*,*,#214,.T.);
#273=ORIENTED_EDGE('',*,*,#217,.T.);
#274=ORIENTED_EDGE('',*,*,#194,.T.);
#275=ORIENTED_EDGE('',*,*,#201,.T.);
#276=ORIENTED_EDGE('',*,*,#218,.T.);
#277=ORIENTED_EDGE('',*,*,#219,.F.);
#278=ORIENTED_EDGE('',*,*,#220,.F.);
#279=ORIENTED_EDGE('',*,*,#202,.F.);
#280=ORIENTED_EDGE('',*,*,#221,.T.);
#281=ORIENTED_EDGE('',*,*,#222,.F.);
#282=ORIENTED_EDGE('',*,*,#221,.F.);
#283=ORIENTED_EDGE('',*,*,#205,.F.);
#284=ORIENTED_EDGE('',*,*,#223,.T.);
#285=ORIENTED_EDGE('',*,*,#224,.F.);
#286=ORIENTED_EDGE('',*,*,#223,.F.);
#287=ORIENTED_EDGE('',*,*,#204,.F.);
#288=ORIENTED_EDGE('',*,*,#225,.T.);
#289=ORIENTED_EDGE('',*,*,#226,.F.);
#290=ORIENTED_EDGE('',*,*,#225,.F.);
#291=ORIENTED_EDGE('',*,*,#203,.F.);
#292=ORIENTED_EDGE('',*,*,#220,.T.);
#293=ORIENTED_EDGE('',*,*,#227,.F.);
#294=ORIENTED_EDGE('',*,*,#228,.F.);
#295=ORIENTED_EDGE('',*,*,#206,.F.);
#296=ORIENTED_EDGE('',*,*,#229,.T.);
#297=ORIENTED_EDGE('',*,*,#230,.F.);
#298=ORIENTED_EDGE('',*,*,#229,.F.);
#299=ORIENTED_EDGE('',*,*,#209,.F.);
#300=ORIENTED_EDGE('',*,*,#231,.T.);
#301=ORIENTED_EDGE('',*,*,#232,.F.);
#302=ORIENTED_EDGE('',*,*,#231,.F.);
#303=ORIENTED_EDGE('',*,*,#208,.F.);
#304=ORIENTED_EDGE('',*,*,#233,.T.);
#305=ORIENTED_EDGE('',*,*,#234,.F.);
#306=ORIENTED_EDGE('',*,*,#233,.F.);
#307=ORIENTED_EDGE('',*,*,#207,.F.);
#308=ORIENTED_EDGE('',*,*,#228,.T.);
#309=ORIENTED_EDGE('',*,*,#216,.F.);
#310=ORIENTED_EDGE('',*,*,#235,.T.);
#311=ORIENTED_EDGE('',*,*,#218,.F.);
#312=ORIENTED_EDGE('',*,*,#200,.F.);
#313=ORIENTED_EDGE('',*,*,#190,.F.);
#314=ORIENTED_EDGE('',*,*,#236,.T.);
#315=ORIENTED_EDGE('',*,*,#212,.F.);
#316=ORIENTED_EDGE('',*,*,#196,.F.);
#317=ORIENTED_EDGE('',*,*,#189,.F.);
#318=ORIENTED_EDGE('',*,*,#195,.F.);
#319=ORIENTED_EDGE('',*,*,#217,.F.);
#320=ORIENTED_EDGE('',*,*,#235,.F.);
#321=ORIENTED_EDGE('',*,*,#215,.F.);
#322=ORIENTED_EDGE('',*,*,#213,.F.);
#323=ORIENTED_EDGE('',*,*,#210,.F.);
#324=ORIENTED_EDGE('',*,*,#236,.F.);
#325=ORIENTED_EDGE('',*,*,#219,.T.);
#326=ORIENTED_EDGE('',*,*,#222,.T.);
#327=ORIENTED_EDGE('',*,*,#224,.T.);
#328=ORIENTED_EDGE('',*,*,#226,.T.);
#329=ORIENTED_EDGE('',*,*,#227,.T.);
#330=ORIENTED_EDGE('',*,*,#230,.T.);
#331=ORIENTED_EDGE('',*,*,#232,.T.);
#332=ORIENTED_EDGE('',*,*,#234,.T.);
#333=CYLINDRICAL_SURFACE('',#386,3.);
#334=CYLINDRICAL_SURFACE('',#398,3.);
#335=CYLINDRICAL_SURFACE('',#401,3.);
#336=CYLINDRICAL_SURFACE('',#403,3.);
#337=CYLINDRICAL_SURFACE('',#405,4.5);
#338=CYLINDRICAL_SURFACE('',#408,4.5);
#339=CYLINDRICAL_SURFACE('',#411,4.5);
#340=CYLINDRICAL_SURFACE('',#414,4.5);
#341=ADVANCED_FACE('',(#37),#333,.T.);
#342=ADVANCED_FACE('',(#38),#27,.T.);
#343=ADVANCED_FACE('',(#39,#23,#24),#28,.F.);
#344=ADVANCED_FACE('',(#40),#334,.T.);
#345=ADVANCED_FACE('',(#41),#29,.T.);
#346=ADVANCED_FACE('',(#42),#335,.T.);
#347=ADVANCED_FACE('',(#43),#336,.T.);
#348=ADVANCED_FACE('',(#44),#337,.F.);
#349=ADVANCED_FACE('',(#45),#30,.F.);
#350=ADVANCED_FACE('',(#46),#338,.F.);
#351=ADVANCED_FACE('',(#47),#31,.F.);
#352=ADVANCED_FACE('',(#48),#339,.F.);
#353=ADVANCED_FACE('',(#49),#32,.F.);
#354=ADVANCED_FACE('',(#50),#340,.F.);
#355=ADVANCED_FACE('',(#51),#33,.F.);
#356=ADVANCED_FACE('',(#52),#34,.T.);
#357=ADVANCED_FACE('',(#53),#35,.T.);
#358=ADVANCED_FACE('',(#54,#25,#26),#36,.T.);
#359=CLOSED_SHELL('',(#341,#342,#343,#344,#345,#346,#347,#348,#349,#350,
#351,#352,#353,#354,#355,#356,#357,#358));
#360=DERIVED_UNIT_ELEMENT(#362,1.);
#361=DERIVED_UNIT_ELEMENT(#639,-3.);
#362=(
MASS_UNIT()
NAMED_UNIT(*)
SI_UNIT($,.GRAM.)
);
#363=DERIVED_UNIT((#360,#361));
#364=MEASURE_REPRESENTATION_ITEM('density measure',
POSITIVE_RATIO_MEASURE(7.85),#363);
#365=PROPERTY_DEFINITION_REPRESENTATION(#370,#367);
#366=PROPERTY_DEFINITION_REPRESENTATION(#371,#368);
#367=REPRESENTATION('material name',(#369),#636);
#368=REPRESENTATION('density',(#364),#636);
#369=DESCRIPTIVE_REPRESENTATION_ITEM('Steel','Steel');
#370=PROPERTY_DEFINITION('material property','material name',#651);
#371=PROPERTY_DEFINITION('material property','density of part',#651);
#372=DATE_TIME_ROLE('creation_date');
#373=DATE_TIME_ROLE('creation_date');
#374=APPLIED_DATE_AND_TIME_ASSIGNMENT(#376,#372,(#650));
#375=APPLIED_DATE_AND_TIME_ASSIGNMENT(#377,#373,(#651));
#376=DATE_AND_TIME(#378,#380);
#377=DATE_AND_TIME(#379,#381);
#378=CALENDAR_DATE(2023,25,9);
#379=CALENDAR_DATE(2023,28,3);
#380=LOCAL_TIME(12,12,40.,#382);
#381=LOCAL_TIME(0,0,0.,#383);
#382=COORDINATED_UNIVERSAL_TIME_OFFSET(0,0,.BEHIND.);
#383=COORDINATED_UNIVERSAL_TIME_OFFSET(0,0,.BEHIND.);
#384=AXIS2_PLACEMENT_3D('placement',#530,#422,#423);
#385=AXIS2_PLACEMENT_3D('placement',#531,#424,#425);
#386=AXIS2_PLACEMENT_3D('',#532,#426,#427);
#387=AXIS2_PLACEMENT_3D('',#535,#428,#429);
#388=AXIS2_PLACEMENT_3D('',#539,#431,#432);
#389=AXIS2_PLACEMENT_3D('',#541,#434,#435);
#390=AXIS2_PLACEMENT_3D('',#547,#439,#440);
#391=AXIS2_PLACEMENT_3D('',#551,#442,#443);
#392=AXIS2_PLACEMENT_3D('',#555,#445,#446);
#393=AXIS2_PLACEMENT_3D('',#558,#448,#449);
#394=AXIS2_PLACEMENT_3D('',#561,#450,#451);
#395=AXIS2_PLACEMENT_3D('',#565,#453,#454);
#396=AXIS2_PLACEMENT_3D('',#569,#456,#457);
#397=AXIS2_PLACEMENT_3D('',#573,#459,#460);
#398=AXIS2_PLACEMENT_3D('',#575,#462,#463);
#399=AXIS2_PLACEMENT_3D('',#578,#464,#465);
#400=AXIS2_PLACEMENT_3D('',#581,#468,#469);
#401=AXIS2_PLACEMENT_3D('',#585,#472,#473);
#402=AXIS2_PLACEMENT_3D('',#587,#474,#475);
#403=AXIS2_PLACEMENT_3D('',#589,#477,#478);
#404=AXIS2_PLACEMENT_3D('',#591,#479,#480);
#405=AXIS2_PLACEMENT_3D('',#593,#482,#483);
#406=AXIS2_PLACEMENT_3D('',#596,#484,#485);
#407=AXIS2_PLACEMENT_3D('',#599,#488,#489);
#408=AXIS2_PLACEMENT_3D('',#603,#492,#493);
#409=AXIS2_PLACEMENT_3D('',#605,#494,#495);
#410=AXIS2_PLACEMENT_3D('',#607,#497,#498);
#411=AXIS2_PLACEMENT_3D('',#609,#500,#501);
#412=AXIS2_PLACEMENT_3D('',#612,#502,#503);
#413=AXIS2_PLACEMENT_3D('',#615,#506,#507);
#414=AXIS2_PLACEMENT_3D('',#619,#510,#511);
#415=AXIS2_PLACEMENT_3D('',#621,#512,#513);
#416=AXIS2_PLACEMENT_3D('',#623,#515,#516);
#417=AXIS2_PLACEMENT_3D('',#625,#518,#519);
#418=AXIS2_PLACEMENT_3D('',#627,#521,#522);
#419=AXIS2_PLACEMENT_3D('',#629,#524,#525);
#420=AXIS2_PLACEMENT_3D('',#630,#526,#527);
#421=AXIS2_PLACEMENT_3D('',#631,#528,#529);
#422=DIRECTION('axis',(0.,0.,1.));
#423=DIRECTION('refdir',(1.,0.,0.));
#424=DIRECTION('axis',(0.,0.,1.));
#425=DIRECTION('refdir',(1.,0.,0.));
#426=DIRECTION('center_axis',(0.,0.,1.));
#427=DIRECTION('ref_axis',(-0.707106781186547,-0.707106781186548,0.));
#428=DIRECTION('center_axis',(0.,0.,-1.));
#429=DIRECTION('ref_axis',(-0.707106781186547,-0.707106781186548,0.));
#430=DIRECTION('',(0.,0.,-1.));
#431=DIRECTION('center_axis',(0.,0.,1.));
#432=DIRECTION('ref_axis',(-0.707106781186547,-0.707106781186548,0.));
#433=DIRECTION('',(0.,0.,1.));
#434=DIRECTION('center_axis',(0.,-1.,0.));
#435=DIRECTION('ref_axis',(0.,0.,-1.));
#436=DIRECTION('',(-1.,0.,0.));
#437=DIRECTION('',(0.,0.,-1.));
#438=DIRECTION('',(-1.,0.,0.));
#439=DIRECTION('center_axis',(0.,0.,1.));
#440=DIRECTION('ref_axis',(1.,0.,0.));
#441=DIRECTION('',(0.,1.,0.));
#442=DIRECTION('center_axis',(0.,0.,1.));
#443=DIRECTION('ref_axis',(-0.707106781186547,0.707106781186547,0.));
#444=DIRECTION('',(1.,0.,0.));
#445=DIRECTION('center_axis',(0.,0.,1.));
#446=DIRECTION('ref_axis',(0.707106781186547,0.707106781186548,0.));
#447=DIRECTION('',(0.,-1.,0.));
#448=DIRECTION('center_axis',(0.,0.,1.));
#449=DIRECTION('ref_axis',(0.707106781186547,-0.707106781186547,0.));
#450=DIRECTION('center_axis',(0.,0.,1.));
#451=DIRECTION('ref_axis',(0.,1.,0.));
#452=DIRECTION('',(-1.,0.,0.));
#453=DIRECTION('center_axis',(0.,0.,1.));
#454=DIRECTION('ref_axis',(0.,-1.,0.));
#455=DIRECTION('',(1.,0.,0.));
#456=DIRECTION('center_axis',(0.,0.,1.));
#457=DIRECTION('ref_axis',(-4.93432455388958E-16,1.,0.));
#458=DIRECTION('',(-1.,0.,0.));
#459=DIRECTION('center_axis',(0.,0.,1.));
#460=DIRECTION('ref_axis',(0.,-1.,0.));
#461=DIRECTION('',(1.,0.,0.));
#462=DIRECTION('center_axis',(0.,0.,1.));
#463=DIRECTION('ref_axis',(-0.707106781186547,0.707106781186547,0.));
#464=DIRECTION('center_axis',(0.,0.,-1.));
#465=DIRECTION('ref_axis',(-0.707106781186547,0.707106781186547,0.));
#466=DIRECTION('',(0.,0.,-1.));
#467=DIRECTION('',(0.,0.,1.));
#468=DIRECTION('center_axis',(0.,1.,0.));
#469=DIRECTION('ref_axis',(0.,0.,1.));
#470=DIRECTION('',(1.,0.,0.));
#471=DIRECTION('',(0.,0.,1.));
#472=DIRECTION('center_axis',(0.,0.,1.));
#473=DIRECTION('ref_axis',(0.707106781186547,0.707106781186548,0.));
#474=DIRECTION('center_axis',(0.,0.,-1.));
#475=DIRECTION('ref_axis',(0.707106781186547,0.707106781186548,0.));
#476=DIRECTION('',(0.,0.,-1.));
#477=DIRECTION('center_axis',(0.,0.,1.));
#478=DIRECTION('ref_axis',(0.707106781186547,-0.707106781186547,0.));
#479=DIRECTION('center_axis',(0.,0.,-1.));
#480=DIRECTION('ref_axis',(0.707106781186547,-0.707106781186547,0.));
#481=DIRECTION('',(0.,0.,1.));
#482=DIRECTION('center_axis',(0.,0.,1.));
#483=DIRECTION('ref_axis',(0.,1.,0.));
#484=DIRECTION('center_axis',(0.,0.,-1.));
#485=DIRECTION('ref_axis',(0.,1.,0.));
#486=DIRECTION('',(0.,0.,1.));
#487=DIRECTION('',(0.,0.,1.));
#488=DIRECTION('center_axis',(0.,-1.,0.));
#489=DIRECTION('ref_axis',(0.,0.,-1.));
#490=DIRECTION('',(-1.,0.,0.));
#491=DIRECTION('',(0.,0.,1.));
#492=DIRECTION('center_axis',(0.,0.,1.));
#493=DIRECTION('ref_axis',(0.,-1.,0.));
#494=DIRECTION('center_axis',(0.,0.,-1.));
#495=DIRECTION('ref_axis',(0.,-1.,0.));
#496=DIRECTION('',(0.,0.,1.));
#497=DIRECTION('center_axis',(0.,1.,0.));
#498=DIRECTION('ref_axis',(0.,0.,1.));
#499=DIRECTION('',(1.,0.,0.));
#500=DIRECTION('center_axis',(0.,0.,1.));
#501=DIRECTION('ref_axis',(-4.93432455388958E-16,1.,0.));
#502=DIRECTION('center_axis',(0.,0.,-1.));
#503=DIRECTION('ref_axis',(-4.93432455388958E-16,1.,0.));
#504=DIRECTION('',(0.,0.,1.));
#505=DIRECTION('',(0.,0.,1.));
#506=DIRECTION('center_axis',(0.,-1.,0.));
#507=DIRECTION('ref_axis',(0.,0.,-1.));
#508=DIRECTION('',(-1.,0.,0.));
#509=DIRECTION('',(0.,0.,1.));
#510=DIRECTION('center_axis',(0.,0.,1.));
#511=DIRECTION('ref_axis',(0.,-1.,0.));
#512=DIRECTION('center_axis',(0.,0.,-1.));
#513=DIRECTION('ref_axis',(0.,-1.,0.));
#514=DIRECTION('',(0.,0.,1.));
#515=DIRECTION('center_axis',(0.,1.,0.));
#516=DIRECTION('ref_axis',(0.,0.,1.));
#517=DIRECTION('',(1.,0.,0.));
#518=DIRECTION('center_axis',(1.,0.,0.));
#519=DIRECTION('ref_axis',(0.,0.,-1.));
#520=DIRECTION('',(0.,-1.,0.));
#521=DIRECTION('center_axis',(-1.,0.,0.));
#522=DIRECTION('ref_axis',(0.,0.,1.));
#523=DIRECTION('',(0.,1.,0.));
#524=DIRECTION('center_axis',(0.,0.,1.));
#525=DIRECTION('ref_axis',(1.,0.,0.));
#526=DIRECTION('',(0.,0.,1.));
#527=DIRECTION('',(1.,0.,0.));
#528=DIRECTION('center_axis',(0.,0.,1.));
#529=DIRECTION('ref_axis',(1.,0.,0.));
#530=CARTESIAN_POINT('',(0.,0.,0.));
#531=CARTESIAN_POINT('',(0.,0.,0.));
#532=CARTESIAN_POINT('Origin',(-37.,-17.,0.));
#533=CARTESIAN_POINT('',(-37.,-20.,5.));
#534=CARTESIAN_POINT('',(-40.,-17.,5.));
#535=CARTESIAN_POINT('Origin',(-37.,-17.,5.));
#536=CARTESIAN_POINT('',(-40.,-17.,0.));
#537=CARTESIAN_POINT('',(-40.,-17.,0.));
#538=CARTESIAN_POINT('',(-37.,-20.,0.));
#539=CARTESIAN_POINT('Origin',(-37.,-17.,0.));
#540=CARTESIAN_POINT('',(-37.,-20.,0.));
#541=CARTESIAN_POINT('Origin',(40.,-20.,0.));
#542=CARTESIAN_POINT('',(37.,-20.,0.));
#543=CARTESIAN_POINT('',(40.,-20.,0.));
#544=CARTESIAN_POINT('',(37.,-20.,5.));
#545=CARTESIAN_POINT('',(37.,-20.,0.));
#546=CARTESIAN_POINT('',(40.,-20.,5.));
#547=CARTESIAN_POINT('Origin',(0.,2.01858731750028E-16,0.));
#548=CARTESIAN_POINT('',(-40.,17.,0.));
#549=CARTESIAN_POINT('',(-40.,-20.,0.));
#550=CARTESIAN_POINT('',(-37.,20.,0.));
#551=CARTESIAN_POINT('Origin',(-37.,17.,0.));
#552=CARTESIAN_POINT('',(37.,20.,0.));
#553=CARTESIAN_POINT('',(-40.,20.,0.));
#554=CARTESIAN_POINT('',(40.,17.,0.));
#555=CARTESIAN_POINT('Origin',(37.,17.,0.));
#556=CARTESIAN_POINT('',(40.,-17.,0.));
#557=CARTESIAN_POINT('',(40.,20.,0.));
#558=CARTESIAN_POINT('Origin',(37.,-17.,0.));
#559=CARTESIAN_POINT('',(23.5,-4.5,0.));
#560=CARTESIAN_POINT('',(23.5,4.5,0.));
#561=CARTESIAN_POINT('Origin',(23.5,0.,0.));
#562=CARTESIAN_POINT('',(16.5,4.5,0.));
#563=CARTESIAN_POINT('',(8.25,4.5,0.));
#564=CARTESIAN_POINT('',(16.5,-4.5,0.));
#565=CARTESIAN_POINT('Origin',(16.5,3.81349762088858E-16,0.));
#566=CARTESIAN_POINT('',(11.75,-4.5,0.));
#567=CARTESIAN_POINT('',(-16.5,-4.5,0.));
#568=CARTESIAN_POINT('',(-16.5,4.5,0.));
#569=CARTESIAN_POINT('Origin',(-16.5,0.,0.));
#570=CARTESIAN_POINT('',(-23.5,4.5,0.));
#571=CARTESIAN_POINT('',(-11.75,4.5,0.));
#572=CARTESIAN_POINT('',(-23.5,-4.5,0.));
#573=CARTESIAN_POINT('Origin',(-23.5,3.81349762088858E-16,0.));
#574=CARTESIAN_POINT('',(-8.25,-4.5,0.));
#575=CARTESIAN_POINT('Origin',(-37.,17.,0.));
#576=CARTESIAN_POINT('',(-40.,17.,5.));
#577=CARTESIAN_POINT('',(-37.,20.,5.));
#578=CARTESIAN_POINT('Origin',(-37.,17.,5.));
#579=CARTESIAN_POINT('',(-37.,20.,0.));
#580=CARTESIAN_POINT('',(-40.,17.,0.));
#581=CARTESIAN_POINT('Origin',(-40.,20.,0.));
#582=CARTESIAN_POINT('',(37.,20.,5.));
#583=CARTESIAN_POINT('',(-40.,20.,5.));
#584=CARTESIAN_POINT('',(37.,20.,0.));
#585=CARTESIAN_POINT('Origin',(37.,17.,0.));
#586=CARTESIAN_POINT('',(40.,17.,5.));
#587=CARTESIAN_POINT('Origin',(37.,17.,5.));
#588=CARTESIAN_POINT('',(40.,17.,0.));
#589=CARTESIAN_POINT('Origin',(37.,-17.,0.));
#590=CARTESIAN_POINT('',(40.,-17.,5.));
#591=CARTESIAN_POINT('Origin',(37.,-17.,5.));
#592=CARTESIAN_POINT('',(40.,-17.,0.));
#593=CARTESIAN_POINT('Origin',(23.5,0.,0.));
#594=CARTESIAN_POINT('',(23.5,4.5,5.));
#595=CARTESIAN_POINT('',(23.5,-4.5,5.));
#596=CARTESIAN_POINT('Origin',(23.5,0.,5.));
#597=CARTESIAN_POINT('',(23.5,4.5,0.));
#598=CARTESIAN_POINT('',(23.5,-4.5,0.));
#599=CARTESIAN_POINT('Origin',(23.5,-4.5,0.));
#600=CARTESIAN_POINT('',(16.5,-4.5,5.));
#601=CARTESIAN_POINT('',(11.75,-4.5,5.));
#602=CARTESIAN_POINT('',(16.5,-4.5,0.));
#603=CARTESIAN_POINT('Origin',(16.5,3.81349762088858E-16,0.));
#604=CARTESIAN_POINT('',(16.5,4.5,5.));
#605=CARTESIAN_POINT('Origin',(16.5,3.81349762088858E-16,5.));
#606=CARTESIAN_POINT('',(16.5,4.5,0.));
#607=CARTESIAN_POINT('Origin',(16.5,4.5,0.));
#608=CARTESIAN_POINT('',(8.25,4.5,5.));
#609=CARTESIAN_POINT('Origin',(-16.5,0.,0.));
#610=CARTESIAN_POINT('',(-16.5,4.5,5.));
#611=CARTESIAN_POINT('',(-16.5,-4.5,5.));
#612=CARTESIAN_POINT('Origin',(-16.5,0.,5.));
#613=CARTESIAN_POINT('',(-16.5,4.5,0.));
#614=CARTESIAN_POINT('',(-16.5,-4.5,0.));
#615=CARTESIAN_POINT('Origin',(-16.5,-4.5,0.));
#616=CARTESIAN_POINT('',(-23.5,-4.5,5.));
#617=CARTESIAN_POINT('',(-8.25,-4.5,5.));
#618=CARTESIAN_POINT('',(-23.5,-4.5,0.));
#619=CARTESIAN_POINT('Origin',(-23.5,3.81349762088858E-16,0.));
#620=CARTESIAN_POINT('',(-23.5,4.5,5.));
#621=CARTESIAN_POINT('Origin',(-23.5,3.81349762088858E-16,5.));
#622=CARTESIAN_POINT('',(-23.5,4.5,0.));
#623=CARTESIAN_POINT('Origin',(-23.5,4.5,0.));
#624=CARTESIAN_POINT('',(-11.75,4.5,5.));
#625=CARTESIAN_POINT('Origin',(40.,20.,0.));
#626=CARTESIAN_POINT('',(40.,20.,5.));
#627=CARTESIAN_POINT('Origin',(-40.,-20.,0.));
#628=CARTESIAN_POINT('',(-40.,-20.,5.));
#629=CARTESIAN_POINT('Origin',(0.,-2.01858731750028E-16,5.));
#630=CARTESIAN_POINT('',(0.,0.,0.));
#631=CARTESIAN_POINT('Origin',(0.,0.,0.));
#632=UNCERTAINTY_MEASURE_WITH_UNIT(LENGTH_MEASURE(0.01),#638,
'DISTANCE_ACCURACY_VALUE',
'Maximum model space distance between geometric entities at asserted c
onnectivities');
#633=UNCERTAINTY_MEASURE_WITH_UNIT(LENGTH_MEASURE(0.01),#638,
'DISTANCE_ACCURACY_VALUE',
'Maximum model space distance between geometric entities at asserted c
onnectivities');
#634=UNCERTAINTY_MEASURE_WITH_UNIT(LENGTH_MEASURE(0.01),#638,
'DISTANCE_ACCURACY_VALUE',
'Maximum model space distance between geometric entities at asserted c
onnectivities');
#635=(
GEOMETRIC_REPRESENTATION_CONTEXT(3)
GLOBAL_UNCERTAINTY_ASSIGNED_CONTEXT((#632))
GLOBAL_UNIT_ASSIGNED_CONTEXT((#638,#640,#641))
REPRESENTATION_CONTEXT('','3D')
);
#636=(
GEOMETRIC_REPRESENTATION_CONTEXT(3)
GLOBAL_UNCERTAINTY_ASSIGNED_CONTEXT((#633))
GLOBAL_UNIT_ASSIGNED_CONTEXT((#638,#640,#641))
REPRESENTATION_CONTEXT('','3D')
);
#637=(
GEOMETRIC_REPRESENTATION_CONTEXT(3)
GLOBAL_UNCERTAINTY_ASSIGNED_CONTEXT((#634))
GLOBAL_UNIT_ASSIGNED_CONTEXT((#638,#640,#641))
REPRESENTATION_CONTEXT('','3D')
);
#638=(
LENGTH_UNIT()
NAMED_UNIT(*)
SI_UNIT(.MILLI.,.METRE.)
);
#639=(
LENGTH_UNIT()
NAMED_UNIT(*)
SI_UNIT(.CENTI.,.METRE.)
);
#640=(
NAMED_UNIT(*)
PLANE_ANGLE_UNIT()
SI_UNIT($,.RADIAN.)
);
#641=(
NAMED_UNIT(*)
SI_UNIT($,.STERADIAN.)
SOLID_ANGLE_UNIT()
);
#642=SHAPE_DEFINITION_REPRESENTATION(#644,#647);
#643=SHAPE_DEFINITION_REPRESENTATION(#645,#648);
#644=PRODUCT_DEFINITION_SHAPE('',$,#650);
#645=PRODUCT_DEFINITION_SHAPE('',$,#651);
#646=PRODUCT_DEFINITION_SHAPE($,$,#17);
#647=SHAPE_REPRESENTATION('',(#384,#420),#635);
#648=SHAPE_REPRESENTATION('',(#385),#636);
#649=PRODUCT_DEFINITION_CONTEXT('part definition',#657,'design');
#650=PRODUCT_DEFINITION('1007795','1007795',#652,#649);
#651=PRODUCT_DEFINITION('1007795_1','1007795',#653,#649);
#652=PRODUCT_DEFINITION_FORMATION('',$,#659);
#653=PRODUCT_DEFINITION_FORMATION('',$,#660);
#654=PRODUCT_RELATED_PRODUCT_CATEGORY('1007795','1007795',(#659));
#655=PRODUCT_RELATED_PRODUCT_CATEGORY('1007795','1007795',(#660));
#656=APPLICATION_PROTOCOL_DEFINITION('international standard',
'automotive_design',2009,#657);
#657=APPLICATION_CONTEXT(
'Core Data for Automotive Mechanical Design Process');
#658=PRODUCT_CONTEXT('part definition',#657,'mechanical');
#659=PRODUCT('1007795','1007795',$,(#658));
#660=PRODUCT('1007795_1','1007795',$,(#658));
#661=PRESENTATION_STYLE_ASSIGNMENT((#665));
#662=PRESENTATION_STYLE_ASSIGNMENT((#666));
#663=PRESENTATION_STYLE_ASSIGNMENT((#667));
#664=PRESENTATION_STYLE_ASSIGNMENT((NULL_STYLE(.NULL.)));
#665=SURFACE_STYLE_USAGE(.BOTH.,#674);
#666=SURFACE_STYLE_USAGE(.BOTH.,#675);
#667=SURFACE_STYLE_USAGE(.BOTH.,#676);
#668=SURFACE_STYLE_RENDERING_WITH_PROPERTIES($,#686,(#671));
#669=SURFACE_STYLE_RENDERING_WITH_PROPERTIES($,#687,(#672));
#670=SURFACE_STYLE_RENDERING_WITH_PROPERTIES($,#688,(#673));
#671=SURFACE_STYLE_TRANSPARENT(0.);
#672=SURFACE_STYLE_TRANSPARENT(0.);
#673=SURFACE_STYLE_TRANSPARENT(0.);
#674=SURFACE_SIDE_STYLE('',(#677,#668));
#675=SURFACE_SIDE_STYLE('',(#678,#669));
#676=SURFACE_SIDE_STYLE('',(#679,#670));
#677=SURFACE_STYLE_FILL_AREA(#680);
#678=SURFACE_STYLE_FILL_AREA(#681);
#679=SURFACE_STYLE_FILL_AREA(#682);
#680=FILL_AREA_STYLE('',(#683));
#681=FILL_AREA_STYLE('',(#684));
#682=FILL_AREA_STYLE('',(#685));
#683=FILL_AREA_STYLE_COLOUR('',#686);
#684=FILL_AREA_STYLE_COLOUR('',#687);
#685=FILL_AREA_STYLE_COLOUR('',#688);
#686=COLOUR_RGB('',0.305882352941176,0.305882352941176,0.294117647058824);
#687=COLOUR_RGB('',0.749019607843137,0.749019607843137,0.749019607843137);
#688=COLOUR_RGB('',0.305882352941176,0.305882352941176,0.294117647058824);
ENDSEC;
END-ISO-10303-21;
