ISO-10303-21;
HEADER;
/* Generated by software containing ST-Developer
 * from STEP Tools, Inc. (www.steptools.com) 
 */

FILE_DESCRIPTION(
/* description */ ('Verbinderplaat VP40L'),
/* implementation_level */ '2;1');

FILE_NAME(
/* name */ 'E:\\Workspace\\Tekening\\TEC sheet\\STEP\\1007800.stp',
/* time_stamp */ '2023-09-25T11:38:23+02:00',
/* author */ ('t.boerboom'),
/* organization */ (''),
/* preprocessor_version */ 'ST-DEVELOPER v18.1',
/* originating_system */ 'Autodesk Inventor 2021',
/* authorisation */ '');

FILE_SCHEMA (('AUTOMOTIVE_DESIGN { 1 0 10303 214 3 1 1 }'));
ENDSEC;

DATA;
#10=MECHANICAL_DESIGN_GEOMETRIC_PRESENTATION_REPRESENTATION('',(#13),#592);
#11=SHAPE_REPRESENTATION_RELATIONSHIP('SRR','None',#599,#12);
#12=ADVANCED_BREP_SHAPE_REPRESENTATION('',(#14),#591);
#13=STYLED_ITEM('',(#608),#14);
#14=MANIFOLD_SOLID_BREP('Solid1',#338);
#15=FACE_BOUND('',#52,.T.);
#16=FACE_BOUND('',#53,.T.);
#17=FACE_BOUND('',#54,.T.);
#18=FACE_BOUND('',#55,.T.);
#19=FACE_BOUND('',#56,.T.);
#20=FACE_BOUND('',#71,.T.);
#21=FACE_BOUND('',#72,.T.);
#22=FACE_BOUND('',#73,.T.);
#23=FACE_BOUND('',#74,.T.);
#24=FACE_BOUND('',#75,.T.);
#25=PLANE('',#361);
#26=PLANE('',#362);
#27=PLANE('',#374);
#28=PLANE('',#379);
#29=PLANE('',#392);
#30=PLANE('',#393);
#31=PLANE('',#394);
#32=FACE_OUTER_BOUND('',#49,.T.);
#33=FACE_OUTER_BOUND('',#50,.T.);
#34=FACE_OUTER_BOUND('',#51,.T.);
#35=FACE_OUTER_BOUND('',#57,.T.);
#36=FACE_OUTER_BOUND('',#58,.T.);
#37=FACE_OUTER_BOUND('',#59,.T.);
#38=FACE_OUTER_BOUND('',#60,.T.);
#39=FACE_OUTER_BOUND('',#61,.T.);
#40=FACE_OUTER_BOUND('',#62,.T.);
#41=FACE_OUTER_BOUND('',#63,.T.);
#42=FACE_OUTER_BOUND('',#64,.T.);
#43=FACE_OUTER_BOUND('',#65,.T.);
#44=FACE_OUTER_BOUND('',#66,.T.);
#45=FACE_OUTER_BOUND('',#67,.T.);
#46=FACE_OUTER_BOUND('',#68,.T.);
#47=FACE_OUTER_BOUND('',#69,.T.);
#48=FACE_OUTER_BOUND('',#70,.T.);
#49=EDGE_LOOP('',(#221,#222,#223,#224));
#50=EDGE_LOOP('',(#225,#226,#227,#228));
#51=EDGE_LOOP('',(#229,#230,#231,#232,#233,#234,#235,#236,#237,#238));
#52=EDGE_LOOP('',(#239));
#53=EDGE_LOOP('',(#240));
#54=EDGE_LOOP('',(#241));
#55=EDGE_LOOP('',(#242));
#56=EDGE_LOOP('',(#243));
#57=EDGE_LOOP('',(#244,#245,#246,#247));
#58=EDGE_LOOP('',(#248,#249,#250,#251));
#59=EDGE_LOOP('',(#252,#253,#254,#255));
#60=EDGE_LOOP('',(#256,#257,#258,#259));
#61=EDGE_LOOP('',(#260,#261,#262,#263));
#62=EDGE_LOOP('',(#264,#265,#266,#267));
#63=EDGE_LOOP('',(#268,#269,#270,#271));
#64=EDGE_LOOP('',(#272,#273,#274,#275));
#65=EDGE_LOOP('',(#276,#277,#278,#279));
#66=EDGE_LOOP('',(#280,#281,#282,#283));
#67=EDGE_LOOP('',(#284,#285,#286,#287));
#68=EDGE_LOOP('',(#288,#289,#290,#291));
#69=EDGE_LOOP('',(#292,#293,#294,#295));
#70=EDGE_LOOP('',(#296,#297,#298,#299,#300,#301,#302,#303,#304,#305));
#71=EDGE_LOOP('',(#306));
#72=EDGE_LOOP('',(#307));
#73=EDGE_LOOP('',(#308));
#74=EDGE_LOOP('',(#309));
#75=EDGE_LOOP('',(#310));
#76=LINE('',#502,#101);
#77=LINE('',#505,#102);
#78=LINE('',#508,#103);
#79=LINE('',#510,#104);
#80=LINE('',#511,#105);
#81=LINE('',#514,#106);
#82=LINE('',#518,#107);
#83=LINE('',#522,#108);
#84=LINE('',#526,#109);
#85=LINE('',#540,#110);
#86=LINE('',#543,#111);
#87=LINE('',#546,#112);
#88=LINE('',#547,#113);
#89=LINE('',#551,#114);
#90=LINE('',#554,#115);
#91=LINE('',#558,#116);
#92=LINE('',#559,#117);
#93=LINE('',#562,#118);
#94=LINE('',#567,#119);
#95=LINE('',#571,#120);
#96=LINE('',#575,#121);
#97=LINE('',#579,#122);
#98=LINE('',#583,#123);
#99=LINE('',#585,#124);
#100=LINE('',#587,#125);
#101=VECTOR('',#401,10.);
#102=VECTOR('',#404,10.);
#103=VECTOR('',#407,10.);
#104=VECTOR('',#408,10.);
#105=VECTOR('',#409,10.);
#106=VECTOR('',#412,10.);
#107=VECTOR('',#415,10.);
#108=VECTOR('',#418,10.);
#109=VECTOR('',#421,10.);
#110=VECTOR('',#436,10.);
#111=VECTOR('',#439,10.);
#112=VECTOR('',#442,10.);
#113=VECTOR('',#443,10.);
#114=VECTOR('',#448,10.);
#115=VECTOR('',#451,10.);
#116=VECTOR('',#456,10.);
#117=VECTOR('',#457,10.);
#118=VECTOR('',#460,10.);
#119=VECTOR('',#467,4.5);
#120=VECTOR('',#472,4.5);
#121=VECTOR('',#477,4.5);
#122=VECTOR('',#482,4.5);
#123=VECTOR('',#487,4.5);
#124=VECTOR('',#490,10.);
#125=VECTOR('',#493,10.);
#126=CIRCLE('',#359,2.);
#127=CIRCLE('',#360,2.);
#128=CIRCLE('',#363,2.);
#129=CIRCLE('',#364,2.);
#130=CIRCLE('',#365,2.);
#131=CIRCLE('',#366,2.);
#132=CIRCLE('',#367,4.5);
#133=CIRCLE('',#368,4.5);
#134=CIRCLE('',#369,4.5);
#135=CIRCLE('',#370,4.5);
#136=CIRCLE('',#371,4.5);
#137=CIRCLE('',#373,2.);
#138=CIRCLE('',#376,2.);
#139=CIRCLE('',#378,2.);
#140=CIRCLE('',#381,2.);
#141=CIRCLE('',#383,4.5);
#142=CIRCLE('',#385,4.5);
#143=CIRCLE('',#387,4.5);
#144=CIRCLE('',#389,4.5);
#145=CIRCLE('',#391,4.5);
#146=VERTEX_POINT('',#498);
#147=VERTEX_POINT('',#499);
#148=VERTEX_POINT('',#501);
#149=VERTEX_POINT('',#503);
#150=VERTEX_POINT('',#507);
#151=VERTEX_POINT('',#509);
#152=VERTEX_POINT('',#513);
#153=VERTEX_POINT('',#515);
#154=VERTEX_POINT('',#517);
#155=VERTEX_POINT('',#519);
#156=VERTEX_POINT('',#521);
#157=VERTEX_POINT('',#523);
#158=VERTEX_POINT('',#525);
#159=VERTEX_POINT('',#528);
#160=VERTEX_POINT('',#530);
#161=VERTEX_POINT('',#532);
#162=VERTEX_POINT('',#534);
#163=VERTEX_POINT('',#536);
#164=VERTEX_POINT('',#539);
#165=VERTEX_POINT('',#541);
#166=VERTEX_POINT('',#545);
#167=VERTEX_POINT('',#549);
#168=VERTEX_POINT('',#553);
#169=VERTEX_POINT('',#557);
#170=VERTEX_POINT('',#561);
#171=VERTEX_POINT('',#565);
#172=VERTEX_POINT('',#569);
#173=VERTEX_POINT('',#573);
#174=VERTEX_POINT('',#577);
#175=VERTEX_POINT('',#581);
#176=EDGE_CURVE('',#146,#147,#126,.T.);
#177=EDGE_CURVE('',#147,#148,#76,.T.);
#178=EDGE_CURVE('',#148,#149,#127,.T.);
#179=EDGE_CURVE('',#149,#146,#77,.T.);
#180=EDGE_CURVE('',#147,#150,#78,.T.);
#181=EDGE_CURVE('',#151,#150,#79,.T.);
#182=EDGE_CURVE('',#151,#148,#80,.T.);
#183=EDGE_CURVE('',#152,#146,#81,.T.);
#184=EDGE_CURVE('',#153,#152,#128,.T.);
#185=EDGE_CURVE('',#154,#153,#82,.T.);
#186=EDGE_CURVE('',#155,#154,#129,.T.);
#187=EDGE_CURVE('',#156,#155,#83,.T.);
#188=EDGE_CURVE('',#157,#156,#130,.T.);
#189=EDGE_CURVE('',#158,#157,#84,.T.);
#190=EDGE_CURVE('',#150,#158,#131,.T.);
#191=EDGE_CURVE('',#159,#159,#132,.T.);
#192=EDGE_CURVE('',#160,#160,#133,.T.);
#193=EDGE_CURVE('',#161,#161,#134,.T.);
#194=EDGE_CURVE('',#162,#162,#135,.T.);
#195=EDGE_CURVE('',#163,#163,#136,.T.);
#196=EDGE_CURVE('',#152,#164,#85,.T.);
#197=EDGE_CURVE('',#164,#165,#137,.T.);
#198=EDGE_CURVE('',#165,#153,#86,.T.);
#199=EDGE_CURVE('',#165,#166,#87,.T.);
#200=EDGE_CURVE('',#154,#166,#88,.T.);
#201=EDGE_CURVE('',#166,#167,#138,.T.);
#202=EDGE_CURVE('',#167,#155,#89,.T.);
#203=EDGE_CURVE('',#158,#168,#90,.T.);
#204=EDGE_CURVE('',#168,#151,#139,.T.);
#205=EDGE_CURVE('',#169,#157,#91,.T.);
#206=EDGE_CURVE('',#169,#168,#92,.T.);
#207=EDGE_CURVE('',#156,#170,#93,.T.);
#208=EDGE_CURVE('',#170,#169,#140,.T.);
#209=EDGE_CURVE('',#171,#171,#141,.T.);
#210=EDGE_CURVE('',#171,#163,#94,.T.);
#211=EDGE_CURVE('',#172,#172,#142,.T.);
#212=EDGE_CURVE('',#172,#162,#95,.T.);
#213=EDGE_CURVE('',#173,#173,#143,.T.);
#214=EDGE_CURVE('',#173,#161,#96,.T.);
#215=EDGE_CURVE('',#174,#174,#144,.T.);
#216=EDGE_CURVE('',#174,#160,#97,.T.);
#217=EDGE_CURVE('',#175,#175,#145,.T.);
#218=EDGE_CURVE('',#175,#159,#98,.T.);
#219=EDGE_CURVE('',#167,#170,#99,.T.);
#220=EDGE_CURVE('',#149,#164,#100,.T.);
#221=ORIENTED_EDGE('',*,*,#176,.T.);
#222=ORIENTED_EDGE('',*,*,#177,.T.);
#223=ORIENTED_EDGE('',*,*,#178,.T.);
#224=ORIENTED_EDGE('',*,*,#179,.T.);
#225=ORIENTED_EDGE('',*,*,#177,.F.);
#226=ORIENTED_EDGE('',*,*,#180,.T.);
#227=ORIENTED_EDGE('',*,*,#181,.F.);
#228=ORIENTED_EDGE('',*,*,#182,.T.);
#229=ORIENTED_EDGE('',*,*,#176,.F.);
#230=ORIENTED_EDGE('',*,*,#183,.F.);
#231=ORIENTED_EDGE('',*,*,#184,.F.);
#232=ORIENTED_EDGE('',*,*,#185,.F.);
#233=ORIENTED_EDGE('',*,*,#186,.F.);
#234=ORIENTED_EDGE('',*,*,#187,.F.);
#235=ORIENTED_EDGE('',*,*,#188,.F.);
#236=ORIENTED_EDGE('',*,*,#189,.F.);
#237=ORIENTED_EDGE('',*,*,#190,.F.);
#238=ORIENTED_EDGE('',*,*,#180,.F.);
#239=ORIENTED_EDGE('',*,*,#191,.T.);
#240=ORIENTED_EDGE('',*,*,#192,.T.);
#241=ORIENTED_EDGE('',*,*,#193,.T.);
#242=ORIENTED_EDGE('',*,*,#194,.T.);
#243=ORIENTED_EDGE('',*,*,#195,.T.);
#244=ORIENTED_EDGE('',*,*,#184,.T.);
#245=ORIENTED_EDGE('',*,*,#196,.T.);
#246=ORIENTED_EDGE('',*,*,#197,.T.);
#247=ORIENTED_EDGE('',*,*,#198,.T.);
#248=ORIENTED_EDGE('',*,*,#198,.F.);
#249=ORIENTED_EDGE('',*,*,#199,.T.);
#250=ORIENTED_EDGE('',*,*,#200,.F.);
#251=ORIENTED_EDGE('',*,*,#185,.T.);
#252=ORIENTED_EDGE('',*,*,#186,.T.);
#253=ORIENTED_EDGE('',*,*,#200,.T.);
#254=ORIENTED_EDGE('',*,*,#201,.T.);
#255=ORIENTED_EDGE('',*,*,#202,.T.);
#256=ORIENTED_EDGE('',*,*,#190,.T.);
#257=ORIENTED_EDGE('',*,*,#203,.T.);
#258=ORIENTED_EDGE('',*,*,#204,.T.);
#259=ORIENTED_EDGE('',*,*,#181,.T.);
#260=ORIENTED_EDGE('',*,*,#203,.F.);
#261=ORIENTED_EDGE('',*,*,#189,.T.);
#262=ORIENTED_EDGE('',*,*,#205,.F.);
#263=ORIENTED_EDGE('',*,*,#206,.T.);
#264=ORIENTED_EDGE('',*,*,#188,.T.);
#265=ORIENTED_EDGE('',*,*,#207,.T.);
#266=ORIENTED_EDGE('',*,*,#208,.T.);
#267=ORIENTED_EDGE('',*,*,#205,.T.);
#268=ORIENTED_EDGE('',*,*,#209,.F.);
#269=ORIENTED_EDGE('',*,*,#210,.T.);
#270=ORIENTED_EDGE('',*,*,#195,.F.);
#271=ORIENTED_EDGE('',*,*,#210,.F.);
#272=ORIENTED_EDGE('',*,*,#211,.F.);
#273=ORIENTED_EDGE('',*,*,#212,.T.);
#274=ORIENTED_EDGE('',*,*,#194,.F.);
#275=ORIENTED_EDGE('',*,*,#212,.F.);
#276=ORIENTED_EDGE('',*,*,#213,.F.);
#277=ORIENTED_EDGE('',*,*,#214,.T.);
#278=ORIENTED_EDGE('',*,*,#193,.F.);
#279=ORIENTED_EDGE('',*,*,#214,.F.);
#280=ORIENTED_EDGE('',*,*,#215,.F.);
#281=ORIENTED_EDGE('',*,*,#216,.T.);
#282=ORIENTED_EDGE('',*,*,#192,.F.);
#283=ORIENTED_EDGE('',*,*,#216,.F.);
#284=ORIENTED_EDGE('',*,*,#217,.F.);
#285=ORIENTED_EDGE('',*,*,#218,.T.);
#286=ORIENTED_EDGE('',*,*,#191,.F.);
#287=ORIENTED_EDGE('',*,*,#218,.F.);
#288=ORIENTED_EDGE('',*,*,#202,.F.);
#289=ORIENTED_EDGE('',*,*,#219,.T.);
#290=ORIENTED_EDGE('',*,*,#207,.F.);
#291=ORIENTED_EDGE('',*,*,#187,.T.);
#292=ORIENTED_EDGE('',*,*,#179,.F.);
#293=ORIENTED_EDGE('',*,*,#220,.T.);
#294=ORIENTED_EDGE('',*,*,#196,.F.);
#295=ORIENTED_EDGE('',*,*,#183,.T.);
#296=ORIENTED_EDGE('',*,*,#178,.F.);
#297=ORIENTED_EDGE('',*,*,#182,.F.);
#298=ORIENTED_EDGE('',*,*,#204,.F.);
#299=ORIENTED_EDGE('',*,*,#206,.F.);
#300=ORIENTED_EDGE('',*,*,#208,.F.);
#301=ORIENTED_EDGE('',*,*,#219,.F.);
#302=ORIENTED_EDGE('',*,*,#201,.F.);
#303=ORIENTED_EDGE('',*,*,#199,.F.);
#304=ORIENTED_EDGE('',*,*,#197,.F.);
#305=ORIENTED_EDGE('',*,*,#220,.F.);
#306=ORIENTED_EDGE('',*,*,#209,.T.);
#307=ORIENTED_EDGE('',*,*,#211,.T.);
#308=ORIENTED_EDGE('',*,*,#213,.T.);
#309=ORIENTED_EDGE('',*,*,#215,.T.);
#310=ORIENTED_EDGE('',*,*,#217,.T.);
#311=CYLINDRICAL_SURFACE('',#358,2.);
#312=CYLINDRICAL_SURFACE('',#372,2.);
#313=CYLINDRICAL_SURFACE('',#375,2.);
#314=CYLINDRICAL_SURFACE('',#377,2.);
#315=CYLINDRICAL_SURFACE('',#380,2.);
#316=CYLINDRICAL_SURFACE('',#382,4.5);
#317=CYLINDRICAL_SURFACE('',#384,4.5);
#318=CYLINDRICAL_SURFACE('',#386,4.5);
#319=CYLINDRICAL_SURFACE('',#388,4.5);
#320=CYLINDRICAL_SURFACE('',#390,4.5);
#321=ADVANCED_FACE('',(#32),#311,.T.);
#322=ADVANCED_FACE('',(#33),#25,.T.);
#323=ADVANCED_FACE('',(#34,#15,#16,#17,#18,#19),#26,.T.);
#324=ADVANCED_FACE('',(#35),#312,.T.);
#325=ADVANCED_FACE('',(#36),#27,.T.);
#326=ADVANCED_FACE('',(#37),#313,.T.);
#327=ADVANCED_FACE('',(#38),#314,.T.);
#328=ADVANCED_FACE('',(#39),#28,.T.);
#329=ADVANCED_FACE('',(#40),#315,.T.);
#330=ADVANCED_FACE('',(#41),#316,.F.);
#331=ADVANCED_FACE('',(#42),#317,.F.);
#332=ADVANCED_FACE('',(#43),#318,.F.);
#333=ADVANCED_FACE('',(#44),#319,.F.);
#334=ADVANCED_FACE('',(#45),#320,.F.);
#335=ADVANCED_FACE('',(#46),#29,.T.);
#336=ADVANCED_FACE('',(#47),#30,.T.);
#337=ADVANCED_FACE('',(#48,#20,#21,#22,#23,#24),#31,.F.);
#338=CLOSED_SHELL('',(#321,#322,#323,#324,#325,#326,#327,#328,#329,#330,
#331,#332,#333,#334,#335,#336,#337));
#339=DERIVED_UNIT_ELEMENT(#341,1.);
#340=DERIVED_UNIT_ELEMENT(#594,3.);
#341=(
MASS_UNIT()
NAMED_UNIT(*)
SI_UNIT($,.GRAM.)
);
#342=DERIVED_UNIT((#339,#340));
#343=MEASURE_REPRESENTATION_ITEM('density measure',
POSITIVE_RATIO_MEASURE(7.85),#342);
#344=PROPERTY_DEFINITION_REPRESENTATION(#349,#346);
#345=PROPERTY_DEFINITION_REPRESENTATION(#350,#347);
#346=REPRESENTATION('material name',(#348),#591);
#347=REPRESENTATION('density',(#343),#591);
#348=DESCRIPTIVE_REPRESENTATION_ITEM('Steel','Steel');
#349=PROPERTY_DEFINITION('material property','material name',#601);
#350=PROPERTY_DEFINITION('material property','density of part',#601);
#351=DATE_TIME_ROLE('creation_date');
#352=APPLIED_DATE_AND_TIME_ASSIGNMENT(#353,#351,(#601));
#353=DATE_AND_TIME(#354,#355);
#354=CALENDAR_DATE(2009,29,1);
#355=LOCAL_TIME(0,0,0.,#356);
#356=COORDINATED_UNIVERSAL_TIME_OFFSET(0,0,.BEHIND.);
#357=AXIS2_PLACEMENT_3D('placement',#496,#395,#396);
#358=AXIS2_PLACEMENT_3D('',#497,#397,#398);
#359=AXIS2_PLACEMENT_3D('',#500,#399,#400);
#360=AXIS2_PLACEMENT_3D('',#504,#402,#403);
#361=AXIS2_PLACEMENT_3D('',#506,#405,#406);
#362=AXIS2_PLACEMENT_3D('',#512,#410,#411);
#363=AXIS2_PLACEMENT_3D('',#516,#413,#414);
#364=AXIS2_PLACEMENT_3D('',#520,#416,#417);
#365=AXIS2_PLACEMENT_3D('',#524,#419,#420);
#366=AXIS2_PLACEMENT_3D('',#527,#422,#423);
#367=AXIS2_PLACEMENT_3D('',#529,#424,#425);
#368=AXIS2_PLACEMENT_3D('',#531,#426,#427);
#369=AXIS2_PLACEMENT_3D('',#533,#428,#429);
#370=AXIS2_PLACEMENT_3D('',#535,#430,#431);
#371=AXIS2_PLACEMENT_3D('',#537,#432,#433);
#372=AXIS2_PLACEMENT_3D('',#538,#434,#435);
#373=AXIS2_PLACEMENT_3D('',#542,#437,#438);
#374=AXIS2_PLACEMENT_3D('',#544,#440,#441);
#375=AXIS2_PLACEMENT_3D('',#548,#444,#445);
#376=AXIS2_PLACEMENT_3D('',#550,#446,#447);
#377=AXIS2_PLACEMENT_3D('',#552,#449,#450);
#378=AXIS2_PLACEMENT_3D('',#555,#452,#453);
#379=AXIS2_PLACEMENT_3D('',#556,#454,#455);
#380=AXIS2_PLACEMENT_3D('',#560,#458,#459);
#381=AXIS2_PLACEMENT_3D('',#563,#461,#462);
#382=AXIS2_PLACEMENT_3D('',#564,#463,#464);
#383=AXIS2_PLACEMENT_3D('',#566,#465,#466);
#384=AXIS2_PLACEMENT_3D('',#568,#468,#469);
#385=AXIS2_PLACEMENT_3D('',#570,#470,#471);
#386=AXIS2_PLACEMENT_3D('',#572,#473,#474);
#387=AXIS2_PLACEMENT_3D('',#574,#475,#476);
#388=AXIS2_PLACEMENT_3D('',#576,#478,#479);
#389=AXIS2_PLACEMENT_3D('',#578,#480,#481);
#390=AXIS2_PLACEMENT_3D('',#580,#483,#484);
#391=AXIS2_PLACEMENT_3D('',#582,#485,#486);
#392=AXIS2_PLACEMENT_3D('',#584,#488,#489);
#393=AXIS2_PLACEMENT_3D('',#586,#491,#492);
#394=AXIS2_PLACEMENT_3D('',#588,#494,#495);
#395=DIRECTION('axis',(0.,0.,1.));
#396=DIRECTION('refdir',(1.,0.,0.));
#397=DIRECTION('center_axis',(0.,0.,1.));
#398=DIRECTION('ref_axis',(-0.38268343236509,0.923879532511287,0.));
#399=DIRECTION('center_axis',(0.,0.,-1.));
#400=DIRECTION('ref_axis',(-0.38268343236509,0.923879532511287,0.));
#401=DIRECTION('',(0.,0.,-1.));
#402=DIRECTION('center_axis',(0.,0.,1.));
#403=DIRECTION('ref_axis',(-0.38268343236509,0.923879532511287,0.));
#404=DIRECTION('',(0.,0.,1.));
#405=DIRECTION('center_axis',(0.,1.,0.));
#406=DIRECTION('ref_axis',(0.,0.,1.));
#407=DIRECTION('',(1.,0.,0.));
#408=DIRECTION('',(0.,0.,1.));
#409=DIRECTION('',(-1.,0.,0.));
#410=DIRECTION('center_axis',(0.,0.,1.));
#411=DIRECTION('ref_axis',(1.,0.,0.));
#412=DIRECTION('',(0.707106781186548,0.707106781186548,0.));
#413=DIRECTION('center_axis',(0.,0.,-1.));
#414=DIRECTION('ref_axis',(-0.923879532511286,0.382683432365092,0.));
#415=DIRECTION('',(0.,1.,0.));
#416=DIRECTION('center_axis',(0.,0.,-1.));
#417=DIRECTION('ref_axis',(-0.707106781186546,-0.707106781186549,0.));
#418=DIRECTION('',(-1.,0.,0.));
#419=DIRECTION('center_axis',(0.,0.,-1.));
#420=DIRECTION('ref_axis',(0.707106781186548,-0.707106781186547,0.));
#421=DIRECTION('',(0.,-1.,0.));
#422=DIRECTION('center_axis',(0.,0.,-1.));
#423=DIRECTION('ref_axis',(0.707106781186549,0.707106781186546,0.));
#424=DIRECTION('center_axis',(0.,0.,-1.));
#425=DIRECTION('ref_axis',(-1.,0.,0.));
#426=DIRECTION('center_axis',(0.,0.,-1.));
#427=DIRECTION('ref_axis',(-1.,0.,0.));
#428=DIRECTION('center_axis',(0.,0.,-1.));
#429=DIRECTION('ref_axis',(-1.,0.,0.));
#430=DIRECTION('center_axis',(0.,0.,-1.));
#431=DIRECTION('ref_axis',(-1.,0.,0.));
#432=DIRECTION('center_axis',(0.,0.,-1.));
#433=DIRECTION('ref_axis',(-1.,0.,0.));
#434=DIRECTION('center_axis',(0.,0.,1.));
#435=DIRECTION('ref_axis',(-0.923879532511286,0.382683432365092,0.));
#436=DIRECTION('',(0.,0.,-1.));
#437=DIRECTION('center_axis',(0.,0.,1.));
#438=DIRECTION('ref_axis',(-0.923879532511286,0.382683432365092,0.));
#439=DIRECTION('',(0.,0.,1.));
#440=DIRECTION('center_axis',(-1.,0.,0.));
#441=DIRECTION('ref_axis',(0.,0.,1.));
#442=DIRECTION('',(0.,-1.,0.));
#443=DIRECTION('',(0.,0.,-1.));
#444=DIRECTION('center_axis',(0.,0.,1.));
#445=DIRECTION('ref_axis',(-0.707106781186546,-0.707106781186549,0.));
#446=DIRECTION('center_axis',(0.,0.,1.));
#447=DIRECTION('ref_axis',(-0.707106781186546,-0.707106781186549,0.));
#448=DIRECTION('',(0.,0.,1.));
#449=DIRECTION('center_axis',(0.,0.,1.));
#450=DIRECTION('ref_axis',(0.707106781186549,0.707106781186546,0.));
#451=DIRECTION('',(0.,0.,-1.));
#452=DIRECTION('center_axis',(0.,0.,1.));
#453=DIRECTION('ref_axis',(0.707106781186549,0.707106781186546,0.));
#454=DIRECTION('center_axis',(1.,0.,0.));
#455=DIRECTION('ref_axis',(0.,0.,-1.));
#456=DIRECTION('',(0.,0.,1.));
#457=DIRECTION('',(0.,1.,0.));
#458=DIRECTION('center_axis',(0.,0.,1.));
#459=DIRECTION('ref_axis',(0.707106781186548,-0.707106781186547,0.));
#460=DIRECTION('',(0.,0.,-1.));
#461=DIRECTION('center_axis',(0.,0.,1.));
#462=DIRECTION('ref_axis',(0.707106781186548,-0.707106781186547,0.));
#463=DIRECTION('center_axis',(0.,0.,1.));
#464=DIRECTION('ref_axis',(-1.,0.,0.));
#465=DIRECTION('center_axis',(0.,0.,1.));
#466=DIRECTION('ref_axis',(-1.,0.,0.));
#467=DIRECTION('',(0.,0.,1.));
#468=DIRECTION('center_axis',(0.,0.,1.));
#469=DIRECTION('ref_axis',(-1.,0.,0.));
#470=DIRECTION('center_axis',(0.,0.,1.));
#471=DIRECTION('ref_axis',(-1.,0.,0.));
#472=DIRECTION('',(0.,0.,1.));
#473=DIRECTION('center_axis',(0.,0.,1.));
#474=DIRECTION('ref_axis',(-1.,0.,0.));
#475=DIRECTION('center_axis',(0.,0.,1.));
#476=DIRECTION('ref_axis',(-1.,0.,0.));
#477=DIRECTION('',(0.,0.,1.));
#478=DIRECTION('center_axis',(0.,0.,1.));
#479=DIRECTION('ref_axis',(-1.,0.,0.));
#480=DIRECTION('center_axis',(0.,0.,1.));
#481=DIRECTION('ref_axis',(-1.,0.,0.));
#482=DIRECTION('',(0.,0.,1.));
#483=DIRECTION('center_axis',(0.,0.,1.));
#484=DIRECTION('ref_axis',(-1.,0.,0.));
#485=DIRECTION('center_axis',(0.,0.,1.));
#486=DIRECTION('ref_axis',(-1.,0.,0.));
#487=DIRECTION('',(0.,0.,1.));
#488=DIRECTION('center_axis',(0.,-1.,0.));
#489=DIRECTION('ref_axis',(0.,0.,-1.));
#490=DIRECTION('',(1.,0.,0.));
#491=DIRECTION('center_axis',(-0.707106781186548,0.707106781186548,0.));
#492=DIRECTION('ref_axis',(0.,0.,1.));
#493=DIRECTION('',(-0.707106781186548,-0.707106781186548,0.));
#494=DIRECTION('center_axis',(0.,0.,1.));
#495=DIRECTION('ref_axis',(1.,0.,0.));
#496=CARTESIAN_POINT('',(0.,0.,0.));
#497=CARTESIAN_POINT('Origin',(-36.1715728752538,123.,0.));
#498=CARTESIAN_POINT('',(-37.5857864376269,124.414213562373,3.));
#499=CARTESIAN_POINT('',(-36.1715728752538,125.,3.));
#500=CARTESIAN_POINT('Origin',(-36.1715728752538,123.,3.));
#501=CARTESIAN_POINT('',(-36.1715728752538,125.,0.));
#502=CARTESIAN_POINT('',(-36.1715728752538,125.,0.));
#503=CARTESIAN_POINT('',(-37.5857864376269,124.414213562373,0.));
#504=CARTESIAN_POINT('Origin',(-36.1715728752538,123.,0.));
#505=CARTESIAN_POINT('',(-37.5857864376269,124.414213562373,0.));
#506=CARTESIAN_POINT('Origin',(-37.,125.,0.));
#507=CARTESIAN_POINT('',(-2.,125.,3.));
#508=CARTESIAN_POINT('',(0.,125.,3.));
#509=CARTESIAN_POINT('',(-2.,125.,0.));
#510=CARTESIAN_POINT('',(-2.,125.,0.));
#511=CARTESIAN_POINT('',(0.,125.,0.));
#512=CARTESIAN_POINT('Origin',(-51.739264618278,51.739264618278,3.));
#513=CARTESIAN_POINT('',(-124.414213562373,37.5857864376269,3.));
#514=CARTESIAN_POINT('',(-37.,125.,3.));
#515=CARTESIAN_POINT('',(-125.,36.1715728752538,3.));
#516=CARTESIAN_POINT('Origin',(-123.,36.1715728752538,3.));
#517=CARTESIAN_POINT('',(-125.,2.,3.));
#518=CARTESIAN_POINT('',(-125.,37.,3.));
#519=CARTESIAN_POINT('',(-123.,0.,3.));
#520=CARTESIAN_POINT('Origin',(-123.,2.,3.));
#521=CARTESIAN_POINT('',(-1.99999999999999,0.,3.));
#522=CARTESIAN_POINT('',(-125.,0.,3.));
#523=CARTESIAN_POINT('',(0.,2.,3.));
#524=CARTESIAN_POINT('Origin',(-2.,2.,3.));
#525=CARTESIAN_POINT('',(0.,123.,3.));
#526=CARTESIAN_POINT('',(0.,0.,3.));
#527=CARTESIAN_POINT('Origin',(-2.,123.,3.));
#528=CARTESIAN_POINT('',(-92.5,17.,3.));
#529=CARTESIAN_POINT('Origin',(-97.,17.,3.));
#530=CARTESIAN_POINT('',(-52.5,17.,3.));
#531=CARTESIAN_POINT('Origin',(-57.,17.,3.));
#532=CARTESIAN_POINT('',(-12.5,17.,3.));
#533=CARTESIAN_POINT('Origin',(-17.,17.,3.));
#534=CARTESIAN_POINT('',(-12.5,97.,3.));
#535=CARTESIAN_POINT('Origin',(-17.,97.,3.));
#536=CARTESIAN_POINT('',(-12.5,57.,3.));
#537=CARTESIAN_POINT('Origin',(-17.,57.,3.));
#538=CARTESIAN_POINT('Origin',(-123.,36.1715728752538,0.));
#539=CARTESIAN_POINT('',(-124.414213562373,37.5857864376269,0.));
#540=CARTESIAN_POINT('',(-124.414213562373,37.5857864376269,0.));
#541=CARTESIAN_POINT('',(-125.,36.1715728752538,0.));
#542=CARTESIAN_POINT('Origin',(-123.,36.1715728752538,0.));
#543=CARTESIAN_POINT('',(-125.,36.1715728752538,0.));
#544=CARTESIAN_POINT('Origin',(-125.,0.,0.));
#545=CARTESIAN_POINT('',(-125.,2.,0.));
#546=CARTESIAN_POINT('',(-125.,37.,0.));
#547=CARTESIAN_POINT('',(-125.,2.,0.));
#548=CARTESIAN_POINT('Origin',(-123.,2.,0.));
#549=CARTESIAN_POINT('',(-123.,0.,0.));
#550=CARTESIAN_POINT('Origin',(-123.,2.,0.));
#551=CARTESIAN_POINT('',(-123.,0.,0.));
#552=CARTESIAN_POINT('Origin',(-2.,123.,0.));
#553=CARTESIAN_POINT('',(0.,123.,0.));
#554=CARTESIAN_POINT('',(0.,123.,0.));
#555=CARTESIAN_POINT('Origin',(-2.,123.,0.));
#556=CARTESIAN_POINT('Origin',(0.,17.,0.));
#557=CARTESIAN_POINT('',(0.,2.,0.));
#558=CARTESIAN_POINT('',(0.,2.,0.));
#559=CARTESIAN_POINT('',(0.,0.,0.));
#560=CARTESIAN_POINT('Origin',(-2.,2.,0.));
#561=CARTESIAN_POINT('',(-1.99999999999999,0.,0.));
#562=CARTESIAN_POINT('',(-2.,0.,0.));
#563=CARTESIAN_POINT('Origin',(-2.,2.,0.));
#564=CARTESIAN_POINT('Origin',(-17.,57.,0.));
#565=CARTESIAN_POINT('',(-12.5,57.,0.));
#566=CARTESIAN_POINT('Origin',(-17.,57.,0.));
#567=CARTESIAN_POINT('',(-12.5,57.,0.));
#568=CARTESIAN_POINT('Origin',(-17.,97.,0.));
#569=CARTESIAN_POINT('',(-12.5,97.,0.));
#570=CARTESIAN_POINT('Origin',(-17.,97.,0.));
#571=CARTESIAN_POINT('',(-12.5,97.,0.));
#572=CARTESIAN_POINT('Origin',(-17.,17.,0.));
#573=CARTESIAN_POINT('',(-12.5,17.,0.));
#574=CARTESIAN_POINT('Origin',(-17.,17.,0.));
#575=CARTESIAN_POINT('',(-12.5,17.,0.));
#576=CARTESIAN_POINT('Origin',(-57.,17.,0.));
#577=CARTESIAN_POINT('',(-52.5,17.,0.));
#578=CARTESIAN_POINT('Origin',(-57.,17.,0.));
#579=CARTESIAN_POINT('',(-52.5,17.,0.));
#580=CARTESIAN_POINT('Origin',(-97.,17.,0.));
#581=CARTESIAN_POINT('',(-92.5,17.,0.));
#582=CARTESIAN_POINT('Origin',(-97.,17.,0.));
#583=CARTESIAN_POINT('',(-92.5,17.,0.));
#584=CARTESIAN_POINT('Origin',(0.,0.,0.));
#585=CARTESIAN_POINT('',(-125.,0.,0.));
#586=CARTESIAN_POINT('Origin',(-125.,37.,0.));
#587=CARTESIAN_POINT('',(-37.,125.,0.));
#588=CARTESIAN_POINT('Origin',(-51.739264618278,51.739264618278,0.));
#589=UNCERTAINTY_MEASURE_WITH_UNIT(LENGTH_MEASURE(0.01),#593,
'DISTANCE_ACCURACY_VALUE',
'Maximum model space distance between geometric entities at asserted c
onnectivities');
#590=UNCERTAINTY_MEASURE_WITH_UNIT(LENGTH_MEASURE(0.01),#593,
'DISTANCE_ACCURACY_VALUE',
'Maximum model space distance between geometric entities at asserted c
onnectivities');
#591=(
GEOMETRIC_REPRESENTATION_CONTEXT(3)
GLOBAL_UNCERTAINTY_ASSIGNED_CONTEXT((#589))
GLOBAL_UNIT_ASSIGNED_CONTEXT((#593,#595,#596))
REPRESENTATION_CONTEXT('','3D')
);
#592=(
GEOMETRIC_REPRESENTATION_CONTEXT(3)
GLOBAL_UNCERTAINTY_ASSIGNED_CONTEXT((#590))
GLOBAL_UNIT_ASSIGNED_CONTEXT((#593,#595,#596))
REPRESENTATION_CONTEXT('','3D')
);
#593=(
LENGTH_UNIT()
NAMED_UNIT(*)
SI_UNIT(.MILLI.,.METRE.)
);
#594=(
LENGTH_UNIT()
NAMED_UNIT(*)
SI_UNIT(.CENTI.,.METRE.)
);
#595=(
NAMED_UNIT(*)
PLANE_ANGLE_UNIT()
SI_UNIT($,.RADIAN.)
);
#596=(
NAMED_UNIT(*)
SI_UNIT($,.STERADIAN.)
SOLID_ANGLE_UNIT()
);
#597=SHAPE_DEFINITION_REPRESENTATION(#598,#599);
#598=PRODUCT_DEFINITION_SHAPE('',$,#601);
#599=SHAPE_REPRESENTATION('',(#357),#591);
#600=PRODUCT_DEFINITION_CONTEXT('part definition',#605,'design');
#601=PRODUCT_DEFINITION('112-020','112020-001',#602,#600);
#602=PRODUCT_DEFINITION_FORMATION('05-05-2009',$,#607);
#603=PRODUCT_RELATED_PRODUCT_CATEGORY('112020-001','112020-001',(#607));
#604=APPLICATION_PROTOCOL_DEFINITION('international standard',
'automotive_design',2009,#605);
#605=APPLICATION_CONTEXT(
'Core Data for Automotive Mechanical Design Process');
#606=PRODUCT_CONTEXT('part definition',#605,'mechanical');
#607=PRODUCT('112-020','112020-001','Verbinderplaat VP40L',(#606));
#608=PRESENTATION_STYLE_ASSIGNMENT((#609));
#609=SURFACE_STYLE_USAGE(.BOTH.,#612);
#610=SURFACE_STYLE_RENDERING_WITH_PROPERTIES($,#616,(#611));
#611=SURFACE_STYLE_TRANSPARENT(0.);
#612=SURFACE_SIDE_STYLE('',(#613,#610));
#613=SURFACE_STYLE_FILL_AREA(#614);
#614=FILL_AREA_STYLE('',(#615));
#615=FILL_AREA_STYLE_COLOUR('',#616);
#616=COLOUR_RGB('',0.745098039215686,0.737254901960784,0.729411764705882);
ENDSEC;
END-ISO-10303-21;
