ISO-10303-21;
HEADER;
/* Generated by software containing ST-Developer
 * from STEP Tools, Inc. (www.steptools.com) 
 */

FILE_DESCRIPTION(
/* description */ (''),
/* implementation_level */ '2;1');

FILE_NAME(
/* name */ '1008684.stp',
/* time_stamp */ '2024-07-02T11:48:31+02:00',
/* author */ ('Bo'),
/* organization */ (''),
/* preprocessor_version */ 'ST-DEVELOPER v20',
/* originating_system */ 'Autodesk Inventor 2025',
/* authorisation */ '');

FILE_SCHEMA (('AUTOMOTIVE_DESIGN { 1 0 10303 214 3 1 1 }'));
ENDSEC;

DATA;
#10=MECHANICAL_DESIGN_GEOMETRIC_PRESENTATION_REPRESENTATION('',(#13),#542);
#11=SHAPE_REPRESENTATION_RELATIONSHIP('SRR','None',#549,#12);
#12=ADVANCED_BREP_SHAPE_REPRESENTATION('',(#14),#541);
#13=STYLED_ITEM('',(#559),#14);
#14=MANIFOLD_SOLID_BREP('Solid2',#313);
#15=FACE_BOUND('',#47,.T.);
#16=FACE_BOUND('',#51,.T.);
#17=FACE_BOUND('',#56,.T.);
#18=FACE_BOUND('',#62,.T.);
#19=PLANE('',#339);
#20=PLANE('',#341);
#21=PLANE('',#347);
#22=PLANE('',#351);
#23=PLANE('',#354);
#24=PLANE('',#359);
#25=PLANE('',#360);
#26=PLANE('',#361);
#27=PLANE('',#362);
#28=PLANE('',#363);
#29=FACE_OUTER_BOUND('',#45,.T.);
#30=FACE_OUTER_BOUND('',#46,.T.);
#31=FACE_OUTER_BOUND('',#48,.T.);
#32=FACE_OUTER_BOUND('',#49,.T.);
#33=FACE_OUTER_BOUND('',#50,.T.);
#34=FACE_OUTER_BOUND('',#52,.T.);
#35=FACE_OUTER_BOUND('',#53,.T.);
#36=FACE_OUTER_BOUND('',#54,.T.);
#37=FACE_OUTER_BOUND('',#55,.T.);
#38=FACE_OUTER_BOUND('',#57,.T.);
#39=FACE_OUTER_BOUND('',#58,.T.);
#40=FACE_OUTER_BOUND('',#59,.T.);
#41=FACE_OUTER_BOUND('',#60,.T.);
#42=FACE_OUTER_BOUND('',#61,.T.);
#43=FACE_OUTER_BOUND('',#63,.T.);
#44=FACE_OUTER_BOUND('',#64,.T.);
#45=EDGE_LOOP('',(#207,#208,#209,#210));
#46=EDGE_LOOP('',(#211,#212,#213,#214));
#47=EDGE_LOOP('',(#215));
#48=EDGE_LOOP('',(#216,#217,#218,#219,#220,#221,#222,#223,#224,#225,#226,
#227));
#49=EDGE_LOOP('',(#228,#229,#230,#231));
#50=EDGE_LOOP('',(#232,#233,#234,#235));
#51=EDGE_LOOP('',(#236));
#52=EDGE_LOOP('',(#237,#238,#239,#240));
#53=EDGE_LOOP('',(#241,#242,#243,#244));
#54=EDGE_LOOP('',(#245,#246,#247,#248));
#55=EDGE_LOOP('',(#249,#250,#251,#252));
#56=EDGE_LOOP('',(#253));
#57=EDGE_LOOP('',(#254,#255,#256,#257));
#58=EDGE_LOOP('',(#258,#259,#260,#261));
#59=EDGE_LOOP('',(#262,#263,#264,#265));
#60=EDGE_LOOP('',(#266,#267,#268,#269));
#61=EDGE_LOOP('',(#270,#271,#272,#273));
#62=EDGE_LOOP('',(#274));
#63=EDGE_LOOP('',(#275,#276,#277,#278));
#64=EDGE_LOOP('',(#279,#280,#281,#282,#283,#284,#285,#286,#287,#288,#289,
#290));
#65=LINE('',#458,#95);
#66=LINE('',#461,#96);
#67=LINE('',#464,#97);
#68=LINE('',#466,#98);
#69=LINE('',#467,#99);
#70=LINE('',#472,#100);
#71=LINE('',#476,#101);
#72=LINE('',#478,#102);
#73=LINE('',#480,#103);
#74=LINE('',#484,#104);
#75=LINE('',#488,#105);
#76=LINE('',#489,#106);
#77=LINE('',#492,#107);
#78=LINE('',#495,#108);
#79=LINE('',#498,#109);
#80=LINE('',#499,#110);
#81=LINE('',#506,#111);
#82=LINE('',#507,#112);
#83=LINE('',#510,#113);
#84=LINE('',#511,#114);
#85=LINE('',#515,#115);
#86=LINE('',#518,#116);
#87=LINE('',#519,#117);
#88=LINE('',#523,#118);
#89=LINE('',#526,#119);
#90=LINE('',#529,#120);
#91=LINE('',#531,#121);
#92=LINE('',#534,#122);
#93=LINE('',#535,#123);
#94=LINE('',#537,#124);
#95=VECTOR('',#370,35.);
#96=VECTOR('',#373,35.);
#97=VECTOR('',#376,25.443650813896);
#98=VECTOR('',#377,35.);
#99=VECTOR('',#378,25.443650813896);
#100=VECTOR('',#383,203.019335983756);
#101=VECTOR('',#386,25.4436508138959);
#102=VECTOR('',#387,6.);
#103=VECTOR('',#388,25.4436508138959);
#104=VECTOR('',#391,203.019335983756);
#105=VECTOR('',#394,25.443650813896);
#106=VECTOR('',#395,6.);
#107=VECTOR('',#398,35.);
#108=VECTOR('',#401,35.);
#109=VECTOR('',#404,25.4436508138959);
#110=VECTOR('',#405,35.);
#111=VECTOR('',#412,35.);
#112=VECTOR('',#413,35.);
#113=VECTOR('',#416,203.019335983756);
#114=VECTOR('',#417,35.);
#115=VECTOR('',#422,35.);
#116=VECTOR('',#425,25.443650813896);
#117=VECTOR('',#426,35.);
#118=VECTOR('',#431,4.5);
#119=VECTOR('',#434,4.5);
#120=VECTOR('',#439,203.019335983756);
#121=VECTOR('',#442,6.);
#122=VECTOR('',#445,35.);
#123=VECTOR('',#446,25.4436508138959);
#124=VECTOR('',#449,6.);
#125=CIRCLE('',#337,11.);
#126=CIRCLE('',#338,11.);
#127=CIRCLE('',#340,4.50000000000001);
#128=CIRCLE('',#342,11.);
#129=CIRCLE('',#343,5.);
#130=CIRCLE('',#344,5.);
#131=CIRCLE('',#346,11.);
#132=CIRCLE('',#348,4.5);
#133=CIRCLE('',#350,5.);
#134=CIRCLE('',#353,5.);
#135=CIRCLE('',#355,4.5);
#136=CIRCLE('',#358,4.5);
#137=VERTEX_POINT('',#454);
#138=VERTEX_POINT('',#455);
#139=VERTEX_POINT('',#457);
#140=VERTEX_POINT('',#459);
#141=VERTEX_POINT('',#463);
#142=VERTEX_POINT('',#465);
#143=VERTEX_POINT('',#468);
#144=VERTEX_POINT('',#471);
#145=VERTEX_POINT('',#473);
#146=VERTEX_POINT('',#475);
#147=VERTEX_POINT('',#477);
#148=VERTEX_POINT('',#479);
#149=VERTEX_POINT('',#481);
#150=VERTEX_POINT('',#483);
#151=VERTEX_POINT('',#485);
#152=VERTEX_POINT('',#487);
#153=VERTEX_POINT('',#491);
#154=VERTEX_POINT('',#493);
#155=VERTEX_POINT('',#497);
#156=VERTEX_POINT('',#500);
#157=VERTEX_POINT('',#503);
#158=VERTEX_POINT('',#504);
#159=VERTEX_POINT('',#509);
#160=VERTEX_POINT('',#513);
#161=VERTEX_POINT('',#517);
#162=VERTEX_POINT('',#520);
#163=VERTEX_POINT('',#525);
#164=VERTEX_POINT('',#533);
#165=EDGE_CURVE('',#137,#138,#125,.T.);
#166=EDGE_CURVE('',#138,#139,#65,.T.);
#167=EDGE_CURVE('',#139,#140,#126,.T.);
#168=EDGE_CURVE('',#140,#137,#66,.T.);
#169=EDGE_CURVE('',#138,#141,#67,.T.);
#170=EDGE_CURVE('',#142,#141,#68,.T.);
#171=EDGE_CURVE('',#139,#142,#69,.T.);
#172=EDGE_CURVE('',#143,#143,#127,.T.);
#173=EDGE_CURVE('',#144,#137,#70,.T.);
#174=EDGE_CURVE('',#145,#144,#128,.T.);
#175=EDGE_CURVE('',#146,#145,#71,.T.);
#176=EDGE_CURVE('',#147,#146,#72,.T.);
#177=EDGE_CURVE('',#148,#147,#73,.T.);
#178=EDGE_CURVE('',#149,#148,#129,.T.);
#179=EDGE_CURVE('',#150,#149,#74,.T.);
#180=EDGE_CURVE('',#151,#150,#130,.T.);
#181=EDGE_CURVE('',#152,#151,#75,.T.);
#182=EDGE_CURVE('',#141,#152,#76,.T.);
#183=EDGE_CURVE('',#144,#153,#77,.T.);
#184=EDGE_CURVE('',#153,#154,#131,.T.);
#185=EDGE_CURVE('',#154,#145,#78,.T.);
#186=EDGE_CURVE('',#155,#154,#79,.T.);
#187=EDGE_CURVE('',#155,#146,#80,.T.);
#188=EDGE_CURVE('',#156,#156,#132,.T.);
#189=EDGE_CURVE('',#157,#158,#133,.T.);
#190=EDGE_CURVE('',#158,#149,#81,.T.);
#191=EDGE_CURVE('',#148,#157,#82,.T.);
#192=EDGE_CURVE('',#159,#158,#83,.T.);
#193=EDGE_CURVE('',#150,#159,#84,.T.);
#194=EDGE_CURVE('',#159,#160,#134,.T.);
#195=EDGE_CURVE('',#160,#151,#85,.T.);
#196=EDGE_CURVE('',#161,#160,#86,.T.);
#197=EDGE_CURVE('',#161,#152,#87,.T.);
#198=EDGE_CURVE('',#162,#162,#135,.T.);
#199=EDGE_CURVE('',#143,#162,#88,.T.);
#200=EDGE_CURVE('',#156,#163,#89,.T.);
#201=EDGE_CURVE('',#163,#163,#136,.T.);
#202=EDGE_CURVE('',#153,#140,#90,.T.);
#203=EDGE_CURVE('',#142,#161,#91,.T.);
#204=EDGE_CURVE('',#164,#147,#92,.T.);
#205=EDGE_CURVE('',#157,#164,#93,.T.);
#206=EDGE_CURVE('',#164,#155,#94,.T.);
#207=ORIENTED_EDGE('',*,*,#165,.T.);
#208=ORIENTED_EDGE('',*,*,#166,.T.);
#209=ORIENTED_EDGE('',*,*,#167,.T.);
#210=ORIENTED_EDGE('',*,*,#168,.T.);
#211=ORIENTED_EDGE('',*,*,#166,.F.);
#212=ORIENTED_EDGE('',*,*,#169,.T.);
#213=ORIENTED_EDGE('',*,*,#170,.F.);
#214=ORIENTED_EDGE('',*,*,#171,.F.);
#215=ORIENTED_EDGE('',*,*,#172,.T.);
#216=ORIENTED_EDGE('',*,*,#165,.F.);
#217=ORIENTED_EDGE('',*,*,#173,.F.);
#218=ORIENTED_EDGE('',*,*,#174,.F.);
#219=ORIENTED_EDGE('',*,*,#175,.F.);
#220=ORIENTED_EDGE('',*,*,#176,.F.);
#221=ORIENTED_EDGE('',*,*,#177,.F.);
#222=ORIENTED_EDGE('',*,*,#178,.F.);
#223=ORIENTED_EDGE('',*,*,#179,.F.);
#224=ORIENTED_EDGE('',*,*,#180,.F.);
#225=ORIENTED_EDGE('',*,*,#181,.F.);
#226=ORIENTED_EDGE('',*,*,#182,.F.);
#227=ORIENTED_EDGE('',*,*,#169,.F.);
#228=ORIENTED_EDGE('',*,*,#174,.T.);
#229=ORIENTED_EDGE('',*,*,#183,.T.);
#230=ORIENTED_EDGE('',*,*,#184,.T.);
#231=ORIENTED_EDGE('',*,*,#185,.T.);
#232=ORIENTED_EDGE('',*,*,#185,.F.);
#233=ORIENTED_EDGE('',*,*,#186,.F.);
#234=ORIENTED_EDGE('',*,*,#187,.T.);
#235=ORIENTED_EDGE('',*,*,#175,.T.);
#236=ORIENTED_EDGE('',*,*,#188,.T.);
#237=ORIENTED_EDGE('',*,*,#189,.T.);
#238=ORIENTED_EDGE('',*,*,#190,.T.);
#239=ORIENTED_EDGE('',*,*,#178,.T.);
#240=ORIENTED_EDGE('',*,*,#191,.T.);
#241=ORIENTED_EDGE('',*,*,#190,.F.);
#242=ORIENTED_EDGE('',*,*,#192,.F.);
#243=ORIENTED_EDGE('',*,*,#193,.F.);
#244=ORIENTED_EDGE('',*,*,#179,.T.);
#245=ORIENTED_EDGE('',*,*,#194,.T.);
#246=ORIENTED_EDGE('',*,*,#195,.T.);
#247=ORIENTED_EDGE('',*,*,#180,.T.);
#248=ORIENTED_EDGE('',*,*,#193,.T.);
#249=ORIENTED_EDGE('',*,*,#195,.F.);
#250=ORIENTED_EDGE('',*,*,#196,.F.);
#251=ORIENTED_EDGE('',*,*,#197,.T.);
#252=ORIENTED_EDGE('',*,*,#181,.T.);
#253=ORIENTED_EDGE('',*,*,#198,.T.);
#254=ORIENTED_EDGE('',*,*,#172,.F.);
#255=ORIENTED_EDGE('',*,*,#199,.T.);
#256=ORIENTED_EDGE('',*,*,#198,.F.);
#257=ORIENTED_EDGE('',*,*,#199,.F.);
#258=ORIENTED_EDGE('',*,*,#188,.F.);
#259=ORIENTED_EDGE('',*,*,#200,.T.);
#260=ORIENTED_EDGE('',*,*,#201,.F.);
#261=ORIENTED_EDGE('',*,*,#200,.F.);
#262=ORIENTED_EDGE('',*,*,#168,.F.);
#263=ORIENTED_EDGE('',*,*,#202,.F.);
#264=ORIENTED_EDGE('',*,*,#183,.F.);
#265=ORIENTED_EDGE('',*,*,#173,.T.);
#266=ORIENTED_EDGE('',*,*,#182,.T.);
#267=ORIENTED_EDGE('',*,*,#197,.F.);
#268=ORIENTED_EDGE('',*,*,#203,.F.);
#269=ORIENTED_EDGE('',*,*,#170,.T.);
#270=ORIENTED_EDGE('',*,*,#191,.F.);
#271=ORIENTED_EDGE('',*,*,#177,.T.);
#272=ORIENTED_EDGE('',*,*,#204,.F.);
#273=ORIENTED_EDGE('',*,*,#205,.F.);
#274=ORIENTED_EDGE('',*,*,#201,.T.);
#275=ORIENTED_EDGE('',*,*,#176,.T.);
#276=ORIENTED_EDGE('',*,*,#187,.F.);
#277=ORIENTED_EDGE('',*,*,#206,.F.);
#278=ORIENTED_EDGE('',*,*,#204,.T.);
#279=ORIENTED_EDGE('',*,*,#167,.F.);
#280=ORIENTED_EDGE('',*,*,#171,.T.);
#281=ORIENTED_EDGE('',*,*,#203,.T.);
#282=ORIENTED_EDGE('',*,*,#196,.T.);
#283=ORIENTED_EDGE('',*,*,#194,.F.);
#284=ORIENTED_EDGE('',*,*,#192,.T.);
#285=ORIENTED_EDGE('',*,*,#189,.F.);
#286=ORIENTED_EDGE('',*,*,#205,.T.);
#287=ORIENTED_EDGE('',*,*,#206,.T.);
#288=ORIENTED_EDGE('',*,*,#186,.T.);
#289=ORIENTED_EDGE('',*,*,#184,.F.);
#290=ORIENTED_EDGE('',*,*,#202,.T.);
#291=CYLINDRICAL_SURFACE('',#336,11.);
#292=CYLINDRICAL_SURFACE('',#345,11.);
#293=CYLINDRICAL_SURFACE('',#349,5.);
#294=CYLINDRICAL_SURFACE('',#352,5.);
#295=CYLINDRICAL_SURFACE('',#356,4.5);
#296=CYLINDRICAL_SURFACE('',#357,4.5);
#297=ADVANCED_FACE('',(#29),#291,.T.);
#298=ADVANCED_FACE('',(#30,#15),#19,.T.);
#299=ADVANCED_FACE('',(#31),#20,.T.);
#300=ADVANCED_FACE('',(#32),#292,.T.);
#301=ADVANCED_FACE('',(#33,#16),#21,.T.);
#302=ADVANCED_FACE('',(#34),#293,.F.);
#303=ADVANCED_FACE('',(#35),#22,.T.);
#304=ADVANCED_FACE('',(#36),#294,.F.);
#305=ADVANCED_FACE('',(#37,#17),#23,.T.);
#306=ADVANCED_FACE('',(#38),#295,.F.);
#307=ADVANCED_FACE('',(#39),#296,.F.);
#308=ADVANCED_FACE('',(#40),#24,.T.);
#309=ADVANCED_FACE('',(#41),#25,.T.);
#310=ADVANCED_FACE('',(#42,#18),#26,.T.);
#311=ADVANCED_FACE('',(#43),#27,.T.);
#312=ADVANCED_FACE('',(#44),#28,.F.);
#313=CLOSED_SHELL('',(#297,#298,#299,#300,#301,#302,#303,#304,#305,#306,
#307,#308,#309,#310,#311,#312));
#314=DERIVED_UNIT_ELEMENT(#317,1.);
#315=DERIVED_UNIT_ELEMENT(#544,-3.);
#316=DIMENSIONAL_EXPONENTS(0.,1.,0.,0.,0.,0.,0.);
#317=(
CONVERSION_BASED_UNIT('gram',#319)
MASS_UNIT()
NAMED_UNIT(#316)
);
#318=(
MASS_UNIT()
NAMED_UNIT(*)
SI_UNIT(.KILO.,.GRAM.)
);
#319=MASS_MEASURE_WITH_UNIT(MASS_MEASURE(0.001),#318);
#320=DERIVED_UNIT((#314,#315));
#321=MEASURE_REPRESENTATION_ITEM('density measure',
POSITIVE_RATIO_MEASURE(1.),#320);
#322=PROPERTY_DEFINITION_REPRESENTATION(#327,#324);
#323=PROPERTY_DEFINITION_REPRESENTATION(#328,#325);
#324=REPRESENTATION('material name',(#326),#541);
#325=REPRESENTATION('density',(#321),#541);
#326=DESCRIPTIVE_REPRESENTATION_ITEM('Generic','Generic');
#327=PROPERTY_DEFINITION('material property','material name',#551);
#328=PROPERTY_DEFINITION('material property','density of part',#551);
#329=DATE_TIME_ROLE('creation_date');
#330=APPLIED_DATE_AND_TIME_ASSIGNMENT(#331,#329,(#551));
#331=DATE_AND_TIME(#332,#333);
#332=CALENDAR_DATE(2010,13,7);
#333=LOCAL_TIME(15,12,26.,#334);
#334=COORDINATED_UNIVERSAL_TIME_OFFSET(0,0,.BEHIND.);
#335=AXIS2_PLACEMENT_3D('',#452,#364,#365);
#336=AXIS2_PLACEMENT_3D('',#453,#366,#367);
#337=AXIS2_PLACEMENT_3D('',#456,#368,#369);
#338=AXIS2_PLACEMENT_3D('',#460,#371,#372);
#339=AXIS2_PLACEMENT_3D('',#462,#374,#375);
#340=AXIS2_PLACEMENT_3D('',#469,#379,#380);
#341=AXIS2_PLACEMENT_3D('',#470,#381,#382);
#342=AXIS2_PLACEMENT_3D('',#474,#384,#385);
#343=AXIS2_PLACEMENT_3D('',#482,#389,#390);
#344=AXIS2_PLACEMENT_3D('',#486,#392,#393);
#345=AXIS2_PLACEMENT_3D('',#490,#396,#397);
#346=AXIS2_PLACEMENT_3D('',#494,#399,#400);
#347=AXIS2_PLACEMENT_3D('',#496,#402,#403);
#348=AXIS2_PLACEMENT_3D('',#501,#406,#407);
#349=AXIS2_PLACEMENT_3D('',#502,#408,#409);
#350=AXIS2_PLACEMENT_3D('',#505,#410,#411);
#351=AXIS2_PLACEMENT_3D('',#508,#414,#415);
#352=AXIS2_PLACEMENT_3D('',#512,#418,#419);
#353=AXIS2_PLACEMENT_3D('',#514,#420,#421);
#354=AXIS2_PLACEMENT_3D('',#516,#423,#424);
#355=AXIS2_PLACEMENT_3D('',#521,#427,#428);
#356=AXIS2_PLACEMENT_3D('',#522,#429,#430);
#357=AXIS2_PLACEMENT_3D('',#524,#432,#433);
#358=AXIS2_PLACEMENT_3D('',#527,#435,#436);
#359=AXIS2_PLACEMENT_3D('',#528,#437,#438);
#360=AXIS2_PLACEMENT_3D('',#530,#440,#441);
#361=AXIS2_PLACEMENT_3D('',#532,#443,#444);
#362=AXIS2_PLACEMENT_3D('',#536,#447,#448);
#363=AXIS2_PLACEMENT_3D('',#538,#450,#451);
#364=DIRECTION('axis',(0.,0.,1.));
#365=DIRECTION('refdir',(1.,0.,0.));
#366=DIRECTION('center_axis',(0.,0.,1.));
#367=DIRECTION('ref_axis',(-0.923879532511287,-0.38268343236509,0.));
#368=DIRECTION('center_axis',(0.,0.,-1.));
#369=DIRECTION('ref_axis',(-0.923879532511287,-0.38268343236509,0.));
#370=DIRECTION('',(0.,0.,-1.));
#371=DIRECTION('center_axis',(0.,0.,1.));
#372=DIRECTION('ref_axis',(-0.923879532511287,-0.38268343236509,0.));
#373=DIRECTION('',(0.,0.,1.));
#374=DIRECTION('center_axis',(-1.,0.,0.));
#375=DIRECTION('ref_axis',(0.,0.,1.));
#376=DIRECTION('',(0.,1.,0.));
#377=DIRECTION('',(0.,0.,1.));
#378=DIRECTION('',(0.,1.,0.));
#379=DIRECTION('center_axis',(1.,0.,0.));
#380=DIRECTION('ref_axis',(0.,1.,0.));
#381=DIRECTION('center_axis',(0.,0.,1.));
#382=DIRECTION('ref_axis',(1.,0.,0.));
#383=DIRECTION('',(-0.707106781186547,0.707106781186547,0.));
#384=DIRECTION('center_axis',(0.,0.,-1.));
#385=DIRECTION('ref_axis',(-0.38268343236509,-0.923879532511287,0.));
#386=DIRECTION('',(-1.,0.,0.));
#387=DIRECTION('',(0.,-1.,0.));
#388=DIRECTION('',(1.,0.,0.));
#389=DIRECTION('center_axis',(0.,0.,1.));
#390=DIRECTION('ref_axis',(-0.38268343236509,-0.923879532511287,0.));
#391=DIRECTION('',(0.707106781186548,-0.707106781186547,0.));
#392=DIRECTION('center_axis',(0.,0.,1.));
#393=DIRECTION('ref_axis',(-0.923879532511288,-0.382683432365088,0.));
#394=DIRECTION('',(0.,-1.,0.));
#395=DIRECTION('',(1.,0.,0.));
#396=DIRECTION('center_axis',(0.,0.,1.));
#397=DIRECTION('ref_axis',(-0.38268343236509,-0.923879532511287,0.));
#398=DIRECTION('',(0.,0.,-1.));
#399=DIRECTION('center_axis',(0.,0.,1.));
#400=DIRECTION('ref_axis',(-0.38268343236509,-0.923879532511287,0.));
#401=DIRECTION('',(0.,0.,1.));
#402=DIRECTION('center_axis',(0.,-1.,0.));
#403=DIRECTION('ref_axis',(0.,0.,-1.));
#404=DIRECTION('',(-1.,0.,0.));
#405=DIRECTION('',(0.,0.,1.));
#406=DIRECTION('center_axis',(0.,1.,0.));
#407=DIRECTION('ref_axis',(-1.,0.,0.));
#408=DIRECTION('center_axis',(0.,0.,1.));
#409=DIRECTION('ref_axis',(-0.38268343236509,-0.923879532511287,0.));
#410=DIRECTION('center_axis',(0.,0.,-1.));
#411=DIRECTION('ref_axis',(-0.38268343236509,-0.923879532511287,0.));
#412=DIRECTION('',(0.,0.,1.));
#413=DIRECTION('',(0.,0.,-1.));
#414=DIRECTION('center_axis',(0.707106781186547,0.707106781186548,0.));
#415=DIRECTION('ref_axis',(0.,0.,-1.));
#416=DIRECTION('',(0.707106781186548,-0.707106781186547,0.));
#417=DIRECTION('',(0.,0.,-1.));
#418=DIRECTION('center_axis',(0.,0.,1.));
#419=DIRECTION('ref_axis',(-0.923879532511288,-0.382683432365088,0.));
#420=DIRECTION('center_axis',(0.,0.,-1.));
#421=DIRECTION('ref_axis',(-0.923879532511288,-0.382683432365088,0.));
#422=DIRECTION('',(0.,0.,1.));
#423=DIRECTION('center_axis',(1.,0.,0.));
#424=DIRECTION('ref_axis',(0.,0.,-1.));
#425=DIRECTION('',(0.,-1.,0.));
#426=DIRECTION('',(0.,0.,1.));
#427=DIRECTION('center_axis',(-1.,0.,0.));
#428=DIRECTION('ref_axis',(0.,1.,0.));
#429=DIRECTION('center_axis',(1.,0.,0.));
#430=DIRECTION('ref_axis',(0.,1.,0.));
#431=DIRECTION('',(1.,0.,0.));
#432=DIRECTION('center_axis',(8.07003E-17,1.,0.));
#433=DIRECTION('ref_axis',(-1.,8.07003E-17,0.));
#434=DIRECTION('',(8.07003E-17,1.,0.));
#435=DIRECTION('center_axis',(0.,-1.,0.));
#436=DIRECTION('ref_axis',(-1.,0.,0.));
#437=DIRECTION('center_axis',(-0.707106781186548,-0.707106781186548,0.));
#438=DIRECTION('ref_axis',(0.,0.,1.));
#439=DIRECTION('',(-0.707106781186547,0.707106781186547,0.));
#440=DIRECTION('center_axis',(0.,1.,0.));
#441=DIRECTION('ref_axis',(0.,0.,1.));
#442=DIRECTION('',(1.,0.,0.));
#443=DIRECTION('center_axis',(0.,1.,0.));
#444=DIRECTION('ref_axis',(0.,0.,1.));
#445=DIRECTION('',(0.,0.,1.));
#446=DIRECTION('',(1.,0.,0.));
#447=DIRECTION('center_axis',(1.,0.,0.));
#448=DIRECTION('ref_axis',(0.,0.,-1.));
#449=DIRECTION('',(0.,-1.,0.));
#450=DIRECTION('center_axis',(0.,0.,1.));
#451=DIRECTION('ref_axis',(1.,0.,0.));
#452=CARTESIAN_POINT('',(0.,0.,0.));
#453=CARTESIAN_POINT('Origin',(-169.,154.556349186104,0.));
#454=CARTESIAN_POINT('',(-176.778174593052,146.778174593052,35.));
#455=CARTESIAN_POINT('',(-180.,154.556349186104,35.));
#456=CARTESIAN_POINT('Origin',(-169.,154.556349186104,35.));
#457=CARTESIAN_POINT('',(-180.,154.556349186104,0.));
#458=CARTESIAN_POINT('',(-180.,154.556349186104,35.));
#459=CARTESIAN_POINT('',(-176.778174593052,146.778174593052,0.));
#460=CARTESIAN_POINT('Origin',(-169.,154.556349186104,0.));
#461=CARTESIAN_POINT('',(-176.778174593052,146.778174593052,0.));
#462=CARTESIAN_POINT('Origin',(-180.,150.,0.));
#463=CARTESIAN_POINT('',(-180.,180.,35.));
#464=CARTESIAN_POINT('',(-180.,154.556349186104,35.));
#465=CARTESIAN_POINT('',(-180.,180.,0.));
#466=CARTESIAN_POINT('',(-180.,180.,0.));
#467=CARTESIAN_POINT('',(-180.,154.556349186104,0.));
#468=CARTESIAN_POINT('',(-180.,160.5,17.5));
#469=CARTESIAN_POINT('Origin',(-180.,165.,17.5));
#470=CARTESIAN_POINT('Origin',(-101.08489499698,78.9151050030198,35.));
#471=CARTESIAN_POINT('',(-33.221825406948,3.22182540694798,35.));
#472=CARTESIAN_POINT('',(-33.221825406948,3.22182540694798,35.));
#473=CARTESIAN_POINT('',(-25.4436508138959,0.,35.));
#474=CARTESIAN_POINT('Origin',(-25.4436508138959,11.,35.));
#475=CARTESIAN_POINT('',(0.,0.,35.));
#476=CARTESIAN_POINT('',(0.,0.,35.));
#477=CARTESIAN_POINT('',(-7.347881E-16,6.,35.));
#478=CARTESIAN_POINT('',(-7.347881E-16,6.,35.));
#479=CARTESIAN_POINT('',(-25.4436508138959,6.00000000000001,35.));
#480=CARTESIAN_POINT('',(-25.4436508138959,6.00000000000001,35.));
#481=CARTESIAN_POINT('',(-28.9791847198287,7.46446609406727,35.));
#482=CARTESIAN_POINT('Origin',(-25.4436508138959,11.,35.));
#483=CARTESIAN_POINT('',(-172.535533905933,151.020815280171,35.));
#484=CARTESIAN_POINT('',(-172.535533905933,151.020815280171,35.));
#485=CARTESIAN_POINT('',(-174.,154.556349186104,35.));
#486=CARTESIAN_POINT('Origin',(-169.,154.556349186104,35.));
#487=CARTESIAN_POINT('',(-174.,180.,35.));
#488=CARTESIAN_POINT('',(-174.,180.,35.));
#489=CARTESIAN_POINT('',(-180.,180.,35.));
#490=CARTESIAN_POINT('Origin',(-25.4436508138959,11.,0.));
#491=CARTESIAN_POINT('',(-33.221825406948,3.22182540694798,0.));
#492=CARTESIAN_POINT('',(-33.221825406948,3.22182540694797,35.));
#493=CARTESIAN_POINT('',(-25.4436508138959,0.,0.));
#494=CARTESIAN_POINT('Origin',(-25.4436508138959,11.,0.));
#495=CARTESIAN_POINT('',(-25.4436508138959,0.,0.));
#496=CARTESIAN_POINT('Origin',(0.,0.,0.));
#497=CARTESIAN_POINT('',(0.,0.,0.));
#498=CARTESIAN_POINT('',(0.,0.,0.));
#499=CARTESIAN_POINT('',(0.,0.,0.));
#500=CARTESIAN_POINT('',(-10.5,0.,17.5));
#501=CARTESIAN_POINT('Origin',(-15.,1.110223E-15,17.5));
#502=CARTESIAN_POINT('Origin',(-25.4436508138959,11.,0.));
#503=CARTESIAN_POINT('',(-25.4436508138959,6.00000000000001,0.));
#504=CARTESIAN_POINT('',(-28.9791847198287,7.46446609406727,0.));
#505=CARTESIAN_POINT('Origin',(-25.4436508138959,11.,0.));
#506=CARTESIAN_POINT('',(-28.9791847198287,7.46446609406727,0.));
#507=CARTESIAN_POINT('',(-25.4436508138959,6.00000000000001,35.));
#508=CARTESIAN_POINT('Origin',(-174.,152.485281374239,0.));
#509=CARTESIAN_POINT('',(-172.535533905933,151.020815280171,0.));
#510=CARTESIAN_POINT('',(-172.535533905933,151.020815280171,0.));
#511=CARTESIAN_POINT('',(-172.535533905933,151.020815280171,35.));
#512=CARTESIAN_POINT('Origin',(-169.,154.556349186104,0.));
#513=CARTESIAN_POINT('',(-174.,154.556349186104,0.));
#514=CARTESIAN_POINT('Origin',(-169.,154.556349186104,0.));
#515=CARTESIAN_POINT('',(-174.,154.556349186104,0.));
#516=CARTESIAN_POINT('Origin',(-174.,180.,0.));
#517=CARTESIAN_POINT('',(-174.,180.,0.));
#518=CARTESIAN_POINT('',(-174.,180.,0.));
#519=CARTESIAN_POINT('',(-174.,180.,0.));
#520=CARTESIAN_POINT('',(-174.,160.5,17.5));
#521=CARTESIAN_POINT('Origin',(-174.,165.,17.5));
#522=CARTESIAN_POINT('Origin',(-177.,165.,17.5));
#523=CARTESIAN_POINT('',(-177.,160.5,17.5));
#524=CARTESIAN_POINT('Origin',(-15.,3.,17.5));
#525=CARTESIAN_POINT('',(-10.5,6.,17.5));
#526=CARTESIAN_POINT('',(-10.5,3.,17.5));
#527=CARTESIAN_POINT('Origin',(-15.,6.,17.5));
#528=CARTESIAN_POINT('Origin',(-30.,0.,0.));
#529=CARTESIAN_POINT('',(-33.221825406948,3.22182540694798,0.));
#530=CARTESIAN_POINT('Origin',(-180.,180.,0.));
#531=CARTESIAN_POINT('',(-180.,180.,0.));
#532=CARTESIAN_POINT('Origin',(-27.5147186257614,6.00000000000001,0.));
#533=CARTESIAN_POINT('',(-7.347881E-16,6.,0.));
#534=CARTESIAN_POINT('',(-7.347881E-16,6.,0.));
#535=CARTESIAN_POINT('',(-25.4436508138959,6.00000000000001,0.));
#536=CARTESIAN_POINT('Origin',(-7.347881E-16,6.,0.));
#537=CARTESIAN_POINT('',(-7.347881E-16,6.,0.));
#538=CARTESIAN_POINT('Origin',(-101.08489499698,78.9151050030198,0.));
#539=UNCERTAINTY_MEASURE_WITH_UNIT(LENGTH_MEASURE(0.01),#543,
'DISTANCE_ACCURACY_VALUE',
'Maximum model space distance between geometric entities at asserted c
onnectivities');
#540=UNCERTAINTY_MEASURE_WITH_UNIT(LENGTH_MEASURE(0.01),#543,
'DISTANCE_ACCURACY_VALUE',
'Maximum model space distance between geometric entities at asserted c
onnectivities');
#541=(
GEOMETRIC_REPRESENTATION_CONTEXT(3)
GLOBAL_UNCERTAINTY_ASSIGNED_CONTEXT((#539))
GLOBAL_UNIT_ASSIGNED_CONTEXT((#543,#545,#546))
REPRESENTATION_CONTEXT('','3D')
);
#542=(
GEOMETRIC_REPRESENTATION_CONTEXT(3)
GLOBAL_UNCERTAINTY_ASSIGNED_CONTEXT((#540))
GLOBAL_UNIT_ASSIGNED_CONTEXT((#543,#545,#546))
REPRESENTATION_CONTEXT('','3D')
);
#543=(
LENGTH_UNIT()
NAMED_UNIT(*)
SI_UNIT(.MILLI.,.METRE.)
);
#544=(
LENGTH_UNIT()
NAMED_UNIT(*)
SI_UNIT(.CENTI.,.METRE.)
);
#545=(
NAMED_UNIT(*)
PLANE_ANGLE_UNIT()
SI_UNIT($,.RADIAN.)
);
#546=(
NAMED_UNIT(*)
SI_UNIT($,.STERADIAN.)
SOLID_ANGLE_UNIT()
);
#547=SHAPE_DEFINITION_REPRESENTATION(#548,#549);
#548=PRODUCT_DEFINITION_SHAPE('',$,#551);
#549=SHAPE_REPRESENTATION('',(#335),#541);
#550=PRODUCT_DEFINITION_CONTEXT('part definition',#555,'design');
#551=PRODUCT_DEFINITION('1008684','1008684',#552,#550);
#552=PRODUCT_DEFINITION_FORMATION('',$,#557);
#553=PRODUCT_RELATED_PRODUCT_CATEGORY('1008684','1008684',(#557));
#554=APPLICATION_PROTOCOL_DEFINITION('international standard',
'automotive_design',2009,#555);
#555=APPLICATION_CONTEXT(
'Core Data for Automotive Mechanical Design Process');
#556=PRODUCT_CONTEXT('part definition',#555,'mechanical');
#557=PRODUCT('1008684','1008684',$,(#556));
#558=PRESENTATION_STYLE_ASSIGNMENT((#560));
#559=PRESENTATION_STYLE_ASSIGNMENT((#561));
#560=SURFACE_STYLE_USAGE(.BOTH.,#566);
#561=SURFACE_STYLE_USAGE(.BOTH.,#567);
#562=SURFACE_STYLE_RENDERING_WITH_PROPERTIES($,#574,(#564));
#563=SURFACE_STYLE_RENDERING_WITH_PROPERTIES($,#575,(#565));
#564=SURFACE_STYLE_TRANSPARENT(0.);
#565=SURFACE_STYLE_TRANSPARENT(0.);
#566=SURFACE_SIDE_STYLE('',(#568,#562));
#567=SURFACE_SIDE_STYLE('',(#569,#563));
#568=SURFACE_STYLE_FILL_AREA(#570);
#569=SURFACE_STYLE_FILL_AREA(#571);
#570=FILL_AREA_STYLE('',(#572));
#571=FILL_AREA_STYLE('',(#573));
#572=FILL_AREA_STYLE_COLOUR('',#574);
#573=FILL_AREA_STYLE_COLOUR('',#575);
#574=COLOUR_RGB('',0.749019607843137,0.749019607843137,0.749019607843137);
#575=COLOUR_RGB('',0.63921568627451,0.63921568627451,0.686274509803922);
ENDSEC;
END-ISO-10303-21;
