ISO-10303-21;
HEADER;
/* Generated by software containing ST-Developer
 * from STEP Tools, Inc. (www.steptools.com) 
 */

FILE_DESCRIPTION(
/* description */ ('STEP AP214'),
/* implementation_level */ '2;1');

FILE_NAME(
/* name */ 
'C:\\Users\\b.steehouwer\\Desktop\\Producten\\ISB profielsysteem\\CAD-
files\\Profielverbinders\\Universele verbinders\\1025770.stp',
/* time_stamp */ '2024-04-30T16:37:21+02:00',
/* author */ ('b.steehouwer'),
/* organization */ ('CADENAS'),
/* preprocessor_version */ 'ST-DEVELOPER v18.1',
/* originating_system */ 'Autodesk Inventor 2021',
/* authorisation */ '  ');

FILE_SCHEMA (('AUTOMOTIVE_DESIGN { 1 0 10303 214 3 1 1 }'));
ENDSEC;

DATA;
#10=MECHANICAL_DESIGN_GEOMETRIC_PRESENTATION_REPRESENTATION('',(#13),#393);
#11=SHAPE_REPRESENTATION_RELATIONSHIP('SRR','None',#400,#12);
#12=ADVANCED_BREP_SHAPE_REPRESENTATION('',(#14),#392);
#13=STYLED_ITEM('',(#410),#14);
#14=MANIFOLD_SOLID_BREP('Solid1',#228);
#15=CONICAL_SURFACE('',#262,4.2,0.779933736912961);
#16=CONICAL_SURFACE('',#263,8.75,0.779933736912961);
#17=CYLINDRICAL_SURFACE('',#260,4.2);
#18=CYLINDRICAL_SURFACE('',#266,4.2);
#19=FACE_BOUND('',#43,.T.);
#20=FACE_BOUND('',#46,.T.);
#21=FACE_BOUND('',#48,.T.);
#22=FACE_BOUND('',#51,.T.);
#23=CIRCLE('',#249,8.75);
#24=CIRCLE('',#252,4.2);
#25=CIRCLE('',#254,4.2);
#26=CIRCLE('',#257,8.75);
#27=CIRCLE('',#261,4.2);
#28=CIRCLE('',#264,4.2);
#29=CIRCLE('',#265,4.2);
#30=FACE_OUTER_BOUND('',#42,.T.);
#31=FACE_OUTER_BOUND('',#44,.T.);
#32=FACE_OUTER_BOUND('',#45,.T.);
#33=FACE_OUTER_BOUND('',#47,.T.);
#34=FACE_OUTER_BOUND('',#49,.T.);
#35=FACE_OUTER_BOUND('',#50,.T.);
#36=FACE_OUTER_BOUND('',#52,.T.);
#37=FACE_OUTER_BOUND('',#53,.T.);
#38=FACE_OUTER_BOUND('',#54,.T.);
#39=FACE_OUTER_BOUND('',#55,.T.);
#40=FACE_OUTER_BOUND('',#56,.T.);
#41=FACE_OUTER_BOUND('',#57,.T.);
#42=EDGE_LOOP('',(#150,#151,#152,#153));
#43=EDGE_LOOP('',(#154));
#44=EDGE_LOOP('',(#155,#156,#157,#158));
#45=EDGE_LOOP('',(#159,#160,#161,#162));
#46=EDGE_LOOP('',(#163));
#47=EDGE_LOOP('',(#164,#165,#166,#167));
#48=EDGE_LOOP('',(#168));
#49=EDGE_LOOP('',(#169,#170,#171,#172));
#50=EDGE_LOOP('',(#173,#174,#175,#176));
#51=EDGE_LOOP('',(#177));
#52=EDGE_LOOP('',(#178,#179,#180,#181,#182,#183));
#53=EDGE_LOOP('',(#184,#185,#186,#187,#188,#189));
#54=EDGE_LOOP('',(#190,#191,#192,#193));
#55=EDGE_LOOP('',(#194,#195,#196,#197));
#56=EDGE_LOOP('',(#198,#199,#200,#201,#202));
#57=EDGE_LOOP('',(#203,#204,#205,#206,#207));
#58=LINE('',#333,#80);
#59=LINE('',#335,#81);
#60=LINE('',#337,#82);
#61=LINE('',#338,#83);
#62=LINE('',#343,#84);
#63=LINE('',#345,#85);
#64=LINE('',#346,#86);
#65=LINE('',#349,#87);
#66=LINE('',#351,#88);
#67=LINE('',#352,#89);
#68=LINE('',#357,#90);
#69=LINE('',#359,#91);
#70=LINE('',#360,#92);
#71=LINE('',#365,#93);
#72=LINE('',#367,#94);
#73=LINE('',#368,#95);
#74=LINE('',#370,#96);
#75=LINE('',#371,#97);
#76=LINE('',#378,#98);
#77=LINE('',#381,#99);
#78=LINE('',#387,#100);
#79=LINE('',#389,#101);
#80=VECTOR('',#271,1000.);
#81=VECTOR('',#272,1000.);
#82=VECTOR('',#273,1000.);
#83=VECTOR('',#274,1000.);
#84=VECTOR('',#279,1000.);
#85=VECTOR('',#280,1000.);
#86=VECTOR('',#281,1000.);
#87=VECTOR('',#284,1000.);
#88=VECTOR('',#285,1000.);
#89=VECTOR('',#286,1000.);
#90=VECTOR('',#291,1000.);
#91=VECTOR('',#292,1000.);
#92=VECTOR('',#293,1000.);
#93=VECTOR('',#298,1000.);
#94=VECTOR('',#299,1000.);
#95=VECTOR('',#300,1000.);
#96=VECTOR('',#303,1000.);
#97=VECTOR('',#304,1000.);
#98=VECTOR('',#313,4.2);
#99=VECTOR('',#318,4.2);
#100=VECTOR('',#325,8.75);
#101=VECTOR('',#328,4.2);
#102=VERTEX_POINT('',#331);
#103=VERTEX_POINT('',#332);
#104=VERTEX_POINT('',#334);
#105=VERTEX_POINT('',#336);
#106=VERTEX_POINT('',#339);
#107=VERTEX_POINT('',#342);
#108=VERTEX_POINT('',#344);
#109=VERTEX_POINT('',#348);
#110=VERTEX_POINT('',#350);
#111=VERTEX_POINT('',#353);
#112=VERTEX_POINT('',#356);
#113=VERTEX_POINT('',#358);
#114=VERTEX_POINT('',#361);
#115=VERTEX_POINT('',#364);
#116=VERTEX_POINT('',#366);
#117=VERTEX_POINT('',#372);
#118=VERTEX_POINT('',#377);
#119=VERTEX_POINT('',#383);
#120=VERTEX_POINT('',#384);
#121=EDGE_CURVE('',#102,#103,#58,.T.);
#122=EDGE_CURVE('',#104,#103,#59,.T.);
#123=EDGE_CURVE('',#105,#104,#60,.T.);
#124=EDGE_CURVE('',#105,#102,#61,.T.);
#125=EDGE_CURVE('',#106,#106,#23,.T.);
#126=EDGE_CURVE('',#103,#107,#62,.T.);
#127=EDGE_CURVE('',#108,#107,#63,.T.);
#128=EDGE_CURVE('',#104,#108,#64,.T.);
#129=EDGE_CURVE('',#107,#109,#65,.T.);
#130=EDGE_CURVE('',#110,#109,#66,.T.);
#131=EDGE_CURVE('',#108,#110,#67,.T.);
#132=EDGE_CURVE('',#111,#111,#24,.T.);
#133=EDGE_CURVE('',#109,#112,#68,.T.);
#134=EDGE_CURVE('',#113,#112,#69,.T.);
#135=EDGE_CURVE('',#110,#113,#70,.T.);
#136=EDGE_CURVE('',#114,#114,#25,.T.);
#137=EDGE_CURVE('',#112,#115,#71,.T.);
#138=EDGE_CURVE('',#116,#115,#72,.T.);
#139=EDGE_CURVE('',#113,#116,#73,.T.);
#140=EDGE_CURVE('',#115,#102,#74,.T.);
#141=EDGE_CURVE('',#116,#105,#75,.T.);
#142=EDGE_CURVE('',#117,#117,#26,.T.);
#143=EDGE_CURVE('',#114,#118,#76,.T.);
#144=EDGE_CURVE('',#118,#118,#27,.T.);
#145=EDGE_CURVE('',#118,#117,#77,.T.);
#146=EDGE_CURVE('',#119,#120,#28,.T.);
#147=EDGE_CURVE('',#120,#119,#29,.T.);
#148=EDGE_CURVE('',#119,#106,#78,.T.);
#149=EDGE_CURVE('',#120,#111,#79,.T.);
#150=ORIENTED_EDGE('',*,*,#121,.T.);
#151=ORIENTED_EDGE('',*,*,#122,.F.);
#152=ORIENTED_EDGE('',*,*,#123,.F.);
#153=ORIENTED_EDGE('',*,*,#124,.T.);
#154=ORIENTED_EDGE('',*,*,#125,.T.);
#155=ORIENTED_EDGE('',*,*,#126,.T.);
#156=ORIENTED_EDGE('',*,*,#127,.F.);
#157=ORIENTED_EDGE('',*,*,#128,.F.);
#158=ORIENTED_EDGE('',*,*,#122,.T.);
#159=ORIENTED_EDGE('',*,*,#129,.T.);
#160=ORIENTED_EDGE('',*,*,#130,.F.);
#161=ORIENTED_EDGE('',*,*,#131,.F.);
#162=ORIENTED_EDGE('',*,*,#127,.T.);
#163=ORIENTED_EDGE('',*,*,#132,.F.);
#164=ORIENTED_EDGE('',*,*,#133,.T.);
#165=ORIENTED_EDGE('',*,*,#134,.F.);
#166=ORIENTED_EDGE('',*,*,#135,.F.);
#167=ORIENTED_EDGE('',*,*,#130,.T.);
#168=ORIENTED_EDGE('',*,*,#136,.T.);
#169=ORIENTED_EDGE('',*,*,#137,.T.);
#170=ORIENTED_EDGE('',*,*,#138,.F.);
#171=ORIENTED_EDGE('',*,*,#139,.F.);
#172=ORIENTED_EDGE('',*,*,#134,.T.);
#173=ORIENTED_EDGE('',*,*,#140,.T.);
#174=ORIENTED_EDGE('',*,*,#124,.F.);
#175=ORIENTED_EDGE('',*,*,#141,.F.);
#176=ORIENTED_EDGE('',*,*,#138,.T.);
#177=ORIENTED_EDGE('',*,*,#142,.F.);
#178=ORIENTED_EDGE('',*,*,#123,.T.);
#179=ORIENTED_EDGE('',*,*,#128,.T.);
#180=ORIENTED_EDGE('',*,*,#131,.T.);
#181=ORIENTED_EDGE('',*,*,#135,.T.);
#182=ORIENTED_EDGE('',*,*,#139,.T.);
#183=ORIENTED_EDGE('',*,*,#141,.T.);
#184=ORIENTED_EDGE('',*,*,#121,.F.);
#185=ORIENTED_EDGE('',*,*,#140,.F.);
#186=ORIENTED_EDGE('',*,*,#137,.F.);
#187=ORIENTED_EDGE('',*,*,#133,.F.);
#188=ORIENTED_EDGE('',*,*,#129,.F.);
#189=ORIENTED_EDGE('',*,*,#126,.F.);
#190=ORIENTED_EDGE('',*,*,#136,.F.);
#191=ORIENTED_EDGE('',*,*,#143,.T.);
#192=ORIENTED_EDGE('',*,*,#144,.T.);
#193=ORIENTED_EDGE('',*,*,#143,.F.);
#194=ORIENTED_EDGE('',*,*,#144,.F.);
#195=ORIENTED_EDGE('',*,*,#145,.T.);
#196=ORIENTED_EDGE('',*,*,#142,.T.);
#197=ORIENTED_EDGE('',*,*,#145,.F.);
#198=ORIENTED_EDGE('',*,*,#146,.T.);
#199=ORIENTED_EDGE('',*,*,#147,.T.);
#200=ORIENTED_EDGE('',*,*,#148,.T.);
#201=ORIENTED_EDGE('',*,*,#125,.F.);
#202=ORIENTED_EDGE('',*,*,#148,.F.);
#203=ORIENTED_EDGE('',*,*,#146,.F.);
#204=ORIENTED_EDGE('',*,*,#147,.F.);
#205=ORIENTED_EDGE('',*,*,#149,.T.);
#206=ORIENTED_EDGE('',*,*,#132,.T.);
#207=ORIENTED_EDGE('',*,*,#149,.F.);
#208=PLANE('',#248);
#209=PLANE('',#250);
#210=PLANE('',#251);
#211=PLANE('',#253);
#212=PLANE('',#255);
#213=PLANE('',#256);
#214=PLANE('',#258);
#215=PLANE('',#259);
#216=ADVANCED_FACE('',(#30,#19),#208,.F.);
#217=ADVANCED_FACE('',(#31),#209,.F.);
#218=ADVANCED_FACE('',(#32,#20),#210,.F.);
#219=ADVANCED_FACE('',(#33,#21),#211,.F.);
#220=ADVANCED_FACE('',(#34),#212,.F.);
#221=ADVANCED_FACE('',(#35,#22),#213,.F.);
#222=ADVANCED_FACE('',(#36),#214,.T.);
#223=ADVANCED_FACE('',(#37),#215,.F.);
#224=ADVANCED_FACE('',(#38),#17,.F.);
#225=ADVANCED_FACE('',(#39),#15,.F.);
#226=ADVANCED_FACE('',(#40),#16,.F.);
#227=ADVANCED_FACE('',(#41),#18,.F.);
#228=CLOSED_SHELL('',(#216,#217,#218,#219,#220,#221,#222,#223,#224,#225,
#226,#227));
#229=DERIVED_UNIT_ELEMENT(#231,1.);
#230=DERIVED_UNIT_ELEMENT(#395,-3.);
#231=(
MASS_UNIT()
NAMED_UNIT(*)
SI_UNIT($,.GRAM.)
);
#232=DERIVED_UNIT((#229,#230));
#233=MEASURE_REPRESENTATION_ITEM('density measure',
POSITIVE_RATIO_MEASURE(1.),#232);
#234=PROPERTY_DEFINITION_REPRESENTATION(#239,#236);
#235=PROPERTY_DEFINITION_REPRESENTATION(#240,#237);
#236=REPRESENTATION('material name',(#238),#392);
#237=REPRESENTATION('density',(#233),#392);
#238=DESCRIPTIVE_REPRESENTATION_ITEM('Generic','Generic');
#239=PROPERTY_DEFINITION('material property','material name',#402);
#240=PROPERTY_DEFINITION('material property','density of part',#402);
#241=DATE_TIME_ROLE('creation_date');
#242=APPLIED_DATE_AND_TIME_ASSIGNMENT(#243,#241,(#402));
#243=DATE_AND_TIME(#244,#245);
#244=CALENDAR_DATE(2023,31,3);
#245=LOCAL_TIME(9,25,37.,#246);
#246=COORDINATED_UNIVERSAL_TIME_OFFSET(0,0,.BEHIND.);
#247=AXIS2_PLACEMENT_3D('placement',#329,#267,#268);
#248=AXIS2_PLACEMENT_3D('',#330,#269,#270);
#249=AXIS2_PLACEMENT_3D('',#340,#275,#276);
#250=AXIS2_PLACEMENT_3D('',#341,#277,#278);
#251=AXIS2_PLACEMENT_3D('',#347,#282,#283);
#252=AXIS2_PLACEMENT_3D('',#354,#287,#288);
#253=AXIS2_PLACEMENT_3D('',#355,#289,#290);
#254=AXIS2_PLACEMENT_3D('',#362,#294,#295);
#255=AXIS2_PLACEMENT_3D('',#363,#296,#297);
#256=AXIS2_PLACEMENT_3D('',#369,#301,#302);
#257=AXIS2_PLACEMENT_3D('',#373,#305,#306);
#258=AXIS2_PLACEMENT_3D('',#374,#307,#308);
#259=AXIS2_PLACEMENT_3D('',#375,#309,#310);
#260=AXIS2_PLACEMENT_3D('',#376,#311,#312);
#261=AXIS2_PLACEMENT_3D('',#379,#314,#315);
#262=AXIS2_PLACEMENT_3D('',#380,#316,#317);
#263=AXIS2_PLACEMENT_3D('',#382,#319,#320);
#264=AXIS2_PLACEMENT_3D('',#385,#321,#322);
#265=AXIS2_PLACEMENT_3D('',#386,#323,#324);
#266=AXIS2_PLACEMENT_3D('',#388,#326,#327);
#267=DIRECTION('axis',(0.,0.,1.));
#268=DIRECTION('refdir',(1.,0.,0.));
#269=DIRECTION('center_axis',(0.,-1.,0.));
#270=DIRECTION('ref_axis',(0.,0.,-1.));
#271=DIRECTION('',(0.,0.,1.));
#272=DIRECTION('',(-1.,0.,0.));
#273=DIRECTION('',(0.,0.,1.));
#274=DIRECTION('',(-1.,0.,0.));
#275=DIRECTION('center_axis',(0.,-1.,0.));
#276=DIRECTION('ref_axis',(0.,0.,-1.));
#277=DIRECTION('center_axis',(0.,0.,-1.));
#278=DIRECTION('ref_axis',(-1.,0.,0.));
#279=DIRECTION('',(0.,-1.,0.));
#280=DIRECTION('',(-1.,0.,0.));
#281=DIRECTION('',(0.,-1.,0.));
#282=DIRECTION('center_axis',(0.,1.,0.));
#283=DIRECTION('ref_axis',(0.,0.,1.));
#284=DIRECTION('',(0.,0.,-1.));
#285=DIRECTION('',(-1.,0.,0.));
#286=DIRECTION('',(0.,0.,-1.));
#287=DIRECTION('center_axis',(0.,-1.,0.));
#288=DIRECTION('ref_axis',(0.,0.,-1.));
#289=DIRECTION('center_axis',(0.,0.,1.));
#290=DIRECTION('ref_axis',(1.,0.,0.));
#291=DIRECTION('',(0.,1.,0.));
#292=DIRECTION('',(-1.,0.,0.));
#293=DIRECTION('',(0.,1.,0.));
#294=DIRECTION('center_axis',(0.,0.,1.));
#295=DIRECTION('ref_axis',(1.,0.,0.));
#296=DIRECTION('center_axis',(0.,-1.,0.));
#297=DIRECTION('ref_axis',(0.,0.,-1.));
#298=DIRECTION('',(0.,0.,1.));
#299=DIRECTION('',(-1.,0.,0.));
#300=DIRECTION('',(0.,0.,1.));
#301=DIRECTION('center_axis',(0.,0.,-1.));
#302=DIRECTION('ref_axis',(-1.,0.,0.));
#303=DIRECTION('',(0.,-1.,0.));
#304=DIRECTION('',(0.,-1.,0.));
#305=DIRECTION('center_axis',(0.,0.,1.));
#306=DIRECTION('ref_axis',(1.,0.,0.));
#307=DIRECTION('center_axis',(1.,0.,0.));
#308=DIRECTION('ref_axis',(0.,0.,-1.));
#309=DIRECTION('center_axis',(1.,0.,0.));
#310=DIRECTION('ref_axis',(0.,0.,-1.));
#311=DIRECTION('center_axis',(0.,0.,1.));
#312=DIRECTION('ref_axis',(1.,0.,0.));
#313=DIRECTION('',(0.,0.,1.));
#314=DIRECTION('center_axis',(0.,0.,1.));
#315=DIRECTION('ref_axis',(1.,0.,0.));
#316=DIRECTION('center_axis',(0.,0.,1.));
#317=DIRECTION('ref_axis',(1.,0.,0.));
#318=DIRECTION('',(-0.70323231033082,-8.61211197903636E-17,0.710960137916872));
#319=DIRECTION('center_axis',(0.,1.,0.));
#320=DIRECTION('ref_axis',(0.,0.,1.));
#321=DIRECTION('center_axis',(0.,-1.,0.));
#322=DIRECTION('ref_axis',(0.,0.,-1.));
#323=DIRECTION('center_axis',(0.,-1.,0.));
#324=DIRECTION('ref_axis',(0.,0.,-1.));
#325=DIRECTION('',(-8.61211197903636E-17,0.710960137916872,-0.70323231033082));
#326=DIRECTION('center_axis',(0.,-1.,0.));
#327=DIRECTION('ref_axis',(0.,0.,-1.));
#328=DIRECTION('',(0.,-1.,0.));
#329=CARTESIAN_POINT('',(0.,0.,0.));
#330=CARTESIAN_POINT('Origin',(40.,5.,5.));
#331=CARTESIAN_POINT('',(0.,5.,5.));
#332=CARTESIAN_POINT('',(0.,5.,40.));
#333=CARTESIAN_POINT('',(0.,5.,5.));
#334=CARTESIAN_POINT('',(40.,5.,40.));
#335=CARTESIAN_POINT('',(40.,5.,40.));
#336=CARTESIAN_POINT('',(40.,5.,5.));
#337=CARTESIAN_POINT('',(40.,5.,5.));
#338=CARTESIAN_POINT('',(40.,5.,5.));
#339=CARTESIAN_POINT('',(20.,5.,11.25));
#340=CARTESIAN_POINT('Origin',(20.,5.,20.));
#341=CARTESIAN_POINT('Origin',(40.,5.,40.));
#342=CARTESIAN_POINT('',(0.,0.,40.));
#343=CARTESIAN_POINT('',(0.,5.,40.));
#344=CARTESIAN_POINT('',(40.,0.,40.));
#345=CARTESIAN_POINT('',(40.,0.,40.));
#346=CARTESIAN_POINT('',(40.,5.,40.));
#347=CARTESIAN_POINT('Origin',(40.,0.,40.));
#348=CARTESIAN_POINT('',(0.,0.,0.));
#349=CARTESIAN_POINT('',(0.,0.,40.));
#350=CARTESIAN_POINT('',(40.,0.,0.));
#351=CARTESIAN_POINT('',(40.,0.,0.));
#352=CARTESIAN_POINT('',(40.,0.,40.));
#353=CARTESIAN_POINT('',(20.,0.,24.2));
#354=CARTESIAN_POINT('Origin',(20.,0.,20.));
#355=CARTESIAN_POINT('Origin',(40.,0.,0.));
#356=CARTESIAN_POINT('',(0.,40.,0.));
#357=CARTESIAN_POINT('',(0.,0.,0.));
#358=CARTESIAN_POINT('',(40.,40.,0.));
#359=CARTESIAN_POINT('',(40.,40.,0.));
#360=CARTESIAN_POINT('',(40.,0.,0.));
#361=CARTESIAN_POINT('',(15.8,20.,0.));
#362=CARTESIAN_POINT('Origin',(20.,20.,0.));
#363=CARTESIAN_POINT('Origin',(40.,40.,0.));
#364=CARTESIAN_POINT('',(0.,40.,5.));
#365=CARTESIAN_POINT('',(0.,40.,0.));
#366=CARTESIAN_POINT('',(40.,40.,5.));
#367=CARTESIAN_POINT('',(40.,40.,5.));
#368=CARTESIAN_POINT('',(40.,40.,0.));
#369=CARTESIAN_POINT('Origin',(40.,40.,5.));
#370=CARTESIAN_POINT('',(0.,40.,5.));
#371=CARTESIAN_POINT('',(40.,40.,5.));
#372=CARTESIAN_POINT('',(11.25,20.,5.));
#373=CARTESIAN_POINT('Origin',(20.,20.,5.));
#374=CARTESIAN_POINT('Origin',(40.,0.,0.));
#375=CARTESIAN_POINT('Origin',(0.,0.,0.));
#376=CARTESIAN_POINT('Origin',(20.,20.,5.));
#377=CARTESIAN_POINT('',(15.8,20.,0.4));
#378=CARTESIAN_POINT('',(15.8,20.,5.));
#379=CARTESIAN_POINT('Origin',(20.,20.,0.4));
#380=CARTESIAN_POINT('Origin',(20.,20.,0.4));
#381=CARTESIAN_POINT('',(15.8,20.,0.4));
#382=CARTESIAN_POINT('Origin',(20.,5.,20.));
#383=CARTESIAN_POINT('',(20.,0.4,15.8));
#384=CARTESIAN_POINT('',(20.,0.4,24.2));
#385=CARTESIAN_POINT('Origin',(20.,0.4,20.));
#386=CARTESIAN_POINT('Origin',(20.,0.4,20.));
#387=CARTESIAN_POINT('',(20.,5.,11.25));
#388=CARTESIAN_POINT('Origin',(20.,0.,20.));
#389=CARTESIAN_POINT('',(20.,0.,24.2));
#390=UNCERTAINTY_MEASURE_WITH_UNIT(LENGTH_MEASURE(0.01),#394,
'DISTANCE_ACCURACY_VALUE',
'Maximum model space distance between geometric entities at asserted c
onnectivities');
#391=UNCERTAINTY_MEASURE_WITH_UNIT(LENGTH_MEASURE(0.01),#394,
'DISTANCE_ACCURACY_VALUE',
'Maximum model space distance between geometric entities at asserted c
onnectivities');
#392=(
GEOMETRIC_REPRESENTATION_CONTEXT(3)
GLOBAL_UNCERTAINTY_ASSIGNED_CONTEXT((#390))
GLOBAL_UNIT_ASSIGNED_CONTEXT((#394,#396,#397))
REPRESENTATION_CONTEXT('','3D')
);
#393=(
GEOMETRIC_REPRESENTATION_CONTEXT(3)
GLOBAL_UNCERTAINTY_ASSIGNED_CONTEXT((#391))
GLOBAL_UNIT_ASSIGNED_CONTEXT((#394,#396,#397))
REPRESENTATION_CONTEXT('','3D')
);
#394=(
LENGTH_UNIT()
NAMED_UNIT(*)
SI_UNIT(.MILLI.,.METRE.)
);
#395=(
LENGTH_UNIT()
NAMED_UNIT(*)
SI_UNIT(.CENTI.,.METRE.)
);
#396=(
NAMED_UNIT(*)
PLANE_ANGLE_UNIT()
SI_UNIT($,.RADIAN.)
);
#397=(
NAMED_UNIT(*)
SI_UNIT($,.STERADIAN.)
SOLID_ANGLE_UNIT()
);
#398=SHAPE_DEFINITION_REPRESENTATION(#399,#400);
#399=PRODUCT_DEFINITION_SHAPE('',$,#402);
#400=SHAPE_REPRESENTATION('',(#247),#392);
#401=PRODUCT_DEFINITION_CONTEXT('part definition',#406,'design');
#402=PRODUCT_DEFINITION('1025770','1025770',#403,#401);
#403=PRODUCT_DEFINITION_FORMATION('',$,#408);
#404=PRODUCT_RELATED_PRODUCT_CATEGORY('1025770','1025770',(#408));
#405=APPLICATION_PROTOCOL_DEFINITION('international standard',
'automotive_design',2009,#406);
#406=APPLICATION_CONTEXT(
'Core Data for Automotive Mechanical Design Process');
#407=PRODUCT_CONTEXT('part definition',#406,'mechanical');
#408=PRODUCT('1025770','1025770','STEP AP214',(#407));
#409=PRESENTATION_STYLE_ASSIGNMENT((#411));
#410=PRESENTATION_STYLE_ASSIGNMENT((#412));
#411=SURFACE_STYLE_USAGE(.BOTH.,#417);
#412=SURFACE_STYLE_USAGE(.BOTH.,#418);
#413=SURFACE_STYLE_RENDERING_WITH_PROPERTIES($,#425,(#415));
#414=SURFACE_STYLE_RENDERING_WITH_PROPERTIES($,#426,(#416));
#415=SURFACE_STYLE_TRANSPARENT(0.);
#416=SURFACE_STYLE_TRANSPARENT(0.);
#417=SURFACE_SIDE_STYLE('',(#419,#413));
#418=SURFACE_SIDE_STYLE('',(#420,#414));
#419=SURFACE_STYLE_FILL_AREA(#421);
#420=SURFACE_STYLE_FILL_AREA(#422);
#421=FILL_AREA_STYLE('',(#423));
#422=FILL_AREA_STYLE('',(#424));
#423=FILL_AREA_STYLE_COLOUR('',#425);
#424=FILL_AREA_STYLE_COLOUR('',#426);
#425=COLOUR_RGB('',0.749019607843137,0.749019607843137,0.749019607843137);
#426=COLOUR_RGB('',0.729411764705882,0.768627450980392,0.784313725490196);
ENDSEC;
END-ISO-10303-21;
