ISO-10303-21;
HEADER;
/* Generated by software containing ST-Developer
 * from STEP Tools, Inc. (www.steptools.com) 
 */

FILE_DESCRIPTION(
/* description */ (''),
/* implementation_level */ '2;1');

FILE_NAME(
/* name */ '1029602.stp',
/* time_stamp */ '2024-11-19T09:32:25+01:00',
/* author */ ('Bo'),
/* organization */ (''),
/* preprocessor_version */ 'ST-DEVELOPER v20',
/* originating_system */ 'Autodesk Inventor 2025',
/* authorisation */ '  ');

FILE_SCHEMA (('AUTOMOTIVE_DESIGN { 1 0 10303 214 3 1 1 }'));
ENDSEC;

DATA;
#10=MECHANICAL_DESIGN_GEOMETRIC_PRESENTATION_REPRESENTATION('',(#13),#459);
#11=SHAPE_REPRESENTATION_RELATIONSHIP('SRR','None',#470,#12);
#12=ADVANCED_BREP_SHAPE_REPRESENTATION('',(#14),#458);
#13=STYLED_ITEM('',(#480),#14);
#14=MANIFOLD_SOLID_BREP('Solid1',#257);
#15=CONICAL_SURFACE('',#303,0.165354330708661,0.785398163397448);
#16=CONICAL_SURFACE('',#306,0.165354330708662,0.785398163397448);
#17=FACE_BOUND('',#50,.T.);
#18=FACE_BOUND('',#51,.T.);
#19=FACE_BOUND('',#53,.T.);
#20=FACE_BOUND('',#54,.T.);
#21=PLANE('',#282);
#22=PLANE('',#286);
#23=PLANE('',#290);
#24=PLANE('',#294);
#25=PLANE('',#295);
#26=PLANE('',#298);
#27=FACE_OUTER_BOUND('',#41,.T.);
#28=FACE_OUTER_BOUND('',#42,.T.);
#29=FACE_OUTER_BOUND('',#43,.T.);
#30=FACE_OUTER_BOUND('',#44,.T.);
#31=FACE_OUTER_BOUND('',#45,.T.);
#32=FACE_OUTER_BOUND('',#46,.T.);
#33=FACE_OUTER_BOUND('',#47,.T.);
#34=FACE_OUTER_BOUND('',#48,.T.);
#35=FACE_OUTER_BOUND('',#49,.T.);
#36=FACE_OUTER_BOUND('',#52,.T.);
#37=FACE_OUTER_BOUND('',#55,.T.);
#38=FACE_OUTER_BOUND('',#56,.T.);
#39=FACE_OUTER_BOUND('',#57,.T.);
#40=FACE_OUTER_BOUND('',#58,.T.);
#41=EDGE_LOOP('',(#169,#170,#171,#172));
#42=EDGE_LOOP('',(#173,#174,#175,#176));
#43=EDGE_LOOP('',(#177,#178,#179,#180));
#44=EDGE_LOOP('',(#181,#182,#183,#184));
#45=EDGE_LOOP('',(#185,#186,#187,#188));
#46=EDGE_LOOP('',(#189,#190,#191,#192));
#47=EDGE_LOOP('',(#193,#194,#195,#196));
#48=EDGE_LOOP('',(#197,#198,#199,#200));
#49=EDGE_LOOP('',(#201,#202,#203,#204,#205,#206,#207,#208));
#50=EDGE_LOOP('',(#209));
#51=EDGE_LOOP('',(#210));
#52=EDGE_LOOP('',(#211,#212,#213,#214,#215,#216,#217,#218));
#53=EDGE_LOOP('',(#219));
#54=EDGE_LOOP('',(#220));
#55=EDGE_LOOP('',(#221,#222,#223,#224));
#56=EDGE_LOOP('',(#225,#226,#227,#228));
#57=EDGE_LOOP('',(#229,#230,#231,#232));
#58=EDGE_LOOP('',(#233,#234,#235,#236));
#59=LINE('',#391,#79);
#60=LINE('',#394,#80);
#61=LINE('',#397,#81);
#62=LINE('',#399,#82);
#63=LINE('',#400,#83);
#64=LINE('',#405,#84);
#65=LINE('',#409,#85);
#66=LINE('',#411,#86);
#67=LINE('',#412,#87);
#68=LINE('',#417,#88);
#69=LINE('',#421,#89);
#70=LINE('',#423,#90);
#71=LINE('',#424,#91);
#72=LINE('',#429,#92);
#73=LINE('',#432,#93);
#74=LINE('',#433,#94);
#75=LINE('',#446,#95);
#76=LINE('',#449,#96);
#77=LINE('',#452,#97);
#78=LINE('',#455,#98);
#79=VECTOR('',#313,39.3700787401575);
#80=VECTOR('',#316,39.3700787401575);
#81=VECTOR('',#319,39.3700787401575);
#82=VECTOR('',#320,39.3700787401575);
#83=VECTOR('',#321,39.3700787401575);
#84=VECTOR('',#326,39.3700787401575);
#85=VECTOR('',#331,39.3700787401575);
#86=VECTOR('',#332,39.3700787401575);
#87=VECTOR('',#333,39.3700787401575);
#88=VECTOR('',#338,39.3700787401575);
#89=VECTOR('',#343,39.3700787401575);
#90=VECTOR('',#344,39.3700787401575);
#91=VECTOR('',#345,39.3700787401575);
#92=VECTOR('',#350,39.3700787401575);
#93=VECTOR('',#355,39.3700787401575);
#94=VECTOR('',#356,39.3700787401575);
#95=VECTOR('',#371,0.165354330708661);
#96=VECTOR('',#376,0.165354330708661);
#97=VECTOR('',#379,0.165354330708662);
#98=VECTOR('',#384,0.165354330708662);
#99=CIRCLE('',#280,0.15748031496063);
#100=CIRCLE('',#281,0.15748031496063);
#101=CIRCLE('',#284,0.15748031496063);
#102=CIRCLE('',#285,0.15748031496063);
#103=CIRCLE('',#288,0.15748031496063);
#104=CIRCLE('',#289,0.15748031496063);
#105=CIRCLE('',#292,0.15748031496063);
#106=CIRCLE('',#293,0.15748031496063);
#107=CIRCLE('',#296,0.340551181102363);
#108=CIRCLE('',#297,0.340551181102362);
#109=CIRCLE('',#299,0.165354330708662);
#110=CIRCLE('',#300,0.165354330708661);
#111=CIRCLE('',#302,0.165354330708661);
#112=CIRCLE('',#305,0.165354330708662);
#113=VERTEX_POINT('',#387);
#114=VERTEX_POINT('',#388);
#115=VERTEX_POINT('',#390);
#116=VERTEX_POINT('',#392);
#117=VERTEX_POINT('',#396);
#118=VERTEX_POINT('',#398);
#119=VERTEX_POINT('',#402);
#120=VERTEX_POINT('',#404);
#121=VERTEX_POINT('',#408);
#122=VERTEX_POINT('',#410);
#123=VERTEX_POINT('',#414);
#124=VERTEX_POINT('',#416);
#125=VERTEX_POINT('',#420);
#126=VERTEX_POINT('',#422);
#127=VERTEX_POINT('',#426);
#128=VERTEX_POINT('',#428);
#129=VERTEX_POINT('',#435);
#130=VERTEX_POINT('',#437);
#131=VERTEX_POINT('',#440);
#132=VERTEX_POINT('',#442);
#133=VERTEX_POINT('',#445);
#134=VERTEX_POINT('',#451);
#135=EDGE_CURVE('',#113,#114,#99,.T.);
#136=EDGE_CURVE('',#115,#114,#59,.T.);
#137=EDGE_CURVE('',#116,#115,#100,.T.);
#138=EDGE_CURVE('',#116,#113,#60,.T.);
#139=EDGE_CURVE('',#114,#117,#61,.T.);
#140=EDGE_CURVE('',#118,#117,#62,.T.);
#141=EDGE_CURVE('',#115,#118,#63,.T.);
#142=EDGE_CURVE('',#117,#119,#101,.T.);
#143=EDGE_CURVE('',#120,#119,#64,.T.);
#144=EDGE_CURVE('',#118,#120,#102,.T.);
#145=EDGE_CURVE('',#119,#121,#65,.T.);
#146=EDGE_CURVE('',#122,#121,#66,.T.);
#147=EDGE_CURVE('',#120,#122,#67,.T.);
#148=EDGE_CURVE('',#121,#123,#103,.T.);
#149=EDGE_CURVE('',#124,#123,#68,.T.);
#150=EDGE_CURVE('',#122,#124,#104,.T.);
#151=EDGE_CURVE('',#123,#125,#69,.T.);
#152=EDGE_CURVE('',#126,#125,#70,.T.);
#153=EDGE_CURVE('',#124,#126,#71,.T.);
#154=EDGE_CURVE('',#125,#127,#105,.T.);
#155=EDGE_CURVE('',#128,#127,#72,.T.);
#156=EDGE_CURVE('',#126,#128,#106,.T.);
#157=EDGE_CURVE('',#127,#113,#73,.T.);
#158=EDGE_CURVE('',#128,#116,#74,.T.);
#159=EDGE_CURVE('',#129,#129,#107,.T.);
#160=EDGE_CURVE('',#130,#130,#108,.T.);
#161=EDGE_CURVE('',#131,#131,#109,.T.);
#162=EDGE_CURVE('',#132,#132,#110,.T.);
#163=EDGE_CURVE('',#132,#133,#75,.T.);
#164=EDGE_CURVE('',#133,#133,#111,.T.);
#165=EDGE_CURVE('',#133,#130,#76,.T.);
#166=EDGE_CURVE('',#131,#134,#77,.T.);
#167=EDGE_CURVE('',#134,#134,#112,.T.);
#168=EDGE_CURVE('',#134,#129,#78,.T.);
#169=ORIENTED_EDGE('',*,*,#135,.T.);
#170=ORIENTED_EDGE('',*,*,#136,.F.);
#171=ORIENTED_EDGE('',*,*,#137,.F.);
#172=ORIENTED_EDGE('',*,*,#138,.T.);
#173=ORIENTED_EDGE('',*,*,#139,.T.);
#174=ORIENTED_EDGE('',*,*,#140,.F.);
#175=ORIENTED_EDGE('',*,*,#141,.F.);
#176=ORIENTED_EDGE('',*,*,#136,.T.);
#177=ORIENTED_EDGE('',*,*,#142,.T.);
#178=ORIENTED_EDGE('',*,*,#143,.F.);
#179=ORIENTED_EDGE('',*,*,#144,.F.);
#180=ORIENTED_EDGE('',*,*,#140,.T.);
#181=ORIENTED_EDGE('',*,*,#145,.T.);
#182=ORIENTED_EDGE('',*,*,#146,.F.);
#183=ORIENTED_EDGE('',*,*,#147,.F.);
#184=ORIENTED_EDGE('',*,*,#143,.T.);
#185=ORIENTED_EDGE('',*,*,#148,.T.);
#186=ORIENTED_EDGE('',*,*,#149,.F.);
#187=ORIENTED_EDGE('',*,*,#150,.F.);
#188=ORIENTED_EDGE('',*,*,#146,.T.);
#189=ORIENTED_EDGE('',*,*,#151,.T.);
#190=ORIENTED_EDGE('',*,*,#152,.F.);
#191=ORIENTED_EDGE('',*,*,#153,.F.);
#192=ORIENTED_EDGE('',*,*,#149,.T.);
#193=ORIENTED_EDGE('',*,*,#154,.T.);
#194=ORIENTED_EDGE('',*,*,#155,.F.);
#195=ORIENTED_EDGE('',*,*,#156,.F.);
#196=ORIENTED_EDGE('',*,*,#152,.T.);
#197=ORIENTED_EDGE('',*,*,#157,.T.);
#198=ORIENTED_EDGE('',*,*,#138,.F.);
#199=ORIENTED_EDGE('',*,*,#158,.F.);
#200=ORIENTED_EDGE('',*,*,#155,.T.);
#201=ORIENTED_EDGE('',*,*,#137,.T.);
#202=ORIENTED_EDGE('',*,*,#141,.T.);
#203=ORIENTED_EDGE('',*,*,#144,.T.);
#204=ORIENTED_EDGE('',*,*,#147,.T.);
#205=ORIENTED_EDGE('',*,*,#150,.T.);
#206=ORIENTED_EDGE('',*,*,#153,.T.);
#207=ORIENTED_EDGE('',*,*,#156,.T.);
#208=ORIENTED_EDGE('',*,*,#158,.T.);
#209=ORIENTED_EDGE('',*,*,#159,.F.);
#210=ORIENTED_EDGE('',*,*,#160,.F.);
#211=ORIENTED_EDGE('',*,*,#135,.F.);
#212=ORIENTED_EDGE('',*,*,#157,.F.);
#213=ORIENTED_EDGE('',*,*,#154,.F.);
#214=ORIENTED_EDGE('',*,*,#151,.F.);
#215=ORIENTED_EDGE('',*,*,#148,.F.);
#216=ORIENTED_EDGE('',*,*,#145,.F.);
#217=ORIENTED_EDGE('',*,*,#142,.F.);
#218=ORIENTED_EDGE('',*,*,#139,.F.);
#219=ORIENTED_EDGE('',*,*,#161,.T.);
#220=ORIENTED_EDGE('',*,*,#162,.T.);
#221=ORIENTED_EDGE('',*,*,#162,.F.);
#222=ORIENTED_EDGE('',*,*,#163,.T.);
#223=ORIENTED_EDGE('',*,*,#164,.T.);
#224=ORIENTED_EDGE('',*,*,#163,.F.);
#225=ORIENTED_EDGE('',*,*,#164,.F.);
#226=ORIENTED_EDGE('',*,*,#165,.T.);
#227=ORIENTED_EDGE('',*,*,#160,.T.);
#228=ORIENTED_EDGE('',*,*,#165,.F.);
#229=ORIENTED_EDGE('',*,*,#161,.F.);
#230=ORIENTED_EDGE('',*,*,#166,.T.);
#231=ORIENTED_EDGE('',*,*,#167,.T.);
#232=ORIENTED_EDGE('',*,*,#166,.F.);
#233=ORIENTED_EDGE('',*,*,#167,.F.);
#234=ORIENTED_EDGE('',*,*,#168,.T.);
#235=ORIENTED_EDGE('',*,*,#159,.T.);
#236=ORIENTED_EDGE('',*,*,#168,.F.);
#237=CYLINDRICAL_SURFACE('',#279,0.15748031496063);
#238=CYLINDRICAL_SURFACE('',#283,0.15748031496063);
#239=CYLINDRICAL_SURFACE('',#287,0.15748031496063);
#240=CYLINDRICAL_SURFACE('',#291,0.15748031496063);
#241=CYLINDRICAL_SURFACE('',#301,0.165354330708661);
#242=CYLINDRICAL_SURFACE('',#304,0.165354330708662);
#243=ADVANCED_FACE('',(#27),#237,.T.);
#244=ADVANCED_FACE('',(#28),#21,.F.);
#245=ADVANCED_FACE('',(#29),#238,.T.);
#246=ADVANCED_FACE('',(#30),#22,.F.);
#247=ADVANCED_FACE('',(#31),#239,.T.);
#248=ADVANCED_FACE('',(#32),#23,.F.);
#249=ADVANCED_FACE('',(#33),#240,.T.);
#250=ADVANCED_FACE('',(#34),#24,.F.);
#251=ADVANCED_FACE('',(#35,#17,#18),#25,.T.);
#252=ADVANCED_FACE('',(#36,#19,#20),#26,.F.);
#253=ADVANCED_FACE('',(#37),#241,.F.);
#254=ADVANCED_FACE('',(#38),#15,.F.);
#255=ADVANCED_FACE('',(#39),#242,.F.);
#256=ADVANCED_FACE('',(#40),#16,.F.);
#257=CLOSED_SHELL('',(#243,#244,#245,#246,#247,#248,#249,#250,#251,#252,
#253,#254,#255,#256));
#258=DERIVED_UNIT_ELEMENT(#260,1.);
#259=DERIVED_UNIT_ELEMENT(#464,-3.);
#260=(
CONVERSION_BASED_UNIT('gram',#262)
MASS_UNIT()
NAMED_UNIT(#461)
);
#261=(
MASS_UNIT()
NAMED_UNIT(*)
SI_UNIT(.KILO.,.GRAM.)
);
#262=MASS_MEASURE_WITH_UNIT(MASS_MEASURE(0.001),#261);
#263=DERIVED_UNIT((#258,#259));
#264=MEASURE_REPRESENTATION_ITEM('density measure',
POSITIVE_RATIO_MEASURE(1.),#263);
#265=PROPERTY_DEFINITION_REPRESENTATION(#270,#267);
#266=PROPERTY_DEFINITION_REPRESENTATION(#271,#268);
#267=REPRESENTATION('material name',(#269),#458);
#268=REPRESENTATION('density',(#264),#458);
#269=DESCRIPTIVE_REPRESENTATION_ITEM('Generic','Generic');
#270=PROPERTY_DEFINITION('material property','material name',#472);
#271=PROPERTY_DEFINITION('material property','density of part',#472);
#272=DATE_TIME_ROLE('creation_date');
#273=APPLIED_DATE_AND_TIME_ASSIGNMENT(#274,#272,(#472));
#274=DATE_AND_TIME(#275,#276);
#275=CALENDAR_DATE(2024,18,11);
#276=LOCAL_TIME(8,50,37.,#277);
#277=COORDINATED_UNIVERSAL_TIME_OFFSET(0,0,.BEHIND.);
#278=AXIS2_PLACEMENT_3D('',#385,#307,#308);
#279=AXIS2_PLACEMENT_3D('',#386,#309,#310);
#280=AXIS2_PLACEMENT_3D('',#389,#311,#312);
#281=AXIS2_PLACEMENT_3D('',#393,#314,#315);
#282=AXIS2_PLACEMENT_3D('',#395,#317,#318);
#283=AXIS2_PLACEMENT_3D('',#401,#322,#323);
#284=AXIS2_PLACEMENT_3D('',#403,#324,#325);
#285=AXIS2_PLACEMENT_3D('',#406,#327,#328);
#286=AXIS2_PLACEMENT_3D('',#407,#329,#330);
#287=AXIS2_PLACEMENT_3D('',#413,#334,#335);
#288=AXIS2_PLACEMENT_3D('',#415,#336,#337);
#289=AXIS2_PLACEMENT_3D('',#418,#339,#340);
#290=AXIS2_PLACEMENT_3D('',#419,#341,#342);
#291=AXIS2_PLACEMENT_3D('',#425,#346,#347);
#292=AXIS2_PLACEMENT_3D('',#427,#348,#349);
#293=AXIS2_PLACEMENT_3D('',#430,#351,#352);
#294=AXIS2_PLACEMENT_3D('',#431,#353,#354);
#295=AXIS2_PLACEMENT_3D('',#434,#357,#358);
#296=AXIS2_PLACEMENT_3D('',#436,#359,#360);
#297=AXIS2_PLACEMENT_3D('',#438,#361,#362);
#298=AXIS2_PLACEMENT_3D('',#439,#363,#364);
#299=AXIS2_PLACEMENT_3D('',#441,#365,#366);
#300=AXIS2_PLACEMENT_3D('',#443,#367,#368);
#301=AXIS2_PLACEMENT_3D('',#444,#369,#370);
#302=AXIS2_PLACEMENT_3D('',#447,#372,#373);
#303=AXIS2_PLACEMENT_3D('',#448,#374,#375);
#304=AXIS2_PLACEMENT_3D('',#450,#377,#378);
#305=AXIS2_PLACEMENT_3D('',#453,#380,#381);
#306=AXIS2_PLACEMENT_3D('',#454,#382,#383);
#307=DIRECTION('axis',(0.,0.,1.));
#308=DIRECTION('refdir',(1.,0.,0.));
#309=DIRECTION('center_axis',(0.,0.,-1.));
#310=DIRECTION('ref_axis',(-1.,0.,0.));
#311=DIRECTION('center_axis',(0.,0.,1.));
#312=DIRECTION('ref_axis',(1.,0.,0.));
#313=DIRECTION('',(0.,0.,-1.));
#314=DIRECTION('center_axis',(0.,0.,1.));
#315=DIRECTION('ref_axis',(1.,0.,0.));
#316=DIRECTION('',(0.,0.,-1.));
#317=DIRECTION('center_axis',(1.,0.,0.));
#318=DIRECTION('ref_axis',(0.,0.,-1.));
#319=DIRECTION('',(0.,-1.,0.));
#320=DIRECTION('',(0.,0.,-1.));
#321=DIRECTION('',(0.,-1.,0.));
#322=DIRECTION('center_axis',(0.,0.,-1.));
#323=DIRECTION('ref_axis',(-1.,0.,0.));
#324=DIRECTION('center_axis',(0.,0.,1.));
#325=DIRECTION('ref_axis',(1.,0.,0.));
#326=DIRECTION('',(0.,0.,-1.));
#327=DIRECTION('center_axis',(0.,0.,1.));
#328=DIRECTION('ref_axis',(1.,0.,0.));
#329=DIRECTION('center_axis',(0.,1.,0.));
#330=DIRECTION('ref_axis',(0.,0.,1.));
#331=DIRECTION('',(1.,0.,0.));
#332=DIRECTION('',(0.,0.,-1.));
#333=DIRECTION('',(1.,0.,0.));
#334=DIRECTION('center_axis',(0.,0.,-1.));
#335=DIRECTION('ref_axis',(-1.,0.,0.));
#336=DIRECTION('center_axis',(0.,0.,1.));
#337=DIRECTION('ref_axis',(1.,0.,0.));
#338=DIRECTION('',(0.,0.,-1.));
#339=DIRECTION('center_axis',(0.,0.,1.));
#340=DIRECTION('ref_axis',(1.,0.,0.));
#341=DIRECTION('center_axis',(-1.,0.,0.));
#342=DIRECTION('ref_axis',(0.,0.,1.));
#343=DIRECTION('',(0.,1.,0.));
#344=DIRECTION('',(0.,0.,-1.));
#345=DIRECTION('',(0.,1.,0.));
#346=DIRECTION('center_axis',(0.,0.,-1.));
#347=DIRECTION('ref_axis',(-1.,0.,0.));
#348=DIRECTION('center_axis',(0.,0.,1.));
#349=DIRECTION('ref_axis',(1.,0.,0.));
#350=DIRECTION('',(0.,0.,-1.));
#351=DIRECTION('center_axis',(0.,0.,1.));
#352=DIRECTION('ref_axis',(1.,0.,0.));
#353=DIRECTION('center_axis',(0.,-1.,0.));
#354=DIRECTION('ref_axis',(0.,0.,-1.));
#355=DIRECTION('',(-1.,0.,0.));
#356=DIRECTION('',(-1.,0.,0.));
#357=DIRECTION('center_axis',(0.,0.,1.));
#358=DIRECTION('ref_axis',(1.,0.,0.));
#359=DIRECTION('center_axis',(0.,0.,1.));
#360=DIRECTION('ref_axis',(1.,0.,0.));
#361=DIRECTION('center_axis',(0.,0.,1.));
#362=DIRECTION('ref_axis',(1.,0.,0.));
#363=DIRECTION('center_axis',(0.,0.,1.));
#364=DIRECTION('ref_axis',(1.,0.,0.));
#365=DIRECTION('center_axis',(0.,0.,1.));
#366=DIRECTION('ref_axis',(1.,0.,0.));
#367=DIRECTION('center_axis',(0.,0.,1.));
#368=DIRECTION('ref_axis',(1.,0.,0.));
#369=DIRECTION('center_axis',(0.,0.,1.));
#370=DIRECTION('ref_axis',(1.,0.,0.));
#371=DIRECTION('',(0.,0.,1.));
#372=DIRECTION('center_axis',(0.,0.,1.));
#373=DIRECTION('ref_axis',(1.,0.,0.));
#374=DIRECTION('center_axis',(0.,0.,1.));
#375=DIRECTION('ref_axis',(1.,0.,0.));
#376=DIRECTION('',(-0.707106781186547,-8.65956056235493E-17,0.707106781186548));
#377=DIRECTION('center_axis',(0.,0.,1.));
#378=DIRECTION('ref_axis',(1.,0.,0.));
#379=DIRECTION('',(0.,0.,1.));
#380=DIRECTION('center_axis',(0.,0.,1.));
#381=DIRECTION('ref_axis',(1.,0.,0.));
#382=DIRECTION('center_axis',(0.,0.,1.));
#383=DIRECTION('ref_axis',(1.,0.,0.));
#384=DIRECTION('',(-0.707106781186547,-8.65956056235493E-17,0.707106781186548));
#385=CARTESIAN_POINT('',(0.,0.,0.));
#386=CARTESIAN_POINT('Origin',(0.15748031496063,0.62992125984252,0.196850393700787));
#387=CARTESIAN_POINT('',(0.15748031496063,0.78740157480315,0.));
#388=CARTESIAN_POINT('',(0.,0.62992125984252,0.));
#389=CARTESIAN_POINT('Origin',(0.15748031496063,0.62992125984252,0.));
#390=CARTESIAN_POINT('',(0.,0.62992125984252,0.196850393700787));
#391=CARTESIAN_POINT('',(0.,0.62992125984252,0.196850393700787));
#392=CARTESIAN_POINT('',(0.15748031496063,0.78740157480315,0.196850393700787));
#393=CARTESIAN_POINT('Origin',(0.15748031496063,0.62992125984252,0.196850393700787));
#394=CARTESIAN_POINT('',(0.15748031496063,0.78740157480315,0.196850393700787));
#395=CARTESIAN_POINT('Origin',(0.,0.62992125984252,0.196850393700787));
#396=CARTESIAN_POINT('',(0.,-0.62992125984252,0.));
#397=CARTESIAN_POINT('',(0.,0.62992125984252,0.));
#398=CARTESIAN_POINT('',(0.,-0.62992125984252,0.196850393700787));
#399=CARTESIAN_POINT('',(0.,-0.62992125984252,0.196850393700787));
#400=CARTESIAN_POINT('',(0.,0.62992125984252,0.196850393700787));
#401=CARTESIAN_POINT('Origin',(0.15748031496063,-0.62992125984252,0.196850393700787));
#402=CARTESIAN_POINT('',(0.15748031496063,-0.78740157480315,0.));
#403=CARTESIAN_POINT('Origin',(0.15748031496063,-0.62992125984252,0.));
#404=CARTESIAN_POINT('',(0.15748031496063,-0.78740157480315,0.196850393700787));
#405=CARTESIAN_POINT('',(0.15748031496063,-0.78740157480315,0.196850393700787));
#406=CARTESIAN_POINT('Origin',(0.15748031496063,-0.62992125984252,0.196850393700787));
#407=CARTESIAN_POINT('Origin',(0.15748031496063,-0.78740157480315,0.196850393700787));
#408=CARTESIAN_POINT('',(2.99212598425197,-0.78740157480315,0.));
#409=CARTESIAN_POINT('',(0.15748031496063,-0.78740157480315,0.));
#410=CARTESIAN_POINT('',(2.99212598425197,-0.78740157480315,0.196850393700787));
#411=CARTESIAN_POINT('',(2.99212598425197,-0.78740157480315,0.196850393700787));
#412=CARTESIAN_POINT('',(0.15748031496063,-0.78740157480315,0.196850393700787));
#413=CARTESIAN_POINT('Origin',(2.99212598425197,-0.62992125984252,0.196850393700787));
#414=CARTESIAN_POINT('',(3.1496062992126,-0.62992125984252,0.));
#415=CARTESIAN_POINT('Origin',(2.99212598425197,-0.62992125984252,0.));
#416=CARTESIAN_POINT('',(3.1496062992126,-0.62992125984252,0.196850393700787));
#417=CARTESIAN_POINT('',(3.1496062992126,-0.62992125984252,0.196850393700787));
#418=CARTESIAN_POINT('Origin',(2.99212598425197,-0.62992125984252,0.196850393700787));
#419=CARTESIAN_POINT('Origin',(3.1496062992126,-0.62992125984252,0.196850393700787));
#420=CARTESIAN_POINT('',(3.1496062992126,0.62992125984252,0.));
#421=CARTESIAN_POINT('',(3.1496062992126,-0.62992125984252,0.));
#422=CARTESIAN_POINT('',(3.1496062992126,0.62992125984252,0.196850393700787));
#423=CARTESIAN_POINT('',(3.1496062992126,0.62992125984252,0.196850393700787));
#424=CARTESIAN_POINT('',(3.1496062992126,-0.62992125984252,0.196850393700787));
#425=CARTESIAN_POINT('Origin',(2.99212598425197,0.62992125984252,0.196850393700787));
#426=CARTESIAN_POINT('',(2.99212598425197,0.78740157480315,0.));
#427=CARTESIAN_POINT('Origin',(2.99212598425197,0.62992125984252,0.));
#428=CARTESIAN_POINT('',(2.99212598425197,0.78740157480315,0.196850393700787));
#429=CARTESIAN_POINT('',(2.99212598425197,0.78740157480315,0.196850393700787));
#430=CARTESIAN_POINT('Origin',(2.99212598425197,0.62992125984252,0.196850393700787));
#431=CARTESIAN_POINT('Origin',(2.99212598425197,0.78740157480315,0.196850393700787));
#432=CARTESIAN_POINT('',(2.99212598425197,0.78740157480315,0.));
#433=CARTESIAN_POINT('',(2.99212598425197,0.78740157480315,0.196850393700787));
#434=CARTESIAN_POINT('Origin',(0.15748031496063,0.62992125984252,0.196850393700787));
#435=CARTESIAN_POINT('',(2.02165354330709,-4.17054913882859E-17,0.196850393700788));
#436=CARTESIAN_POINT('Origin',(2.36220472440945,0.,0.196850393700787));
#437=CARTESIAN_POINT('',(0.446850393700787,-4.17054913882858E-17,0.196850393700788));
#438=CARTESIAN_POINT('Origin',(0.78740157480315,0.,0.196850393700787));
#439=CARTESIAN_POINT('Origin',(0.15748031496063,0.62992125984252,0.));
#440=CARTESIAN_POINT('',(2.19685039370079,-2.02500651827516E-17,0.));
#441=CARTESIAN_POINT('Origin',(2.36220472440945,0.,0.));
#442=CARTESIAN_POINT('',(0.622047244094488,-2.02500651827515E-17,0.));
#443=CARTESIAN_POINT('Origin',(0.78740157480315,0.,0.));
#444=CARTESIAN_POINT('Origin',(0.78740157480315,0.,0.196850393700787));
#445=CARTESIAN_POINT('',(0.622047244094488,-2.02500651827515E-17,0.0216535433070866));
#446=CARTESIAN_POINT('',(0.622047244094488,-2.02500651827515E-17,0.196850393700787));
#447=CARTESIAN_POINT('Origin',(0.78740157480315,0.,0.0216535433070866));
#448=CARTESIAN_POINT('Origin',(0.78740157480315,0.,0.0216535433070866));
#449=CARTESIAN_POINT('',(0.622047244094488,-2.02500651827515E-17,0.0216535433070866));
#450=CARTESIAN_POINT('Origin',(2.36220472440945,0.,0.196850393700787));
#451=CARTESIAN_POINT('',(2.19685039370079,-2.02500651827516E-17,0.0216535433070866));
#452=CARTESIAN_POINT('',(2.19685039370079,-2.02500651827516E-17,0.196850393700787));
#453=CARTESIAN_POINT('Origin',(2.36220472440945,0.,0.0216535433070866));
#454=CARTESIAN_POINT('Origin',(2.36220472440945,0.,0.0216535433070866));
#455=CARTESIAN_POINT('',(2.19685039370079,-2.02500651827516E-17,0.0216535433070866));
#456=UNCERTAINTY_MEASURE_WITH_UNIT(LENGTH_MEASURE(0.000393700787401575),
#462,'DISTANCE_ACCURACY_VALUE',
'Maximum model space distance between geometric entities at asserted c
onnectivities');
#457=UNCERTAINTY_MEASURE_WITH_UNIT(LENGTH_MEASURE(0.000393700787401575),
#462,'DISTANCE_ACCURACY_VALUE',
'Maximum model space distance between geometric entities at asserted c
onnectivities');
#458=(
GEOMETRIC_REPRESENTATION_CONTEXT(3)
GLOBAL_UNCERTAINTY_ASSIGNED_CONTEXT((#456))
GLOBAL_UNIT_ASSIGNED_CONTEXT((#462,#466,#467))
REPRESENTATION_CONTEXT('','3D')
);
#459=(
GEOMETRIC_REPRESENTATION_CONTEXT(3)
GLOBAL_UNCERTAINTY_ASSIGNED_CONTEXT((#457))
GLOBAL_UNIT_ASSIGNED_CONTEXT((#462,#466,#467))
REPRESENTATION_CONTEXT('','3D')
);
#460=DIMENSIONAL_EXPONENTS(1.,0.,0.,0.,0.,0.,0.);
#461=DIMENSIONAL_EXPONENTS(0.,1.,0.,0.,0.,0.,0.);
#462=(
CONVERSION_BASED_UNIT('inch',#465)
LENGTH_UNIT()
NAMED_UNIT(#460)
);
#463=(
LENGTH_UNIT()
NAMED_UNIT(*)
SI_UNIT(.MILLI.,.METRE.)
);
#464=(
LENGTH_UNIT()
NAMED_UNIT(*)
SI_UNIT(.CENTI.,.METRE.)
);
#465=LENGTH_MEASURE_WITH_UNIT(LENGTH_MEASURE(25.4),#463);
#466=(
NAMED_UNIT(*)
PLANE_ANGLE_UNIT()
SI_UNIT($,.RADIAN.)
);
#467=(
NAMED_UNIT(*)
SI_UNIT($,.STERADIAN.)
SOLID_ANGLE_UNIT()
);
#468=SHAPE_DEFINITION_REPRESENTATION(#469,#470);
#469=PRODUCT_DEFINITION_SHAPE('',$,#472);
#470=SHAPE_REPRESENTATION('',(#278),#458);
#471=PRODUCT_DEFINITION_CONTEXT('part definition',#476,'design');
#472=PRODUCT_DEFINITION('1029602','1029602',#473,#471);
#473=PRODUCT_DEFINITION_FORMATION('',$,#478);
#474=PRODUCT_RELATED_PRODUCT_CATEGORY('1029602','1029602',(#478));
#475=APPLICATION_PROTOCOL_DEFINITION('international standard',
'automotive_design',2009,#476);
#476=APPLICATION_CONTEXT(
'Core Data for Automotive Mechanical Design Process');
#477=PRODUCT_CONTEXT('part definition',#476,'mechanical');
#478=PRODUCT('1029602','1029602',$,(#477));
#479=PRESENTATION_STYLE_ASSIGNMENT((#481));
#480=PRESENTATION_STYLE_ASSIGNMENT((#482));
#481=SURFACE_STYLE_USAGE(.BOTH.,#487);
#482=SURFACE_STYLE_USAGE(.BOTH.,#488);
#483=SURFACE_STYLE_RENDERING_WITH_PROPERTIES($,#495,(#485));
#484=SURFACE_STYLE_RENDERING_WITH_PROPERTIES($,#496,(#486));
#485=SURFACE_STYLE_TRANSPARENT(0.);
#486=SURFACE_STYLE_TRANSPARENT(0.);
#487=SURFACE_SIDE_STYLE('',(#489,#483));
#488=SURFACE_SIDE_STYLE('',(#490,#484));
#489=SURFACE_STYLE_FILL_AREA(#491);
#490=SURFACE_STYLE_FILL_AREA(#492);
#491=FILL_AREA_STYLE('',(#493));
#492=FILL_AREA_STYLE('',(#494));
#493=FILL_AREA_STYLE_COLOUR('',#495);
#494=FILL_AREA_STYLE_COLOUR('',#496);
#495=COLOUR_RGB('',0.749019607843137,0.749019607843137,0.749019607843137);
#496=COLOUR_RGB('',0.729411764705882,0.768627450980392,0.784313725490196);
ENDSEC;
END-ISO-10303-21;
