ISO-10303-21;
HEADER;
/* Generated by software containing ST-Developer
 * from STEP Tools, Inc. (www.steptools.com) 
 */
/* OPTION: using custom renumber hook */

FILE_DESCRIPTION(
/* description */ ('STEP AP214'),
/* implementation_level */ '2;1');

FILE_NAME(
/* name */ '093028',
/* time_stamp */ '2022-08-22T11:18:44+02:00',
/* author */ ('License CC BY-ND 4.0'),
/* organization */ ('CADENAS'),
/* preprocessor_version */ 'ST-DEVELOPER v18.102',
/* originating_system */ 'PARTsolutions',
/* authorisation */ '  ');

FILE_SCHEMA (('AUTOMOTIVE_DESIGN {1 0 10303 214 3 1 1}'));
ENDSEC;

DATA;
#10=PROPERTY_DEFINITION_REPRESENTATION(#14,#12);
#11=PROPERTY_DEFINITION_REPRESENTATION(#15,#13);
#12=REPRESENTATION('',(#16),#610);
#13=REPRESENTATION('',(#17),#610);
#14=PROPERTY_DEFINITION('pmi validation property','',#621);
#15=PROPERTY_DEFINITION('pmi validation property','',#621);
#16=VALUE_REPRESENTATION_ITEM('number of annotations',COUNT_MEASURE(0.));
#17=VALUE_REPRESENTATION_ITEM('number of views',COUNT_MEASURE(0.));
#18=CONICAL_SURFACE('',#405,9.3,0.785398163397446);
#19=CONICAL_SURFACE('',#409,9.5,0.785398163397446);
#20=TOROIDAL_SURFACE('',#389,4.05,0.5);
#21=TOROIDAL_SURFACE('',#393,4.05,0.5);
#22=CONTEXT_DEPENDENT_SHAPE_REPRESENTATION(#28,#623);
#23=CONTEXT_DEPENDENT_SHAPE_REPRESENTATION(#29,#625);
#24=CONTEXT_DEPENDENT_SHAPE_REPRESENTATION(#30,#627);
#25=NEXT_ASSEMBLY_USAGE_OCCURRENCE('NAUO1','093028_1','093028_1',#628,#629,
'');
#26=NEXT_ASSEMBLY_USAGE_OCCURRENCE('NAUO2','093028_2','093028_2',#628,#630,
'');
#27=NEXT_ASSEMBLY_USAGE_OCCURRENCE('NAUO3','93028_body','93028_body',#628,
#631,'');
#28=(
REPRESENTATION_RELATIONSHIP(' ',' ',#356,#355)
REPRESENTATION_RELATIONSHIP_WITH_TRANSFORMATION(#31)
SHAPE_REPRESENTATION_RELATIONSHIP()
);
#29=(
REPRESENTATION_RELATIONSHIP(' ',' ',#357,#355)
REPRESENTATION_RELATIONSHIP_WITH_TRANSFORMATION(#32)
SHAPE_REPRESENTATION_RELATIONSHIP()
);
#30=(
REPRESENTATION_RELATIONSHIP(' ',' ',#358,#355)
REPRESENTATION_RELATIONSHIP_WITH_TRANSFORMATION(#33)
SHAPE_REPRESENTATION_RELATIONSHIP()
);
#31=ITEM_DEFINED_TRANSFORMATION(' ',' ',#359,#372);
#32=ITEM_DEFINED_TRANSFORMATION(' ',' ',#359,#381);
#33=ITEM_DEFINED_TRANSFORMATION(' ',' ',#359,#414);
#34=SHAPE_REPRESENTATION_RELATIONSHIP('','',#356,#37);
#35=SHAPE_REPRESENTATION_RELATIONSHIP('','',#357,#38);
#36=SHAPE_REPRESENTATION_RELATIONSHIP('','',#358,#39);
#37=ADVANCED_BREP_SHAPE_REPRESENTATION('',(#348),#611);
#38=ADVANCED_BREP_SHAPE_REPRESENTATION('',(#349),#612);
#39=ADVANCED_BREP_SHAPE_REPRESENTATION('',(#350),#613);
#40=CYLINDRICAL_SURFACE('',#363,2.55);
#41=CYLINDRICAL_SURFACE('',#367,3.5);
#42=CYLINDRICAL_SURFACE('',#371,5.);
#43=CYLINDRICAL_SURFACE('',#376,2.75);
#44=CYLINDRICAL_SURFACE('',#380,5.);
#45=CYLINDRICAL_SURFACE('',#385,5.625);
#46=CYLINDRICAL_SURFACE('',#391,3.55);
#47=CYLINDRICAL_SURFACE('',#397,5.625);
#48=CYLINDRICAL_SURFACE('',#401,7.5);
#49=CYLINDRICAL_SURFACE('',#407,9.5);
#50=CYLINDRICAL_SURFACE('',#413,7.5);
#51=ORIENTED_EDGE('',*,*,#103,.T.);
#52=ORIENTED_EDGE('',*,*,#104,.F.);
#53=ORIENTED_EDGE('',*,*,#105,.T.);
#54=ORIENTED_EDGE('',*,*,#103,.F.);
#55=ORIENTED_EDGE('',*,*,#106,.T.);
#56=ORIENTED_EDGE('',*,*,#105,.F.);
#57=ORIENTED_EDGE('',*,*,#107,.T.);
#58=ORIENTED_EDGE('',*,*,#106,.F.);
#59=ORIENTED_EDGE('',*,*,#108,.T.);
#60=ORIENTED_EDGE('',*,*,#107,.F.);
#61=ORIENTED_EDGE('',*,*,#104,.T.);
#62=ORIENTED_EDGE('',*,*,#108,.F.);
#63=ORIENTED_EDGE('',*,*,#109,.T.);
#64=ORIENTED_EDGE('',*,*,#110,.F.);
#65=ORIENTED_EDGE('',*,*,#111,.T.);
#66=ORIENTED_EDGE('',*,*,#109,.F.);
#67=ORIENTED_EDGE('',*,*,#112,.T.);
#68=ORIENTED_EDGE('',*,*,#111,.F.);
#69=ORIENTED_EDGE('',*,*,#110,.T.);
#70=ORIENTED_EDGE('',*,*,#112,.F.);
#71=ORIENTED_EDGE('',*,*,#113,.T.);
#72=ORIENTED_EDGE('',*,*,#114,.F.);
#73=ORIENTED_EDGE('',*,*,#115,.T.);
#74=ORIENTED_EDGE('',*,*,#113,.F.);
#75=ORIENTED_EDGE('',*,*,#116,.T.);
#76=ORIENTED_EDGE('',*,*,#115,.F.);
#77=ORIENTED_EDGE('',*,*,#117,.T.);
#78=ORIENTED_EDGE('',*,*,#116,.F.);
#79=ORIENTED_EDGE('',*,*,#118,.T.);
#80=ORIENTED_EDGE('',*,*,#117,.F.);
#81=ORIENTED_EDGE('',*,*,#119,.T.);
#82=ORIENTED_EDGE('',*,*,#118,.F.);
#83=ORIENTED_EDGE('',*,*,#120,.T.);
#84=ORIENTED_EDGE('',*,*,#119,.F.);
#85=ORIENTED_EDGE('',*,*,#121,.T.);
#86=ORIENTED_EDGE('',*,*,#120,.F.);
#87=ORIENTED_EDGE('',*,*,#122,.T.);
#88=ORIENTED_EDGE('',*,*,#121,.F.);
#89=ORIENTED_EDGE('',*,*,#123,.T.);
#90=ORIENTED_EDGE('',*,*,#122,.F.);
#91=ORIENTED_EDGE('',*,*,#124,.T.);
#92=ORIENTED_EDGE('',*,*,#123,.F.);
#93=ORIENTED_EDGE('',*,*,#125,.T.);
#94=ORIENTED_EDGE('',*,*,#124,.F.);
#95=ORIENTED_EDGE('',*,*,#126,.T.);
#96=ORIENTED_EDGE('',*,*,#125,.F.);
#97=ORIENTED_EDGE('',*,*,#127,.T.);
#98=ORIENTED_EDGE('',*,*,#126,.F.);
#99=ORIENTED_EDGE('',*,*,#128,.T.);
#100=ORIENTED_EDGE('',*,*,#127,.F.);
#101=ORIENTED_EDGE('',*,*,#114,.T.);
#102=ORIENTED_EDGE('',*,*,#128,.F.);
#103=EDGE_CURVE('',#129,#129,#155,.T.);
#104=EDGE_CURVE('',#130,#130,#156,.T.);
#105=EDGE_CURVE('',#131,#131,#157,.T.);
#106=EDGE_CURVE('',#132,#132,#158,.T.);
#107=EDGE_CURVE('',#133,#133,#159,.T.);
#108=EDGE_CURVE('',#134,#134,#160,.T.);
#109=EDGE_CURVE('',#135,#135,#161,.T.);
#110=EDGE_CURVE('',#136,#136,#162,.T.);
#111=EDGE_CURVE('',#137,#137,#163,.T.);
#112=EDGE_CURVE('',#138,#138,#164,.T.);
#113=EDGE_CURVE('',#139,#139,#165,.T.);
#114=EDGE_CURVE('',#140,#140,#166,.T.);
#115=EDGE_CURVE('',#141,#141,#167,.T.);
#116=EDGE_CURVE('',#142,#142,#168,.T.);
#117=EDGE_CURVE('',#143,#143,#169,.T.);
#118=EDGE_CURVE('',#144,#144,#170,.T.);
#119=EDGE_CURVE('',#145,#145,#171,.T.);
#120=EDGE_CURVE('',#146,#146,#172,.T.);
#121=EDGE_CURVE('',#147,#147,#173,.T.);
#122=EDGE_CURVE('',#148,#148,#174,.T.);
#123=EDGE_CURVE('',#149,#149,#175,.T.);
#124=EDGE_CURVE('',#150,#150,#176,.T.);
#125=EDGE_CURVE('',#151,#151,#177,.T.);
#126=EDGE_CURVE('',#152,#152,#178,.T.);
#127=EDGE_CURVE('',#153,#153,#179,.T.);
#128=EDGE_CURVE('',#154,#154,#180,.T.);
#129=VERTEX_POINT('',#530);
#130=VERTEX_POINT('',#532);
#131=VERTEX_POINT('',#535);
#132=VERTEX_POINT('',#538);
#133=VERTEX_POINT('',#541);
#134=VERTEX_POINT('',#544);
#135=VERTEX_POINT('',#549);
#136=VERTEX_POINT('',#551);
#137=VERTEX_POINT('',#554);
#138=VERTEX_POINT('',#557);
#139=VERTEX_POINT('',#562);
#140=VERTEX_POINT('',#564);
#141=VERTEX_POINT('',#567);
#142=VERTEX_POINT('',#570);
#143=VERTEX_POINT('',#573);
#144=VERTEX_POINT('',#576);
#145=VERTEX_POINT('',#579);
#146=VERTEX_POINT('',#582);
#147=VERTEX_POINT('',#585);
#148=VERTEX_POINT('',#588);
#149=VERTEX_POINT('',#591);
#150=VERTEX_POINT('',#594);
#151=VERTEX_POINT('',#597);
#152=VERTEX_POINT('',#600);
#153=VERTEX_POINT('',#603);
#154=VERTEX_POINT('',#606);
#155=CIRCLE('',#361,2.55);
#156=CIRCLE('',#362,5.);
#157=CIRCLE('',#364,2.55);
#158=CIRCLE('',#366,3.5);
#159=CIRCLE('',#368,3.5);
#160=CIRCLE('',#370,5.);
#161=CIRCLE('',#374,2.75);
#162=CIRCLE('',#375,5.);
#163=CIRCLE('',#377,2.75);
#164=CIRCLE('',#379,5.);
#165=CIRCLE('',#383,5.625);
#166=CIRCLE('',#384,7.5);
#167=CIRCLE('',#386,5.625);
#168=CIRCLE('',#388,4.05);
#169=CIRCLE('',#390,3.55);
#170=CIRCLE('',#392,3.55);
#171=CIRCLE('',#394,4.05);
#172=CIRCLE('',#396,5.625);
#173=CIRCLE('',#398,5.625);
#174=CIRCLE('',#400,7.5);
#175=CIRCLE('',#402,7.5);
#176=CIRCLE('',#404,9.3);
#177=CIRCLE('',#406,9.5);
#178=CIRCLE('',#408,9.5);
#179=CIRCLE('',#410,9.3);
#180=CIRCLE('',#412,7.5);
#181=EDGE_LOOP('',(#51));
#182=EDGE_LOOP('',(#52));
#183=EDGE_LOOP('',(#53));
#184=EDGE_LOOP('',(#54));
#185=EDGE_LOOP('',(#55));
#186=EDGE_LOOP('',(#56));
#187=EDGE_LOOP('',(#57));
#188=EDGE_LOOP('',(#58));
#189=EDGE_LOOP('',(#59));
#190=EDGE_LOOP('',(#60));
#191=EDGE_LOOP('',(#61));
#192=EDGE_LOOP('',(#62));
#193=EDGE_LOOP('',(#63));
#194=EDGE_LOOP('',(#64));
#195=EDGE_LOOP('',(#65));
#196=EDGE_LOOP('',(#66));
#197=EDGE_LOOP('',(#67));
#198=EDGE_LOOP('',(#68));
#199=EDGE_LOOP('',(#69));
#200=EDGE_LOOP('',(#70));
#201=EDGE_LOOP('',(#71));
#202=EDGE_LOOP('',(#72));
#203=EDGE_LOOP('',(#73));
#204=EDGE_LOOP('',(#74));
#205=EDGE_LOOP('',(#75));
#206=EDGE_LOOP('',(#76));
#207=EDGE_LOOP('',(#77));
#208=EDGE_LOOP('',(#78));
#209=EDGE_LOOP('',(#79));
#210=EDGE_LOOP('',(#80));
#211=EDGE_LOOP('',(#81));
#212=EDGE_LOOP('',(#82));
#213=EDGE_LOOP('',(#83));
#214=EDGE_LOOP('',(#84));
#215=EDGE_LOOP('',(#85));
#216=EDGE_LOOP('',(#86));
#217=EDGE_LOOP('',(#87));
#218=EDGE_LOOP('',(#88));
#219=EDGE_LOOP('',(#89));
#220=EDGE_LOOP('',(#90));
#221=EDGE_LOOP('',(#91));
#222=EDGE_LOOP('',(#92));
#223=EDGE_LOOP('',(#93));
#224=EDGE_LOOP('',(#94));
#225=EDGE_LOOP('',(#95));
#226=EDGE_LOOP('',(#96));
#227=EDGE_LOOP('',(#97));
#228=EDGE_LOOP('',(#98));
#229=EDGE_LOOP('',(#99));
#230=EDGE_LOOP('',(#100));
#231=EDGE_LOOP('',(#101));
#232=EDGE_LOOP('',(#102));
#233=FACE_BOUND('',#181,.T.);
#234=FACE_BOUND('',#182,.T.);
#235=FACE_BOUND('',#183,.T.);
#236=FACE_BOUND('',#184,.T.);
#237=FACE_BOUND('',#185,.T.);
#238=FACE_BOUND('',#186,.T.);
#239=FACE_BOUND('',#187,.T.);
#240=FACE_BOUND('',#188,.T.);
#241=FACE_BOUND('',#189,.T.);
#242=FACE_BOUND('',#190,.T.);
#243=FACE_BOUND('',#191,.T.);
#244=FACE_BOUND('',#192,.T.);
#245=FACE_BOUND('',#193,.T.);
#246=FACE_BOUND('',#194,.T.);
#247=FACE_BOUND('',#195,.T.);
#248=FACE_BOUND('',#196,.T.);
#249=FACE_BOUND('',#197,.T.);
#250=FACE_BOUND('',#198,.T.);
#251=FACE_BOUND('',#199,.T.);
#252=FACE_BOUND('',#200,.T.);
#253=FACE_BOUND('',#201,.T.);
#254=FACE_BOUND('',#202,.T.);
#255=FACE_BOUND('',#203,.T.);
#256=FACE_BOUND('',#204,.T.);
#257=FACE_BOUND('',#205,.T.);
#258=FACE_BOUND('',#206,.T.);
#259=FACE_BOUND('',#207,.T.);
#260=FACE_BOUND('',#208,.T.);
#261=FACE_BOUND('',#209,.T.);
#262=FACE_BOUND('',#210,.T.);
#263=FACE_BOUND('',#211,.T.);
#264=FACE_BOUND('',#212,.T.);
#265=FACE_BOUND('',#213,.T.);
#266=FACE_BOUND('',#214,.T.);
#267=FACE_BOUND('',#215,.T.);
#268=FACE_BOUND('',#216,.T.);
#269=FACE_BOUND('',#217,.T.);
#270=FACE_BOUND('',#218,.T.);
#271=FACE_BOUND('',#219,.T.);
#272=FACE_BOUND('',#220,.T.);
#273=FACE_BOUND('',#221,.T.);
#274=FACE_BOUND('',#222,.T.);
#275=FACE_BOUND('',#223,.T.);
#276=FACE_BOUND('',#224,.T.);
#277=FACE_BOUND('',#225,.T.);
#278=FACE_BOUND('',#226,.T.);
#279=FACE_BOUND('',#227,.T.);
#280=FACE_BOUND('',#228,.T.);
#281=FACE_BOUND('',#229,.T.);
#282=FACE_BOUND('',#230,.T.);
#283=FACE_BOUND('',#231,.T.);
#284=FACE_BOUND('',#232,.T.);
#285=PLANE('',#360);
#286=PLANE('',#365);
#287=PLANE('',#369);
#288=PLANE('',#373);
#289=PLANE('',#378);
#290=PLANE('',#382);
#291=PLANE('',#387);
#292=PLANE('',#395);
#293=PLANE('',#399);
#294=PLANE('',#403);
#295=PLANE('',#411);
#296=ADVANCED_FACE('',(#233,#234),#285,.T.);
#297=ADVANCED_FACE('',(#235,#236),#40,.F.);
#298=ADVANCED_FACE('',(#237,#238),#286,.T.);
#299=ADVANCED_FACE('',(#239,#240),#41,.T.);
#300=ADVANCED_FACE('',(#241,#242),#287,.T.);
#301=ADVANCED_FACE('',(#243,#244),#42,.T.);
#302=ADVANCED_FACE('',(#245,#246),#288,.T.);
#303=ADVANCED_FACE('',(#247,#248),#43,.F.);
#304=ADVANCED_FACE('',(#249,#250),#289,.T.);
#305=ADVANCED_FACE('',(#251,#252),#44,.T.);
#306=ADVANCED_FACE('',(#253,#254),#290,.T.);
#307=ADVANCED_FACE('',(#255,#256),#45,.F.);
#308=ADVANCED_FACE('',(#257,#258),#291,.T.);
#309=ADVANCED_FACE('',(#259,#260),#20,.T.);
#310=ADVANCED_FACE('',(#261,#262),#46,.F.);
#311=ADVANCED_FACE('',(#263,#264),#21,.T.);
#312=ADVANCED_FACE('',(#265,#266),#292,.T.);
#313=ADVANCED_FACE('',(#267,#268),#47,.F.);
#314=ADVANCED_FACE('',(#269,#270),#293,.T.);
#315=ADVANCED_FACE('',(#271,#272),#48,.T.);
#316=ADVANCED_FACE('',(#273,#274),#294,.T.);
#317=ADVANCED_FACE('',(#275,#276),#18,.T.);
#318=ADVANCED_FACE('',(#277,#278),#49,.T.);
#319=ADVANCED_FACE('',(#279,#280),#19,.T.);
#320=ADVANCED_FACE('',(#281,#282),#295,.T.);
#321=ADVANCED_FACE('',(#283,#284),#50,.T.);
#322=CLOSED_SHELL('',(#296,#297,#298,#299,#300,#301));
#323=CLOSED_SHELL('',(#302,#303,#304,#305));
#324=CLOSED_SHELL('',(#306,#307,#308,#309,#310,#311,#312,#313,#314,#315,
#316,#317,#318,#319,#320,#321));
#325=STYLED_ITEM('',(#328),#348);
#326=STYLED_ITEM('',(#329),#349);
#327=STYLED_ITEM('',(#330),#350);
#328=PRESENTATION_STYLE_ASSIGNMENT((#331));
#329=PRESENTATION_STYLE_ASSIGNMENT((#332));
#330=PRESENTATION_STYLE_ASSIGNMENT((#333));
#331=SURFACE_STYLE_USAGE(.BOTH.,#334);
#332=SURFACE_STYLE_USAGE(.BOTH.,#335);
#333=SURFACE_STYLE_USAGE(.BOTH.,#336);
#334=SURFACE_SIDE_STYLE('',(#337));
#335=SURFACE_SIDE_STYLE('',(#338));
#336=SURFACE_SIDE_STYLE('',(#339));
#337=SURFACE_STYLE_FILL_AREA(#340);
#338=SURFACE_STYLE_FILL_AREA(#341);
#339=SURFACE_STYLE_FILL_AREA(#342);
#340=FILL_AREA_STYLE('',(#343));
#341=FILL_AREA_STYLE('',(#344));
#342=FILL_AREA_STYLE('',(#345));
#343=FILL_AREA_STYLE_COLOUR('',#346);
#344=FILL_AREA_STYLE_COLOUR('',#346);
#345=FILL_AREA_STYLE_COLOUR('',#347);
#346=COLOUR_RGB('',0.729411780834198,0.768627464771271,0.7843137383461);
#347=COLOUR_RGB('',0.0549019612371922,0.0549019612371922,0.062745101749897);
#348=MANIFOLD_SOLID_BREP('093028_1',#322);
#349=MANIFOLD_SOLID_BREP('093028_2',#323);
#350=MANIFOLD_SOLID_BREP('93028_body',#324);
#351=SHAPE_DEFINITION_REPRESENTATION(#621,#355);
#352=SHAPE_DEFINITION_REPRESENTATION(#622,#356);
#353=SHAPE_DEFINITION_REPRESENTATION(#624,#357);
#354=SHAPE_DEFINITION_REPRESENTATION(#626,#358);
#355=SHAPE_REPRESENTATION('093028',(#359,#372,#381,#414),#610);
#356=SHAPE_REPRESENTATION('093028_1',(#359),#611);
#357=SHAPE_REPRESENTATION('093028_2',(#359),#612);
#358=SHAPE_REPRESENTATION('93028_body',(#359),#613);
#359=AXIS2_PLACEMENT_3D('',#527,#415,#416);
#360=AXIS2_PLACEMENT_3D('',#528,#417,#418);
#361=AXIS2_PLACEMENT_3D('',#529,#419,#420);
#362=AXIS2_PLACEMENT_3D('',#531,#421,#422);
#363=AXIS2_PLACEMENT_3D('',#533,#423,#424);
#364=AXIS2_PLACEMENT_3D('',#534,#425,#426);
#365=AXIS2_PLACEMENT_3D('',#536,#427,#428);
#366=AXIS2_PLACEMENT_3D('',#537,#429,#430);
#367=AXIS2_PLACEMENT_3D('',#539,#431,#432);
#368=AXIS2_PLACEMENT_3D('',#540,#433,#434);
#369=AXIS2_PLACEMENT_3D('',#542,#435,#436);
#370=AXIS2_PLACEMENT_3D('',#543,#437,#438);
#371=AXIS2_PLACEMENT_3D('',#545,#439,#440);
#372=AXIS2_PLACEMENT_3D('',#546,#441,#442);
#373=AXIS2_PLACEMENT_3D('',#547,#443,#444);
#374=AXIS2_PLACEMENT_3D('',#548,#445,#446);
#375=AXIS2_PLACEMENT_3D('',#550,#447,#448);
#376=AXIS2_PLACEMENT_3D('',#552,#449,#450);
#377=AXIS2_PLACEMENT_3D('',#553,#451,#452);
#378=AXIS2_PLACEMENT_3D('',#555,#453,#454);
#379=AXIS2_PLACEMENT_3D('',#556,#455,#456);
#380=AXIS2_PLACEMENT_3D('',#558,#457,#458);
#381=AXIS2_PLACEMENT_3D('',#559,#459,#460);
#382=AXIS2_PLACEMENT_3D('',#560,#461,#462);
#383=AXIS2_PLACEMENT_3D('',#561,#463,#464);
#384=AXIS2_PLACEMENT_3D('',#563,#465,#466);
#385=AXIS2_PLACEMENT_3D('',#565,#467,#468);
#386=AXIS2_PLACEMENT_3D('',#566,#469,#470);
#387=AXIS2_PLACEMENT_3D('',#568,#471,#472);
#388=AXIS2_PLACEMENT_3D('',#569,#473,#474);
#389=AXIS2_PLACEMENT_3D('',#571,#475,#476);
#390=AXIS2_PLACEMENT_3D('',#572,#477,#478);
#391=AXIS2_PLACEMENT_3D('',#574,#479,#480);
#392=AXIS2_PLACEMENT_3D('',#575,#481,#482);
#393=AXIS2_PLACEMENT_3D('',#577,#483,#484);
#394=AXIS2_PLACEMENT_3D('',#578,#485,#486);
#395=AXIS2_PLACEMENT_3D('',#580,#487,#488);
#396=AXIS2_PLACEMENT_3D('',#581,#489,#490);
#397=AXIS2_PLACEMENT_3D('',#583,#491,#492);
#398=AXIS2_PLACEMENT_3D('',#584,#493,#494);
#399=AXIS2_PLACEMENT_3D('',#586,#495,#496);
#400=AXIS2_PLACEMENT_3D('',#587,#497,#498);
#401=AXIS2_PLACEMENT_3D('',#589,#499,#500);
#402=AXIS2_PLACEMENT_3D('',#590,#501,#502);
#403=AXIS2_PLACEMENT_3D('',#592,#503,#504);
#404=AXIS2_PLACEMENT_3D('',#593,#505,#506);
#405=AXIS2_PLACEMENT_3D('',#595,#507,#508);
#406=AXIS2_PLACEMENT_3D('',#596,#509,#510);
#407=AXIS2_PLACEMENT_3D('',#598,#511,#512);
#408=AXIS2_PLACEMENT_3D('',#599,#513,#514);
#409=AXIS2_PLACEMENT_3D('',#601,#515,#516);
#410=AXIS2_PLACEMENT_3D('',#602,#517,#518);
#411=AXIS2_PLACEMENT_3D('',#604,#519,#520);
#412=AXIS2_PLACEMENT_3D('',#605,#521,#522);
#413=AXIS2_PLACEMENT_3D('',#607,#523,#524);
#414=AXIS2_PLACEMENT_3D('',#608,#525,#526);
#415=DIRECTION('',(0.,0.,1.));
#416=DIRECTION('',(1.,0.,0.));
#417=DIRECTION('',(-1.,0.,0.));
#418=DIRECTION('',(0.,0.,1.));
#419=DIRECTION('',(1.,0.,0.));
#420=DIRECTION('',(0.,0.,-1.));
#421=DIRECTION('',(1.,0.,0.));
#422=DIRECTION('',(0.,0.,-1.));
#423=DIRECTION('',(1.,0.,0.));
#424=DIRECTION('',(0.,0.,-1.));
#425=DIRECTION('',(1.,0.,0.));
#426=DIRECTION('',(0.,0.,-1.));
#427=DIRECTION('',(1.,0.,0.));
#428=DIRECTION('',(0.,0.,-1.));
#429=DIRECTION('',(1.,0.,0.));
#430=DIRECTION('',(0.,0.,-1.));
#431=DIRECTION('',(1.,0.,0.));
#432=DIRECTION('',(0.,0.,-1.));
#433=DIRECTION('',(1.,0.,0.));
#434=DIRECTION('',(0.,0.,-1.));
#435=DIRECTION('',(1.,0.,0.));
#436=DIRECTION('',(0.,0.,-1.));
#437=DIRECTION('',(1.,0.,0.));
#438=DIRECTION('',(0.,0.,-1.));
#439=DIRECTION('',(1.,0.,0.));
#440=DIRECTION('',(0.,0.,-1.));
#441=DIRECTION('',(0.,0.,1.));
#442=DIRECTION('',(-1.,0.,0.));
#443=DIRECTION('',(-1.,0.,0.));
#444=DIRECTION('',(0.,0.,1.));
#445=DIRECTION('',(1.,0.,0.));
#446=DIRECTION('',(0.,0.,-1.));
#447=DIRECTION('',(1.,0.,0.));
#448=DIRECTION('',(0.,0.,-1.));
#449=DIRECTION('',(1.,0.,0.));
#450=DIRECTION('',(0.,0.,-1.));
#451=DIRECTION('',(1.,0.,0.));
#452=DIRECTION('',(0.,0.,-1.));
#453=DIRECTION('',(1.,0.,0.));
#454=DIRECTION('',(0.,0.,-1.));
#455=DIRECTION('',(1.,0.,0.));
#456=DIRECTION('',(0.,0.,-1.));
#457=DIRECTION('',(1.,0.,0.));
#458=DIRECTION('',(0.,0.,-1.));
#459=DIRECTION('',(0.,0.,1.));
#460=DIRECTION('',(-1.,0.,0.));
#461=DIRECTION('',(-1.,0.,0.));
#462=DIRECTION('',(0.,0.,1.));
#463=DIRECTION('',(1.,0.,0.));
#464=DIRECTION('',(0.,0.,-1.));
#465=DIRECTION('',(1.,0.,0.));
#466=DIRECTION('',(0.,0.,-1.));
#467=DIRECTION('',(1.,0.,0.));
#468=DIRECTION('',(0.,0.,-1.));
#469=DIRECTION('',(1.,0.,0.));
#470=DIRECTION('',(0.,0.,-1.));
#471=DIRECTION('',(-1.,0.,0.));
#472=DIRECTION('',(0.,0.,1.));
#473=DIRECTION('',(1.,0.,0.));
#474=DIRECTION('',(0.,0.,-1.));
#475=DIRECTION('',(1.,0.,0.));
#476=DIRECTION('',(0.,0.,-1.));
#477=DIRECTION('',(1.,0.,0.));
#478=DIRECTION('',(0.,0.,-1.));
#479=DIRECTION('',(1.,0.,0.));
#480=DIRECTION('',(0.,0.,-1.));
#481=DIRECTION('',(1.,0.,0.));
#482=DIRECTION('',(0.,0.,-1.));
#483=DIRECTION('',(1.,0.,0.));
#484=DIRECTION('',(0.,0.,-1.));
#485=DIRECTION('',(1.,0.,0.));
#486=DIRECTION('',(0.,0.,-1.));
#487=DIRECTION('',(1.,0.,0.));
#488=DIRECTION('',(0.,0.,-1.));
#489=DIRECTION('',(1.,0.,0.));
#490=DIRECTION('',(0.,0.,-1.));
#491=DIRECTION('',(1.,0.,0.));
#492=DIRECTION('',(0.,0.,-1.));
#493=DIRECTION('',(1.,0.,0.));
#494=DIRECTION('',(0.,0.,-1.));
#495=DIRECTION('',(1.,0.,0.));
#496=DIRECTION('',(0.,0.,-1.));
#497=DIRECTION('',(1.,0.,0.));
#498=DIRECTION('',(0.,0.,-1.));
#499=DIRECTION('',(1.,0.,0.));
#500=DIRECTION('',(0.,0.,-1.));
#501=DIRECTION('',(1.,0.,0.));
#502=DIRECTION('',(0.,0.,-1.));
#503=DIRECTION('',(1.,0.,0.));
#504=DIRECTION('',(0.,0.,-1.));
#505=DIRECTION('',(1.,0.,0.));
#506=DIRECTION('',(0.,0.,-1.));
#507=DIRECTION('',(-1.,0.,0.));
#508=DIRECTION('',(0.,0.,1.));
#509=DIRECTION('',(1.,0.,0.));
#510=DIRECTION('',(0.,0.,-1.));
#511=DIRECTION('',(1.,0.,0.));
#512=DIRECTION('',(0.,0.,-1.));
#513=DIRECTION('',(1.,0.,0.));
#514=DIRECTION('',(0.,0.,-1.));
#515=DIRECTION('',(1.,0.,0.));
#516=DIRECTION('',(0.,0.,-1.));
#517=DIRECTION('',(1.,0.,0.));
#518=DIRECTION('',(0.,0.,-1.));
#519=DIRECTION('',(-1.,0.,0.));
#520=DIRECTION('',(0.,0.,1.));
#521=DIRECTION('',(1.,0.,0.));
#522=DIRECTION('',(0.,0.,-1.));
#523=DIRECTION('',(1.,0.,0.));
#524=DIRECTION('',(0.,0.,-1.));
#525=DIRECTION('',(0.,0.,1.));
#526=DIRECTION('',(1.,0.,0.));
#527=CARTESIAN_POINT('',(0.,0.,0.));
#528=CARTESIAN_POINT('',(0.,5.,0.));
#529=CARTESIAN_POINT('',(0.,0.,0.));
#530=CARTESIAN_POINT('',(0.,0.,-2.55));
#531=CARTESIAN_POINT('',(0.,0.,0.));
#532=CARTESIAN_POINT('',(0.,0.,-5.));
#533=CARTESIAN_POINT('',(10.,0.,0.));
#534=CARTESIAN_POINT('',(10.,0.,0.));
#535=CARTESIAN_POINT('',(10.,0.,-2.55));
#536=CARTESIAN_POINT('',(10.,2.55,0.));
#537=CARTESIAN_POINT('',(10.,0.,0.));
#538=CARTESIAN_POINT('',(10.,0.,-3.5));
#539=CARTESIAN_POINT('',(10.,0.,0.));
#540=CARTESIAN_POINT('',(0.999999999999999,0.,0.));
#541=CARTESIAN_POINT('',(0.999999999999999,0.,-3.5));
#542=CARTESIAN_POINT('',(1.,3.5,0.));
#543=CARTESIAN_POINT('',(0.999999999999999,0.,0.));
#544=CARTESIAN_POINT('',(0.999999999999999,0.,-5.));
#545=CARTESIAN_POINT('',(10.,0.,0.));
#546=CARTESIAN_POINT('',(5.5,6.00076931582203E-16,0.));
#547=CARTESIAN_POINT('',(0.,5.,0.));
#548=CARTESIAN_POINT('',(0.,0.,0.));
#549=CARTESIAN_POINT('',(0.,0.,-2.75));
#550=CARTESIAN_POINT('',(0.,0.,0.));
#551=CARTESIAN_POINT('',(0.,0.,-5.));
#552=CARTESIAN_POINT('',(1.,0.,0.));
#553=CARTESIAN_POINT('',(1.,0.,0.));
#554=CARTESIAN_POINT('',(1.,0.,-2.75));
#555=CARTESIAN_POINT('',(1.,2.75,0.));
#556=CARTESIAN_POINT('',(1.,0.,0.));
#557=CARTESIAN_POINT('',(1.,0.,-5.));
#558=CARTESIAN_POINT('',(1.,0.,0.));
#559=CARTESIAN_POINT('',(-4.5,6.00076931582203E-16,0.));
#560=CARTESIAN_POINT('',(0.,7.5,0.));
#561=CARTESIAN_POINT('',(0.,0.,0.));
#562=CARTESIAN_POINT('',(0.,0.,-5.625));
#563=CARTESIAN_POINT('',(0.,0.,0.));
#564=CARTESIAN_POINT('',(0.,0.,-7.5));
#565=CARTESIAN_POINT('',(9.8,0.,0.));
#566=CARTESIAN_POINT('',(0.6,0.,0.));
#567=CARTESIAN_POINT('',(0.6,0.,-5.625));
#568=CARTESIAN_POINT('',(0.6,5.625,0.));
#569=CARTESIAN_POINT('',(0.6,0.,0.));
#570=CARTESIAN_POINT('',(0.6,0.,-4.05));
#571=CARTESIAN_POINT('',(1.1,0.,0.));
#572=CARTESIAN_POINT('',(1.1,0.,0.));
#573=CARTESIAN_POINT('',(1.1,0.,-3.55));
#574=CARTESIAN_POINT('',(9.8,0.,0.));
#575=CARTESIAN_POINT('',(8.7,0.,0.));
#576=CARTESIAN_POINT('',(8.7,0.,-3.55));
#577=CARTESIAN_POINT('',(8.7,0.,0.));
#578=CARTESIAN_POINT('',(9.2,0.,0.));
#579=CARTESIAN_POINT('',(9.2,0.,-4.05));
#580=CARTESIAN_POINT('',(9.2,4.05,0.));
#581=CARTESIAN_POINT('',(9.2,0.,0.));
#582=CARTESIAN_POINT('',(9.2,0.,-5.625));
#583=CARTESIAN_POINT('',(9.8,0.,0.));
#584=CARTESIAN_POINT('',(9.8,0.,0.));
#585=CARTESIAN_POINT('',(9.8,0.,-5.625));
#586=CARTESIAN_POINT('',(9.8,5.625,0.));
#587=CARTESIAN_POINT('',(9.8,0.,0.));
#588=CARTESIAN_POINT('',(9.8,0.,-7.5));
#589=CARTESIAN_POINT('',(9.8,0.,0.));
#590=CARTESIAN_POINT('',(6.8,0.,0.));
#591=CARTESIAN_POINT('',(6.8,0.,-7.5));
#592=CARTESIAN_POINT('',(6.8,7.5,0.));
#593=CARTESIAN_POINT('',(6.8,0.,0.));
#594=CARTESIAN_POINT('',(6.8,0.,-9.3));
#595=CARTESIAN_POINT('',(6.8,0.,0.));
#596=CARTESIAN_POINT('',(6.6,0.,0.));
#597=CARTESIAN_POINT('',(6.6,0.,-9.5));
#598=CARTESIAN_POINT('',(9.8,0.,0.));
#599=CARTESIAN_POINT('',(2.,0.,0.));
#600=CARTESIAN_POINT('',(2.,0.,-9.5));
#601=CARTESIAN_POINT('',(2.,0.,0.));
#602=CARTESIAN_POINT('',(1.8,0.,0.));
#603=CARTESIAN_POINT('',(1.8,0.,-9.3));
#604=CARTESIAN_POINT('',(1.8,9.3,0.));
#605=CARTESIAN_POINT('',(1.8,0.,0.));
#606=CARTESIAN_POINT('',(1.8,0.,-7.5));
#607=CARTESIAN_POINT('',(9.8,0.,0.));
#608=CARTESIAN_POINT('',(-4.9,6.00076931582203E-16,0.));
#609=MECHANICAL_DESIGN_GEOMETRIC_PRESENTATION_REPRESENTATION('',(#325,#326,
#327),#610);
#610=(
GEOMETRIC_REPRESENTATION_CONTEXT(3)
GLOBAL_UNCERTAINTY_ASSIGNED_CONTEXT((#614))
GLOBAL_UNIT_ASSIGNED_CONTEXT((#620,#619,#618))
REPRESENTATION_CONTEXT('093028','TOP_LEVEL_ASSEMBLY_PART')
);
#611=(
GEOMETRIC_REPRESENTATION_CONTEXT(3)
GLOBAL_UNCERTAINTY_ASSIGNED_CONTEXT((#615))
GLOBAL_UNIT_ASSIGNED_CONTEXT((#620,#619,#618))
REPRESENTATION_CONTEXT('093028_1','COMPONENT_PART')
);
#612=(
GEOMETRIC_REPRESENTATION_CONTEXT(3)
GLOBAL_UNCERTAINTY_ASSIGNED_CONTEXT((#616))
GLOBAL_UNIT_ASSIGNED_CONTEXT((#620,#619,#618))
REPRESENTATION_CONTEXT('093028_2','COMPONENT_PART')
);
#613=(
GEOMETRIC_REPRESENTATION_CONTEXT(3)
GLOBAL_UNCERTAINTY_ASSIGNED_CONTEXT((#617))
GLOBAL_UNIT_ASSIGNED_CONTEXT((#620,#619,#618))
REPRESENTATION_CONTEXT('93028_body','COMPONENT_PART')
);
#614=UNCERTAINTY_MEASURE_WITH_UNIT(LENGTH_MEASURE(0.005),#620,
'DISTANCE_ACCURACY_VALUE','Maximum Tolerance applied to model');
#615=UNCERTAINTY_MEASURE_WITH_UNIT(LENGTH_MEASURE(0.005),#620,
'DISTANCE_ACCURACY_VALUE','Maximum Tolerance applied to model');
#616=UNCERTAINTY_MEASURE_WITH_UNIT(LENGTH_MEASURE(0.005),#620,
'DISTANCE_ACCURACY_VALUE','Maximum Tolerance applied to model');
#617=UNCERTAINTY_MEASURE_WITH_UNIT(LENGTH_MEASURE(0.005),#620,
'DISTANCE_ACCURACY_VALUE','Maximum Tolerance applied to model');
#618=(
NAMED_UNIT(*)
SI_UNIT($,.STERADIAN.)
SOLID_ANGLE_UNIT()
);
#619=(
NAMED_UNIT(*)
PLANE_ANGLE_UNIT()
SI_UNIT($,.RADIAN.)
);
#620=(
LENGTH_UNIT()
NAMED_UNIT(*)
SI_UNIT(.MILLI.,.METRE.)
);
#621=PRODUCT_DEFINITION_SHAPE('','',#628);
#622=PRODUCT_DEFINITION_SHAPE('','',#629);
#623=PRODUCT_DEFINITION_SHAPE(' ','NAUO PRDDFN',#25);
#624=PRODUCT_DEFINITION_SHAPE('','',#630);
#625=PRODUCT_DEFINITION_SHAPE(' ','NAUO PRDDFN',#26);
#626=PRODUCT_DEFINITION_SHAPE('','',#631);
#627=PRODUCT_DEFINITION_SHAPE(' ','NAUO PRDDFN',#27);
#628=PRODUCT_DEFINITION('','',#636,#632);
#629=PRODUCT_DEFINITION('','',#637,#633);
#630=PRODUCT_DEFINITION('','',#638,#634);
#631=PRODUCT_DEFINITION('','',#639,#635);
#632=PRODUCT_DEFINITION_CONTEXT('',#657,'design');
#633=PRODUCT_DEFINITION_CONTEXT('',#657,'design');
#634=PRODUCT_DEFINITION_CONTEXT('',#657,'design');
#635=PRODUCT_DEFINITION_CONTEXT('',#657,'design');
#636=PRODUCT_DEFINITION_FORMATION_WITH_SPECIFIED_SOURCE('','',#644,
 .NOT_KNOWN.);
#637=PRODUCT_DEFINITION_FORMATION_WITH_SPECIFIED_SOURCE('','',#645,
 .NOT_KNOWN.);
#638=PRODUCT_DEFINITION_FORMATION_WITH_SPECIFIED_SOURCE('','',#646,
 .NOT_KNOWN.);
#639=PRODUCT_DEFINITION_FORMATION_WITH_SPECIFIED_SOURCE('','',#647,
 .NOT_KNOWN.);
#640=PRODUCT_RELATED_PRODUCT_CATEGORY('','',(#644));
#641=PRODUCT_RELATED_PRODUCT_CATEGORY('','',(#645));
#642=PRODUCT_RELATED_PRODUCT_CATEGORY('','',(#646));
#643=PRODUCT_RELATED_PRODUCT_CATEGORY('','',(#647));
#644=PRODUCT('093028','093028','093028',(#652));
#645=PRODUCT('093028_1','093028_1','093028_1',(#653));
#646=PRODUCT('093028_2','093028_2','093028_2',(#654));
#647=PRODUCT('93028_body','93028_body','93028_body',(#655));
#648=PRODUCT_CATEGORY('','');
#649=PRODUCT_CATEGORY('','');
#650=PRODUCT_CATEGORY('','');
#651=PRODUCT_CATEGORY('','');
#652=PRODUCT_CONTEXT('',#657,'mechanical');
#653=PRODUCT_CONTEXT('',#657,'mechanical');
#654=PRODUCT_CONTEXT('',#657,'mechanical');
#655=PRODUCT_CONTEXT('',#657,'mechanical');
#656=APPLICATION_PROTOCOL_DEFINITION('international standard',
'automotive_design',2010,#657);
#657=APPLICATION_CONTEXT(
'core data for automotive mechanical design processes');
ENDSEC;
END-ISO-10303-21;
