ISO-10303-21;
HEADER;
/* Generated by software containing ST-Developer
 * from STEP Tools, Inc. (www.steptools.com) 
 */

FILE_DESCRIPTION(
/* description */ ('STEP AP214'),
/* implementation_level */ '2;1');

FILE_NAME(
/* name */ 
'C:\\Users\\b.steehouwer\\Desktop\\Producten\\ISB profielsysteem\\CAD-
files\\Scharnieren en rol- en schuifelementen\\Scharnieren\\Universele
 scharnieren\\Scharnieren verborgen\\1008584.stp',
/* time_stamp */ '2024-05-29T12:56:01+02:00',
/* author */ ('b.steehouwer'),
/* organization */ ('CADENAS'),
/* preprocessor_version */ 'ST-DEVELOPER v18.1',
/* originating_system */ 'Autodesk Inventor 2021',
/* authorisation */ '  ');

FILE_SCHEMA (('AUTOMOTIVE_DESIGN { 1 0 10303 214 3 1 1 }'));
ENDSEC;

DATA;
#10=MECHANICAL_DESIGN_GEOMETRIC_PRESENTATION_REPRESENTATION('',(#13),#242);
#11=SHAPE_REPRESENTATION_RELATIONSHIP('SRR','None',#249,#12);
#12=ADVANCED_BREP_SHAPE_REPRESENTATION('',(#14),#241);
#13=STYLED_ITEM('',(#259),#14);
#14=MANIFOLD_SOLID_BREP('Solid1',#125);
#15=FACE_BOUND('',#45,.T.);
#16=FACE_BOUND('',#48,.T.);
#17=CYLINDRICAL_SURFACE('',#149,3.);
#18=CYLINDRICAL_SURFACE('',#153,5.);
#19=CYLINDRICAL_SURFACE('',#157,3.);
#20=LINE('',#213,#25);
#21=LINE('',#217,#26);
#22=LINE('',#224,#27);
#23=LINE('',#233,#28);
#24=LINE('',#236,#29);
#25=VECTOR('',#173,2.5);
#26=VECTOR('',#178,3.);
#27=VECTOR('',#187,5.);
#28=VECTOR('',#198,3.);
#29=VECTOR('',#201,3.);
#30=CONICAL_SURFACE('',#147,2.5,0.523598775598297);
#31=CONICAL_SURFACE('',#160,3.,0.523598775598297);
#32=FACE_OUTER_BOUND('',#41,.T.);
#33=FACE_OUTER_BOUND('',#42,.T.);
#34=FACE_OUTER_BOUND('',#43,.T.);
#35=FACE_OUTER_BOUND('',#44,.T.);
#36=FACE_OUTER_BOUND('',#46,.T.);
#37=FACE_OUTER_BOUND('',#47,.T.);
#38=FACE_OUTER_BOUND('',#49,.T.);
#39=FACE_OUTER_BOUND('',#50,.T.);
#40=FACE_OUTER_BOUND('',#51,.T.);
#41=EDGE_LOOP('',(#84));
#42=EDGE_LOOP('',(#85,#86,#87,#88));
#43=EDGE_LOOP('',(#89,#90,#91,#92));
#44=EDGE_LOOP('',(#93));
#45=EDGE_LOOP('',(#94));
#46=EDGE_LOOP('',(#95,#96,#97,#98));
#47=EDGE_LOOP('',(#99));
#48=EDGE_LOOP('',(#100));
#49=EDGE_LOOP('',(#101,#102,#103,#104,#105));
#50=EDGE_LOOP('',(#106,#107,#108,#109,#110));
#51=EDGE_LOOP('',(#111));
#52=CIRCLE('',#146,2.5);
#53=CIRCLE('',#148,3.);
#54=CIRCLE('',#150,3.);
#55=CIRCLE('',#152,5.);
#56=CIRCLE('',#154,5.);
#57=CIRCLE('',#156,3.);
#58=CIRCLE('',#158,3.);
#59=CIRCLE('',#159,3.);
#60=CIRCLE('',#161,2.5);
#61=VERTEX_POINT('',#208);
#62=VERTEX_POINT('',#211);
#63=VERTEX_POINT('',#215);
#64=VERTEX_POINT('',#219);
#65=VERTEX_POINT('',#222);
#66=VERTEX_POINT('',#226);
#67=VERTEX_POINT('',#229);
#68=VERTEX_POINT('',#230);
#69=VERTEX_POINT('',#235);
#70=EDGE_CURVE('',#61,#61,#52,.T.);
#71=EDGE_CURVE('',#62,#62,#53,.T.);
#72=EDGE_CURVE('',#62,#61,#20,.T.);
#73=EDGE_CURVE('',#63,#63,#54,.T.);
#74=EDGE_CURVE('',#63,#62,#21,.T.);
#75=EDGE_CURVE('',#64,#64,#55,.T.);
#76=EDGE_CURVE('',#65,#65,#56,.T.);
#77=EDGE_CURVE('',#65,#64,#22,.T.);
#78=EDGE_CURVE('',#66,#66,#57,.T.);
#79=EDGE_CURVE('',#67,#68,#58,.T.);
#80=EDGE_CURVE('',#68,#67,#59,.T.);
#81=EDGE_CURVE('',#68,#66,#23,.T.);
#82=EDGE_CURVE('',#67,#69,#24,.T.);
#83=EDGE_CURVE('',#69,#69,#60,.T.);
#84=ORIENTED_EDGE('',*,*,#70,.F.);
#85=ORIENTED_EDGE('',*,*,#71,.F.);
#86=ORIENTED_EDGE('',*,*,#72,.T.);
#87=ORIENTED_EDGE('',*,*,#70,.T.);
#88=ORIENTED_EDGE('',*,*,#72,.F.);
#89=ORIENTED_EDGE('',*,*,#73,.F.);
#90=ORIENTED_EDGE('',*,*,#74,.T.);
#91=ORIENTED_EDGE('',*,*,#71,.T.);
#92=ORIENTED_EDGE('',*,*,#74,.F.);
#93=ORIENTED_EDGE('',*,*,#75,.F.);
#94=ORIENTED_EDGE('',*,*,#73,.T.);
#95=ORIENTED_EDGE('',*,*,#76,.F.);
#96=ORIENTED_EDGE('',*,*,#77,.T.);
#97=ORIENTED_EDGE('',*,*,#75,.T.);
#98=ORIENTED_EDGE('',*,*,#77,.F.);
#99=ORIENTED_EDGE('',*,*,#76,.T.);
#100=ORIENTED_EDGE('',*,*,#78,.F.);
#101=ORIENTED_EDGE('',*,*,#79,.F.);
#102=ORIENTED_EDGE('',*,*,#80,.F.);
#103=ORIENTED_EDGE('',*,*,#81,.T.);
#104=ORIENTED_EDGE('',*,*,#78,.T.);
#105=ORIENTED_EDGE('',*,*,#81,.F.);
#106=ORIENTED_EDGE('',*,*,#79,.T.);
#107=ORIENTED_EDGE('',*,*,#80,.T.);
#108=ORIENTED_EDGE('',*,*,#82,.T.);
#109=ORIENTED_EDGE('',*,*,#83,.F.);
#110=ORIENTED_EDGE('',*,*,#82,.F.);
#111=ORIENTED_EDGE('',*,*,#83,.T.);
#112=PLANE('',#145);
#113=PLANE('',#151);
#114=PLANE('',#155);
#115=PLANE('',#162);
#116=ADVANCED_FACE('',(#32),#112,.F.);
#117=ADVANCED_FACE('',(#33),#30,.T.);
#118=ADVANCED_FACE('',(#34),#17,.T.);
#119=ADVANCED_FACE('',(#35,#15),#113,.F.);
#120=ADVANCED_FACE('',(#36),#18,.T.);
#121=ADVANCED_FACE('',(#37,#16),#114,.F.);
#122=ADVANCED_FACE('',(#38),#19,.T.);
#123=ADVANCED_FACE('',(#39),#31,.T.);
#124=ADVANCED_FACE('',(#40),#115,.F.);
#125=CLOSED_SHELL('',(#116,#117,#118,#119,#120,#121,#122,#123,#124));
#126=DERIVED_UNIT_ELEMENT(#128,1.);
#127=DERIVED_UNIT_ELEMENT(#244,-3.);
#128=(
MASS_UNIT()
NAMED_UNIT(*)
SI_UNIT($,.GRAM.)
);
#129=DERIVED_UNIT((#126,#127));
#130=MEASURE_REPRESENTATION_ITEM('density measure',
POSITIVE_RATIO_MEASURE(1.),#129);
#131=PROPERTY_DEFINITION_REPRESENTATION(#136,#133);
#132=PROPERTY_DEFINITION_REPRESENTATION(#137,#134);
#133=REPRESENTATION('material name',(#135),#241);
#134=REPRESENTATION('density',(#130),#241);
#135=DESCRIPTIVE_REPRESENTATION_ITEM('Generic','Generic');
#136=PROPERTY_DEFINITION('material property','material name',#251);
#137=PROPERTY_DEFINITION('material property','density of part',#251);
#138=DATE_TIME_ROLE('creation_date');
#139=APPLIED_DATE_AND_TIME_ASSIGNMENT(#140,#138,(#251));
#140=DATE_AND_TIME(#141,#142);
#141=CALENDAR_DATE(2022,13,12);
#142=LOCAL_TIME(13,39,34.,#143);
#143=COORDINATED_UNIVERSAL_TIME_OFFSET(0,0,.BEHIND.);
#144=AXIS2_PLACEMENT_3D('placement',#206,#163,#164);
#145=AXIS2_PLACEMENT_3D('',#207,#165,#166);
#146=AXIS2_PLACEMENT_3D('',#209,#167,#168);
#147=AXIS2_PLACEMENT_3D('',#210,#169,#170);
#148=AXIS2_PLACEMENT_3D('',#212,#171,#172);
#149=AXIS2_PLACEMENT_3D('',#214,#174,#175);
#150=AXIS2_PLACEMENT_3D('',#216,#176,#177);
#151=AXIS2_PLACEMENT_3D('',#218,#179,#180);
#152=AXIS2_PLACEMENT_3D('',#220,#181,#182);
#153=AXIS2_PLACEMENT_3D('',#221,#183,#184);
#154=AXIS2_PLACEMENT_3D('',#223,#185,#186);
#155=AXIS2_PLACEMENT_3D('',#225,#188,#189);
#156=AXIS2_PLACEMENT_3D('',#227,#190,#191);
#157=AXIS2_PLACEMENT_3D('',#228,#192,#193);
#158=AXIS2_PLACEMENT_3D('',#231,#194,#195);
#159=AXIS2_PLACEMENT_3D('',#232,#196,#197);
#160=AXIS2_PLACEMENT_3D('',#234,#199,#200);
#161=AXIS2_PLACEMENT_3D('',#237,#202,#203);
#162=AXIS2_PLACEMENT_3D('',#238,#204,#205);
#163=DIRECTION('axis',(0.,0.,1.));
#164=DIRECTION('refdir',(1.,0.,0.));
#165=DIRECTION('center_axis',(0.,-1.,0.));
#166=DIRECTION('ref_axis',(0.,0.,-1.));
#167=DIRECTION('center_axis',(0.,-1.,0.));
#168=DIRECTION('ref_axis',(0.,0.,-1.));
#169=DIRECTION('center_axis',(0.,-1.,0.));
#170=DIRECTION('ref_axis',(0.,0.,-1.));
#171=DIRECTION('center_axis',(0.,-1.,0.));
#172=DIRECTION('ref_axis',(0.,0.,-1.));
#173=DIRECTION('',(6.12323399573675E-17,0.86602540378444,-0.499999999999998));
#174=DIRECTION('center_axis',(0.,-1.,0.));
#175=DIRECTION('ref_axis',(0.,0.,-1.));
#176=DIRECTION('center_axis',(0.,-1.,0.));
#177=DIRECTION('ref_axis',(0.,0.,-1.));
#178=DIRECTION('',(0.,1.,0.));
#179=DIRECTION('center_axis',(0.,-1.,0.));
#180=DIRECTION('ref_axis',(0.,0.,-1.));
#181=DIRECTION('center_axis',(0.,-1.,0.));
#182=DIRECTION('ref_axis',(0.,0.,-1.));
#183=DIRECTION('center_axis',(0.,-1.,0.));
#184=DIRECTION('ref_axis',(0.,0.,-1.));
#185=DIRECTION('center_axis',(0.,-1.,0.));
#186=DIRECTION('ref_axis',(0.,0.,-1.));
#187=DIRECTION('',(0.,1.,0.));
#188=DIRECTION('center_axis',(0.,1.,0.));
#189=DIRECTION('ref_axis',(0.,0.,1.));
#190=DIRECTION('center_axis',(0.,-1.,0.));
#191=DIRECTION('ref_axis',(0.,0.,-1.));
#192=DIRECTION('center_axis',(0.,-1.,0.));
#193=DIRECTION('ref_axis',(0.,0.,-1.));
#194=DIRECTION('center_axis',(0.,-1.,0.));
#195=DIRECTION('ref_axis',(0.,0.,-1.));
#196=DIRECTION('center_axis',(0.,-1.,0.));
#197=DIRECTION('ref_axis',(0.,0.,-1.));
#198=DIRECTION('',(0.,1.,0.));
#199=DIRECTION('center_axis',(0.,1.,0.));
#200=DIRECTION('ref_axis',(0.,0.,1.));
#201=DIRECTION('',(6.12323399573675E-17,-0.86602540378444,0.499999999999998));
#202=DIRECTION('center_axis',(0.,-1.,0.));
#203=DIRECTION('ref_axis',(0.,0.,-1.));
#204=DIRECTION('center_axis',(0.,1.,0.));
#205=DIRECTION('ref_axis',(0.,0.,1.));
#206=CARTESIAN_POINT('',(0.,0.,0.));
#207=CARTESIAN_POINT('Origin',(0.,25.,0.));
#208=CARTESIAN_POINT('',(-3.06161699786838E-16,25.,2.5));
#209=CARTESIAN_POINT('Origin',(0.,25.,0.));
#210=CARTESIAN_POINT('Origin',(0.,25.,0.));
#211=CARTESIAN_POINT('',(-3.67394039744204E-16,24.1339745962156,2.99999999999998));
#212=CARTESIAN_POINT('Origin',(0.,24.1339745962156,0.));
#213=CARTESIAN_POINT('',(-3.06161699786838E-16,25.,2.5));
#214=CARTESIAN_POINT('Origin',(0.,-25.,0.));
#215=CARTESIAN_POINT('',(-3.67394039744206E-16,0.499999999999998,3.));
#216=CARTESIAN_POINT('Origin',(0.,0.5,0.));
#217=CARTESIAN_POINT('',(-3.67394039744206E-16,-25.,3.));
#218=CARTESIAN_POINT('Origin',(3.,0.5,0.));
#219=CARTESIAN_POINT('',(-6.12323399573677E-16,0.499999999999998,5.));
#220=CARTESIAN_POINT('Origin',(0.,0.5,0.));
#221=CARTESIAN_POINT('Origin',(0.,-25.,0.));
#222=CARTESIAN_POINT('',(-6.12323399573677E-16,-0.499999999999998,5.));
#223=CARTESIAN_POINT('Origin',(0.,-0.5,0.));
#224=CARTESIAN_POINT('',(-6.12323399573677E-16,-25.,5.));
#225=CARTESIAN_POINT('Origin',(5.,-0.5,0.));
#226=CARTESIAN_POINT('',(-3.67394039744206E-16,-0.499999999999998,3.));
#227=CARTESIAN_POINT('Origin',(0.,-0.5,0.));
#228=CARTESIAN_POINT('Origin',(0.,-25.,0.));
#229=CARTESIAN_POINT('',(0.,-24.1339745962156,-3.));
#230=CARTESIAN_POINT('',(-3.67394039744206E-16,-24.1339745962156,3.));
#231=CARTESIAN_POINT('Origin',(0.,-24.1339745962156,0.));
#232=CARTESIAN_POINT('Origin',(0.,-24.1339745962156,0.));
#233=CARTESIAN_POINT('',(-3.67394039744206E-16,-25.,3.));
#234=CARTESIAN_POINT('Origin',(0.,-24.1339745962156,0.));
#235=CARTESIAN_POINT('',(0.,-25.,-2.5));
#236=CARTESIAN_POINT('',(-3.67394039744206E-16,-24.1339745962156,-3.));
#237=CARTESIAN_POINT('Origin',(0.,-25.,0.));
#238=CARTESIAN_POINT('Origin',(2.5,-25.,0.));
#239=UNCERTAINTY_MEASURE_WITH_UNIT(LENGTH_MEASURE(0.01),#243,
'DISTANCE_ACCURACY_VALUE',
'Maximum model space distance between geometric entities at asserted c
onnectivities');
#240=UNCERTAINTY_MEASURE_WITH_UNIT(LENGTH_MEASURE(0.01),#243,
'DISTANCE_ACCURACY_VALUE',
'Maximum model space distance between geometric entities at asserted c
onnectivities');
#241=(
GEOMETRIC_REPRESENTATION_CONTEXT(3)
GLOBAL_UNCERTAINTY_ASSIGNED_CONTEXT((#239))
GLOBAL_UNIT_ASSIGNED_CONTEXT((#243,#245,#246))
REPRESENTATION_CONTEXT('','3D')
);
#242=(
GEOMETRIC_REPRESENTATION_CONTEXT(3)
GLOBAL_UNCERTAINTY_ASSIGNED_CONTEXT((#240))
GLOBAL_UNIT_ASSIGNED_CONTEXT((#243,#245,#246))
REPRESENTATION_CONTEXT('','3D')
);
#243=(
LENGTH_UNIT()
NAMED_UNIT(*)
SI_UNIT(.MILLI.,.METRE.)
);
#244=(
LENGTH_UNIT()
NAMED_UNIT(*)
SI_UNIT(.CENTI.,.METRE.)
);
#245=(
NAMED_UNIT(*)
PLANE_ANGLE_UNIT()
SI_UNIT($,.RADIAN.)
);
#246=(
NAMED_UNIT(*)
SI_UNIT($,.STERADIAN.)
SOLID_ANGLE_UNIT()
);
#247=SHAPE_DEFINITION_REPRESENTATION(#248,#249);
#248=PRODUCT_DEFINITION_SHAPE('',$,#251);
#249=SHAPE_REPRESENTATION('',(#144),#241);
#250=PRODUCT_DEFINITION_CONTEXT('part definition',#255,'design');
#251=PRODUCT_DEFINITION('1008584','1008584',#252,#250);
#252=PRODUCT_DEFINITION_FORMATION('',$,#257);
#253=PRODUCT_RELATED_PRODUCT_CATEGORY('1008584','1008584',(#257));
#254=APPLICATION_PROTOCOL_DEFINITION('international standard',
'automotive_design',2009,#255);
#255=APPLICATION_CONTEXT(
'Core Data for Automotive Mechanical Design Process');
#256=PRODUCT_CONTEXT('part definition',#255,'mechanical');
#257=PRODUCT('1008584','1008584','STEP AP214',(#256));
#258=PRESENTATION_STYLE_ASSIGNMENT((#260));
#259=PRESENTATION_STYLE_ASSIGNMENT((#261));
#260=SURFACE_STYLE_USAGE(.BOTH.,#266);
#261=SURFACE_STYLE_USAGE(.BOTH.,#267);
#262=SURFACE_STYLE_RENDERING_WITH_PROPERTIES($,#274,(#264));
#263=SURFACE_STYLE_RENDERING_WITH_PROPERTIES($,#275,(#265));
#264=SURFACE_STYLE_TRANSPARENT(0.);
#265=SURFACE_STYLE_TRANSPARENT(0.);
#266=SURFACE_SIDE_STYLE('',(#268,#262));
#267=SURFACE_SIDE_STYLE('',(#269,#263));
#268=SURFACE_STYLE_FILL_AREA(#270);
#269=SURFACE_STYLE_FILL_AREA(#271);
#270=FILL_AREA_STYLE('',(#272));
#271=FILL_AREA_STYLE('',(#273));
#272=FILL_AREA_STYLE_COLOUR('',#274);
#273=FILL_AREA_STYLE_COLOUR('',#275);
#274=COLOUR_RGB('',0.749019607843137,0.749019607843137,0.749019607843137);
#275=COLOUR_RGB('',0.752941176470588,0.752941176470588,0.752941176470588);
ENDSEC;
END-ISO-10303-21;
