ISO-10303-21;
HEADER;
/* Generated by software containing ST-Developer
 * from STEP Tools, Inc. (www.steptools.com) 
 */

FILE_DESCRIPTION(
/* description */ ('STEP AP214'),
/* implementation_level */ '2;1');

FILE_NAME(
/* name */ 
'C:\\Users\\b.steehouwer\\Desktop\\Producten\\ISB profielsysteem\\CAD-
files\\Scharnieren en rol- en schuifelementen\\Scharnieren\\Universele
 scharnieren\\Scharnieren verborgen\\1008699.stp',
/* time_stamp */ '2024-05-29T12:56:55+02:00',
/* author */ ('b.steehouwer'),
/* organization */ ('CADENAS'),
/* preprocessor_version */ 'ST-DEVELOPER v18.1',
/* originating_system */ 'Autodesk Inventor 2021',
/* authorisation */ '  ');

FILE_SCHEMA (('AUTOMOTIVE_DESIGN { 1 0 10303 214 3 1 1 }'));
ENDSEC;

DATA;
#10=MECHANICAL_DESIGN_GEOMETRIC_PRESENTATION_REPRESENTATION('',(#13),#504);
#11=SHAPE_REPRESENTATION_RELATIONSHIP('SRR','None',#511,#12);
#12=ADVANCED_BREP_SHAPE_REPRESENTATION('',(#14),#503);
#13=STYLED_ITEM('',(#521),#14);
#14=MANIFOLD_SOLID_BREP('Solid1',#276);
#15=CONICAL_SURFACE('',#319,5.65,0.785398163397448);
#16=CONICAL_SURFACE('',#323,5.65,0.785398163397448);
#17=FACE_BOUND('',#41,.T.);
#18=FACE_BOUND('',#42,.T.);
#19=FACE_BOUND('',#49,.T.);
#20=FACE_BOUND('',#51,.T.);
#21=PLANE('',#299);
#22=PLANE('',#305);
#23=PLANE('',#310);
#24=PLANE('',#317);
#25=PLANE('',#318);
#26=FACE_OUTER_BOUND('',#39,.T.);
#27=FACE_OUTER_BOUND('',#40,.T.);
#28=FACE_OUTER_BOUND('',#43,.T.);
#29=FACE_OUTER_BOUND('',#44,.T.);
#30=FACE_OUTER_BOUND('',#45,.T.);
#31=FACE_OUTER_BOUND('',#46,.T.);
#32=FACE_OUTER_BOUND('',#47,.T.);
#33=FACE_OUTER_BOUND('',#48,.T.);
#34=FACE_OUTER_BOUND('',#50,.T.);
#35=FACE_OUTER_BOUND('',#52,.T.);
#36=FACE_OUTER_BOUND('',#53,.T.);
#37=FACE_OUTER_BOUND('',#54,.T.);
#38=FACE_OUTER_BOUND('',#55,.T.);
#39=EDGE_LOOP('',(#179,#180,#181,#182,#183,#184,#185,#186));
#40=EDGE_LOOP('',(#187,#188,#189,#190));
#41=EDGE_LOOP('',(#191));
#42=EDGE_LOOP('',(#192));
#43=EDGE_LOOP('',(#193,#194,#195,#196));
#44=EDGE_LOOP('',(#197,#198,#199,#200,#201,#202,#203,#204,#205,#206));
#45=EDGE_LOOP('',(#207,#208,#209,#210));
#46=EDGE_LOOP('',(#211,#212,#213,#214));
#47=EDGE_LOOP('',(#215,#216,#217,#218));
#48=EDGE_LOOP('',(#219,#220,#221,#222,#223,#224));
#49=EDGE_LOOP('',(#225));
#50=EDGE_LOOP('',(#226,#227,#228,#229,#230,#231));
#51=EDGE_LOOP('',(#232));
#52=EDGE_LOOP('',(#233,#234,#235,#236,#237,#238,#239));
#53=EDGE_LOOP('',(#240,#241,#242,#243,#244));
#54=EDGE_LOOP('',(#245,#246,#247,#248,#249,#250,#251));
#55=EDGE_LOOP('',(#252,#253,#254,#255,#256));
#56=CIRCLE('',#297,1.99999999999999);
#57=CIRCLE('',#298,1.99999999999999);
#58=CIRCLE('',#300,2.65);
#59=CIRCLE('',#301,2.65);
#60=CIRCLE('',#303,5.);
#61=CIRCLE('',#304,5.);
#62=CIRCLE('',#306,5.65);
#63=CIRCLE('',#307,5.65);
#64=CIRCLE('',#308,5.65);
#65=CIRCLE('',#309,5.65);
#66=CIRCLE('',#312,3.05);
#67=CIRCLE('',#313,3.05);
#68=CIRCLE('',#315,0.299999999999984);
#69=CIRCLE('',#316,0.299999999999984);
#70=CIRCLE('',#320,2.65);
#71=CIRCLE('',#321,2.65);
#72=CIRCLE('',#324,2.65);
#73=CIRCLE('',#325,2.65);
#74=LINE('',#422,#93);
#75=LINE('',#426,#94);
#76=LINE('',#430,#95);
#77=LINE('',#439,#96);
#78=LINE('',#443,#97);
#79=LINE('',#445,#98);
#80=LINE('',#447,#99);
#81=LINE('',#448,#100);
#82=LINE('',#457,#101);
#83=LINE('',#465,#102);
#84=LINE('',#466,#103);
#85=LINE('',#470,#104);
#86=LINE('',#472,#105);
#87=LINE('',#473,#106);
#88=LINE('',#478,#107);
#89=LINE('',#490,#108);
#90=LINE('',#492,#109);
#91=LINE('',#498,#110);
#92=LINE('',#500,#111);
#93=VECTOR('',#331,1000.);
#94=VECTOR('',#334,1000.);
#95=VECTOR('',#337,1000.);
#96=VECTOR('',#338,1000.);
#97=VECTOR('',#341,1000.);
#98=VECTOR('',#342,1000.);
#99=VECTOR('',#343,1000.);
#100=VECTOR('',#344,1000.);
#101=VECTOR('',#353,1000.);
#102=VECTOR('',#364,1000.);
#103=VECTOR('',#365,1000.);
#104=VECTOR('',#370,1000.);
#105=VECTOR('',#371,1000.);
#106=VECTOR('',#372,1000.);
#107=VECTOR('',#377,3.05);
#108=VECTOR('',#396,5.65);
#109=VECTOR('',#399,2.65);
#110=VECTOR('',#406,5.65);
#111=VECTOR('',#409,2.65);
#112=B_SPLINE_CURVE_WITH_KNOTS('',3,(#414,#415,#416,#417,#418,#419,#420),
 .UNSPECIFIED.,.F.,.F.,(4,3,4),(1.31643030206042,1.4403828890909,1.56433547612137),
 .UNSPECIFIED.);
#113=B_SPLINE_CURVE_WITH_KNOTS('',3,(#432,#433,#434,#435,#436,#437,#438),
 .UNSPECIFIED.,.F.,.F.,(4,3,4),(1.31643030206042,1.4403828890909,1.56433547612136),
 .UNSPECIFIED.);
#114=VERTEX_POINT('',#412);
#115=VERTEX_POINT('',#413);
#116=VERTEX_POINT('',#421);
#117=VERTEX_POINT('',#423);
#118=VERTEX_POINT('',#425);
#119=VERTEX_POINT('',#427);
#120=VERTEX_POINT('',#429);
#121=VERTEX_POINT('',#431);
#122=VERTEX_POINT('',#441);
#123=VERTEX_POINT('',#442);
#124=VERTEX_POINT('',#444);
#125=VERTEX_POINT('',#446);
#126=VERTEX_POINT('',#449);
#127=VERTEX_POINT('',#451);
#128=VERTEX_POINT('',#454);
#129=VERTEX_POINT('',#456);
#130=VERTEX_POINT('',#460);
#131=VERTEX_POINT('',#462);
#132=VERTEX_POINT('',#469);
#133=VERTEX_POINT('',#471);
#134=VERTEX_POINT('',#475);
#135=VERTEX_POINT('',#477);
#136=VERTEX_POINT('',#486);
#137=VERTEX_POINT('',#487);
#138=VERTEX_POINT('',#494);
#139=VERTEX_POINT('',#495);
#140=EDGE_CURVE('',#114,#115,#112,.F.);
#141=EDGE_CURVE('',#115,#116,#74,.T.);
#142=EDGE_CURVE('',#116,#117,#56,.T.);
#143=EDGE_CURVE('',#118,#117,#75,.T.);
#144=EDGE_CURVE('',#119,#118,#57,.T.);
#145=EDGE_CURVE('',#119,#120,#76,.T.);
#146=EDGE_CURVE('',#121,#120,#113,.T.);
#147=EDGE_CURVE('',#121,#114,#77,.T.);
#148=EDGE_CURVE('',#122,#123,#78,.T.);
#149=EDGE_CURVE('',#124,#123,#79,.T.);
#150=EDGE_CURVE('',#125,#124,#80,.T.);
#151=EDGE_CURVE('',#125,#122,#81,.T.);
#152=EDGE_CURVE('',#126,#126,#58,.T.);
#153=EDGE_CURVE('',#127,#127,#59,.T.);
#154=EDGE_CURVE('',#123,#128,#60,.T.);
#155=EDGE_CURVE('',#129,#128,#82,.T.);
#156=EDGE_CURVE('',#124,#129,#61,.T.);
#157=EDGE_CURVE('',#114,#130,#62,.F.);
#158=EDGE_CURVE('',#121,#131,#63,.T.);
#159=EDGE_CURVE('',#131,#120,#64,.T.);
#160=EDGE_CURVE('',#129,#119,#83,.T.);
#161=EDGE_CURVE('',#128,#116,#84,.T.);
#162=EDGE_CURVE('',#130,#115,#65,.F.);
#163=EDGE_CURVE('',#117,#132,#85,.T.);
#164=EDGE_CURVE('',#133,#132,#86,.T.);
#165=EDGE_CURVE('',#118,#133,#87,.T.);
#166=EDGE_CURVE('',#134,#134,#66,.T.);
#167=EDGE_CURVE('',#134,#135,#88,.T.);
#168=EDGE_CURVE('',#135,#135,#67,.T.);
#169=EDGE_CURVE('',#132,#122,#68,.T.);
#170=EDGE_CURVE('',#133,#125,#69,.T.);
#171=EDGE_CURVE('',#136,#137,#70,.T.);
#172=EDGE_CURVE('',#137,#136,#71,.T.);
#173=EDGE_CURVE('',#136,#131,#89,.T.);
#174=EDGE_CURVE('',#137,#127,#90,.T.);
#175=EDGE_CURVE('',#138,#139,#72,.T.);
#176=EDGE_CURVE('',#139,#138,#73,.T.);
#177=EDGE_CURVE('',#138,#130,#91,.T.);
#178=EDGE_CURVE('',#139,#126,#92,.T.);
#179=ORIENTED_EDGE('',*,*,#140,.T.);
#180=ORIENTED_EDGE('',*,*,#141,.T.);
#181=ORIENTED_EDGE('',*,*,#142,.T.);
#182=ORIENTED_EDGE('',*,*,#143,.F.);
#183=ORIENTED_EDGE('',*,*,#144,.F.);
#184=ORIENTED_EDGE('',*,*,#145,.T.);
#185=ORIENTED_EDGE('',*,*,#146,.F.);
#186=ORIENTED_EDGE('',*,*,#147,.T.);
#187=ORIENTED_EDGE('',*,*,#148,.T.);
#188=ORIENTED_EDGE('',*,*,#149,.F.);
#189=ORIENTED_EDGE('',*,*,#150,.F.);
#190=ORIENTED_EDGE('',*,*,#151,.T.);
#191=ORIENTED_EDGE('',*,*,#152,.F.);
#192=ORIENTED_EDGE('',*,*,#153,.F.);
#193=ORIENTED_EDGE('',*,*,#154,.T.);
#194=ORIENTED_EDGE('',*,*,#155,.F.);
#195=ORIENTED_EDGE('',*,*,#156,.F.);
#196=ORIENTED_EDGE('',*,*,#149,.T.);
#197=ORIENTED_EDGE('',*,*,#157,.F.);
#198=ORIENTED_EDGE('',*,*,#147,.F.);
#199=ORIENTED_EDGE('',*,*,#158,.T.);
#200=ORIENTED_EDGE('',*,*,#159,.T.);
#201=ORIENTED_EDGE('',*,*,#145,.F.);
#202=ORIENTED_EDGE('',*,*,#160,.F.);
#203=ORIENTED_EDGE('',*,*,#155,.T.);
#204=ORIENTED_EDGE('',*,*,#161,.T.);
#205=ORIENTED_EDGE('',*,*,#141,.F.);
#206=ORIENTED_EDGE('',*,*,#162,.F.);
#207=ORIENTED_EDGE('',*,*,#163,.T.);
#208=ORIENTED_EDGE('',*,*,#164,.F.);
#209=ORIENTED_EDGE('',*,*,#165,.F.);
#210=ORIENTED_EDGE('',*,*,#143,.T.);
#211=ORIENTED_EDGE('',*,*,#166,.T.);
#212=ORIENTED_EDGE('',*,*,#167,.T.);
#213=ORIENTED_EDGE('',*,*,#168,.F.);
#214=ORIENTED_EDGE('',*,*,#167,.F.);
#215=ORIENTED_EDGE('',*,*,#169,.T.);
#216=ORIENTED_EDGE('',*,*,#151,.F.);
#217=ORIENTED_EDGE('',*,*,#170,.F.);
#218=ORIENTED_EDGE('',*,*,#164,.T.);
#219=ORIENTED_EDGE('',*,*,#150,.T.);
#220=ORIENTED_EDGE('',*,*,#156,.T.);
#221=ORIENTED_EDGE('',*,*,#160,.T.);
#222=ORIENTED_EDGE('',*,*,#144,.T.);
#223=ORIENTED_EDGE('',*,*,#165,.T.);
#224=ORIENTED_EDGE('',*,*,#170,.T.);
#225=ORIENTED_EDGE('',*,*,#166,.F.);
#226=ORIENTED_EDGE('',*,*,#148,.F.);
#227=ORIENTED_EDGE('',*,*,#169,.F.);
#228=ORIENTED_EDGE('',*,*,#163,.F.);
#229=ORIENTED_EDGE('',*,*,#142,.F.);
#230=ORIENTED_EDGE('',*,*,#161,.F.);
#231=ORIENTED_EDGE('',*,*,#154,.F.);
#232=ORIENTED_EDGE('',*,*,#168,.T.);
#233=ORIENTED_EDGE('',*,*,#171,.T.);
#234=ORIENTED_EDGE('',*,*,#172,.T.);
#235=ORIENTED_EDGE('',*,*,#173,.T.);
#236=ORIENTED_EDGE('',*,*,#158,.F.);
#237=ORIENTED_EDGE('',*,*,#146,.T.);
#238=ORIENTED_EDGE('',*,*,#159,.F.);
#239=ORIENTED_EDGE('',*,*,#173,.F.);
#240=ORIENTED_EDGE('',*,*,#171,.F.);
#241=ORIENTED_EDGE('',*,*,#172,.F.);
#242=ORIENTED_EDGE('',*,*,#174,.T.);
#243=ORIENTED_EDGE('',*,*,#153,.T.);
#244=ORIENTED_EDGE('',*,*,#174,.F.);
#245=ORIENTED_EDGE('',*,*,#175,.T.);
#246=ORIENTED_EDGE('',*,*,#176,.T.);
#247=ORIENTED_EDGE('',*,*,#177,.T.);
#248=ORIENTED_EDGE('',*,*,#162,.T.);
#249=ORIENTED_EDGE('',*,*,#140,.F.);
#250=ORIENTED_EDGE('',*,*,#157,.T.);
#251=ORIENTED_EDGE('',*,*,#177,.F.);
#252=ORIENTED_EDGE('',*,*,#175,.F.);
#253=ORIENTED_EDGE('',*,*,#176,.F.);
#254=ORIENTED_EDGE('',*,*,#178,.T.);
#255=ORIENTED_EDGE('',*,*,#152,.T.);
#256=ORIENTED_EDGE('',*,*,#178,.F.);
#257=CYLINDRICAL_SURFACE('',#296,1.99999999999999);
#258=CYLINDRICAL_SURFACE('',#302,5.);
#259=CYLINDRICAL_SURFACE('',#311,3.05);
#260=CYLINDRICAL_SURFACE('',#314,0.299999999999984);
#261=CYLINDRICAL_SURFACE('',#322,2.65);
#262=CYLINDRICAL_SURFACE('',#326,2.65);
#263=ADVANCED_FACE('',(#26),#257,.T.);
#264=ADVANCED_FACE('',(#27,#17,#18),#21,.F.);
#265=ADVANCED_FACE('',(#28),#258,.T.);
#266=ADVANCED_FACE('',(#29),#22,.F.);
#267=ADVANCED_FACE('',(#30),#23,.F.);
#268=ADVANCED_FACE('',(#31),#259,.F.);
#269=ADVANCED_FACE('',(#32),#260,.T.);
#270=ADVANCED_FACE('',(#33,#19),#24,.T.);
#271=ADVANCED_FACE('',(#34,#20),#25,.F.);
#272=ADVANCED_FACE('',(#35),#15,.F.);
#273=ADVANCED_FACE('',(#36),#261,.F.);
#274=ADVANCED_FACE('',(#37),#16,.F.);
#275=ADVANCED_FACE('',(#38),#262,.F.);
#276=CLOSED_SHELL('',(#263,#264,#265,#266,#267,#268,#269,#270,#271,#272,
#273,#274,#275));
#277=DERIVED_UNIT_ELEMENT(#279,1.);
#278=DERIVED_UNIT_ELEMENT(#506,-3.);
#279=(
MASS_UNIT()
NAMED_UNIT(*)
SI_UNIT($,.GRAM.)
);
#280=DERIVED_UNIT((#277,#278));
#281=MEASURE_REPRESENTATION_ITEM('density measure',
POSITIVE_RATIO_MEASURE(1.),#280);
#282=PROPERTY_DEFINITION_REPRESENTATION(#287,#284);
#283=PROPERTY_DEFINITION_REPRESENTATION(#288,#285);
#284=REPRESENTATION('material name',(#286),#503);
#285=REPRESENTATION('density',(#281),#503);
#286=DESCRIPTIVE_REPRESENTATION_ITEM('Generic','Generic');
#287=PROPERTY_DEFINITION('material property','material name',#513);
#288=PROPERTY_DEFINITION('material property','density of part',#513);
#289=DATE_TIME_ROLE('creation_date');
#290=APPLIED_DATE_AND_TIME_ASSIGNMENT(#291,#289,(#513));
#291=DATE_AND_TIME(#292,#293);
#292=CALENDAR_DATE(2022,13,12);
#293=LOCAL_TIME(13,38,37.,#294);
#294=COORDINATED_UNIVERSAL_TIME_OFFSET(0,0,.BEHIND.);
#295=AXIS2_PLACEMENT_3D('placement',#410,#327,#328);
#296=AXIS2_PLACEMENT_3D('',#411,#329,#330);
#297=AXIS2_PLACEMENT_3D('',#424,#332,#333);
#298=AXIS2_PLACEMENT_3D('',#428,#335,#336);
#299=AXIS2_PLACEMENT_3D('',#440,#339,#340);
#300=AXIS2_PLACEMENT_3D('',#450,#345,#346);
#301=AXIS2_PLACEMENT_3D('',#452,#347,#348);
#302=AXIS2_PLACEMENT_3D('',#453,#349,#350);
#303=AXIS2_PLACEMENT_3D('',#455,#351,#352);
#304=AXIS2_PLACEMENT_3D('',#458,#354,#355);
#305=AXIS2_PLACEMENT_3D('',#459,#356,#357);
#306=AXIS2_PLACEMENT_3D('',#461,#358,#359);
#307=AXIS2_PLACEMENT_3D('',#463,#360,#361);
#308=AXIS2_PLACEMENT_3D('',#464,#362,#363);
#309=AXIS2_PLACEMENT_3D('',#467,#366,#367);
#310=AXIS2_PLACEMENT_3D('',#468,#368,#369);
#311=AXIS2_PLACEMENT_3D('',#474,#373,#374);
#312=AXIS2_PLACEMENT_3D('',#476,#375,#376);
#313=AXIS2_PLACEMENT_3D('',#479,#378,#379);
#314=AXIS2_PLACEMENT_3D('',#480,#380,#381);
#315=AXIS2_PLACEMENT_3D('',#481,#382,#383);
#316=AXIS2_PLACEMENT_3D('',#482,#384,#385);
#317=AXIS2_PLACEMENT_3D('',#483,#386,#387);
#318=AXIS2_PLACEMENT_3D('',#484,#388,#389);
#319=AXIS2_PLACEMENT_3D('',#485,#390,#391);
#320=AXIS2_PLACEMENT_3D('',#488,#392,#393);
#321=AXIS2_PLACEMENT_3D('',#489,#394,#395);
#322=AXIS2_PLACEMENT_3D('',#491,#397,#398);
#323=AXIS2_PLACEMENT_3D('',#493,#400,#401);
#324=AXIS2_PLACEMENT_3D('',#496,#402,#403);
#325=AXIS2_PLACEMENT_3D('',#497,#404,#405);
#326=AXIS2_PLACEMENT_3D('',#499,#407,#408);
#327=DIRECTION('axis',(0.,0.,1.));
#328=DIRECTION('refdir',(1.,0.,0.));
#329=DIRECTION('center_axis',(0.,-1.,0.));
#330=DIRECTION('ref_axis',(0.707106781186547,0.,0.707106781186548));
#331=DIRECTION('',(0.,-1.,0.));
#332=DIRECTION('center_axis',(0.,1.,0.));
#333=DIRECTION('ref_axis',(1.,0.,0.));
#334=DIRECTION('',(0.,-1.,0.));
#335=DIRECTION('center_axis',(0.,1.,0.));
#336=DIRECTION('ref_axis',(1.,0.,0.));
#337=DIRECTION('',(0.,-1.,0.));
#338=DIRECTION('',(0.,-1.,0.));
#339=DIRECTION('center_axis',(0.,0.,1.));
#340=DIRECTION('ref_axis',(1.,0.,0.));
#341=DIRECTION('',(-1.,0.,0.));
#342=DIRECTION('',(0.,-1.,0.));
#343=DIRECTION('',(-1.,0.,0.));
#344=DIRECTION('',(0.,-1.,0.));
#345=DIRECTION('center_axis',(0.,0.,-1.));
#346=DIRECTION('ref_axis',(-1.,0.,0.));
#347=DIRECTION('center_axis',(0.,0.,-1.));
#348=DIRECTION('ref_axis',(-1.,0.,0.));
#349=DIRECTION('center_axis',(0.,-1.,0.));
#350=DIRECTION('ref_axis',(-1.,0.,1.83697019872103E-16));
#351=DIRECTION('center_axis',(0.,1.,0.));
#352=DIRECTION('ref_axis',(1.,0.,0.));
#353=DIRECTION('',(0.,-1.,0.));
#354=DIRECTION('center_axis',(0.,1.,0.));
#355=DIRECTION('ref_axis',(1.,0.,0.));
#356=DIRECTION('center_axis',(0.,0.,-1.));
#357=DIRECTION('ref_axis',(-1.,0.,0.));
#358=DIRECTION('center_axis',(0.,0.,-1.));
#359=DIRECTION('ref_axis',(-1.,0.,0.));
#360=DIRECTION('center_axis',(0.,0.,-1.));
#361=DIRECTION('ref_axis',(-1.,0.,0.));
#362=DIRECTION('center_axis',(0.,0.,-1.));
#363=DIRECTION('ref_axis',(-1.,0.,0.));
#364=DIRECTION('',(1.,0.,0.));
#365=DIRECTION('',(1.,0.,0.));
#366=DIRECTION('center_axis',(0.,0.,-1.));
#367=DIRECTION('ref_axis',(-1.,0.,0.));
#368=DIRECTION('center_axis',(-1.,0.,0.));
#369=DIRECTION('ref_axis',(0.,0.,1.));
#370=DIRECTION('',(0.,0.,-1.));
#371=DIRECTION('',(0.,-1.,0.));
#372=DIRECTION('',(0.,0.,-1.));
#373=DIRECTION('center_axis',(0.,-1.,0.));
#374=DIRECTION('ref_axis',(0.,0.,-1.));
#375=DIRECTION('center_axis',(0.,1.,0.));
#376=DIRECTION('ref_axis',(1.,0.,0.));
#377=DIRECTION('',(0.,-1.,0.));
#378=DIRECTION('center_axis',(0.,1.,0.));
#379=DIRECTION('ref_axis',(1.,0.,0.));
#380=DIRECTION('center_axis',(0.,-1.,0.));
#381=DIRECTION('ref_axis',(0.,0.,-1.));
#382=DIRECTION('center_axis',(0.,1.,0.));
#383=DIRECTION('ref_axis',(1.,0.,0.));
#384=DIRECTION('center_axis',(0.,1.,0.));
#385=DIRECTION('ref_axis',(1.,0.,0.));
#386=DIRECTION('center_axis',(0.,1.,0.));
#387=DIRECTION('ref_axis',(0.,0.,1.));
#388=DIRECTION('center_axis',(0.,1.,0.));
#389=DIRECTION('ref_axis',(0.,0.,1.));
#390=DIRECTION('center_axis',(0.,0.,1.));
#391=DIRECTION('ref_axis',(1.,0.,0.));
#392=DIRECTION('center_axis',(0.,0.,-1.));
#393=DIRECTION('ref_axis',(-1.,0.,0.));
#394=DIRECTION('center_axis',(0.,0.,-1.));
#395=DIRECTION('ref_axis',(-1.,0.,0.));
#396=DIRECTION('',(-0.707106781186547,-8.65956056235493E-17,0.707106781186548));
#397=DIRECTION('center_axis',(0.,0.,-1.));
#398=DIRECTION('ref_axis',(-1.,0.,0.));
#399=DIRECTION('',(0.,0.,-1.));
#400=DIRECTION('center_axis',(0.,0.,1.));
#401=DIRECTION('ref_axis',(1.,0.,0.));
#402=DIRECTION('center_axis',(0.,0.,-1.));
#403=DIRECTION('ref_axis',(-1.,0.,0.));
#404=DIRECTION('center_axis',(0.,0.,-1.));
#405=DIRECTION('ref_axis',(-1.,0.,0.));
#406=DIRECTION('',(-0.707106781186547,-8.65956056235493E-17,0.707106781186548));
#407=DIRECTION('center_axis',(0.,0.,-1.));
#408=DIRECTION('ref_axis',(-1.,0.,0.));
#409=DIRECTION('',(0.,0.,-1.));
#410=CARTESIAN_POINT('',(0.,0.,0.));
#411=CARTESIAN_POINT('Origin',(20.,25.,6.93889390390723E-15));
#412=CARTESIAN_POINT('',(20.,-13.7067482843622,2.));
#413=CARTESIAN_POINT('',(20.,-16.2932517156378,2.));
#414=CARTESIAN_POINT('Ctrl Pts',(20.,-16.2932517156378,2.));
#415=CARTESIAN_POINT('Ctrl Pts',(20.1012505891202,-15.8626485829084,2.));
#416=CARTESIAN_POINT('Ctrl Pts',(20.1447546447667,-15.4131752901016,1.99475464476673));
#417=CARTESIAN_POINT('Ctrl Pts',(20.1447546447667,-15.,1.99475464476673));
#418=CARTESIAN_POINT('Ctrl Pts',(20.1447546447667,-14.5868247098984,1.99475464476673));
#419=CARTESIAN_POINT('Ctrl Pts',(20.1012505891202,-14.1373514170916,2.));
#420=CARTESIAN_POINT('Ctrl Pts',(20.,-13.7067482843622,2.));
#421=CARTESIAN_POINT('',(20.,-25.,2.));
#422=CARTESIAN_POINT('',(20.,25.,2.));
#423=CARTESIAN_POINT('',(22.,-25.,1.6098233857065E-15));
#424=CARTESIAN_POINT('Origin',(20.,-25.,6.93889390390723E-15));
#425=CARTESIAN_POINT('',(22.,25.,1.6098233857065E-15));
#426=CARTESIAN_POINT('',(22.,25.,1.6098233857065E-15));
#427=CARTESIAN_POINT('',(20.,25.,2.));
#428=CARTESIAN_POINT('Origin',(20.,25.,6.93889390390723E-15));
#429=CARTESIAN_POINT('',(20.,16.2932517156377,2.));
#430=CARTESIAN_POINT('',(20.,25.,2.));
#431=CARTESIAN_POINT('',(20.,13.7067482843622,2.));
#432=CARTESIAN_POINT('Ctrl Pts',(20.,13.7067482843622,2.));
#433=CARTESIAN_POINT('Ctrl Pts',(20.1012505891202,14.1373514170916,2.));
#434=CARTESIAN_POINT('Ctrl Pts',(20.1447546447667,14.5868247098984,1.99475464476673));
#435=CARTESIAN_POINT('Ctrl Pts',(20.1447546447667,15.,1.99475464476673));
#436=CARTESIAN_POINT('Ctrl Pts',(20.1447546447667,15.4131752901015,1.99475464476673));
#437=CARTESIAN_POINT('Ctrl Pts',(20.1012505891202,15.8626485829083,2.));
#438=CARTESIAN_POINT('Ctrl Pts',(20.,16.2932517156377,2.));
#439=CARTESIAN_POINT('',(20.,25.,2.));
#440=CARTESIAN_POINT('Origin',(21.7,25.,-2.));
#441=CARTESIAN_POINT('',(21.7,-25.,-2.));
#442=CARTESIAN_POINT('',(4.58257569495584,-25.,-2.));
#443=CARTESIAN_POINT('',(21.7,-25.,-2.));
#444=CARTESIAN_POINT('',(4.58257569495584,25.,-2.));
#445=CARTESIAN_POINT('',(4.58257569495584,25.,-2.));
#446=CARTESIAN_POINT('',(21.7,25.,-2.));
#447=CARTESIAN_POINT('',(21.7,25.,-2.));
#448=CARTESIAN_POINT('',(21.7,25.,-2.));
#449=CARTESIAN_POINT('',(17.15,-15.,-2.));
#450=CARTESIAN_POINT('Origin',(14.5,-15.,-2.));
#451=CARTESIAN_POINT('',(17.15,15.,-2.));
#452=CARTESIAN_POINT('Origin',(14.5,15.,-2.));
#453=CARTESIAN_POINT('Origin',(1.89735380184963E-16,25.,0.));
#454=CARTESIAN_POINT('',(4.58257569495584,-25.,2.));
#455=CARTESIAN_POINT('Origin',(1.89735380184963E-16,-25.,0.));
#456=CARTESIAN_POINT('',(4.58257569495584,25.,2.));
#457=CARTESIAN_POINT('',(4.58257569495584,25.,2.));
#458=CARTESIAN_POINT('Origin',(1.89735380184963E-16,25.,0.));
#459=CARTESIAN_POINT('Origin',(4.58257569495584,25.,2.));
#460=CARTESIAN_POINT('',(8.85,-15.,2.));
#461=CARTESIAN_POINT('Origin',(14.5,-15.,2.));
#462=CARTESIAN_POINT('',(8.85,15.,2.));
#463=CARTESIAN_POINT('Origin',(14.5,15.,2.));
#464=CARTESIAN_POINT('Origin',(14.5,15.,2.));
#465=CARTESIAN_POINT('',(4.58257569495584,25.,2.));
#466=CARTESIAN_POINT('',(4.58257569495584,-25.,2.));
#467=CARTESIAN_POINT('Origin',(14.5,-15.,2.));
#468=CARTESIAN_POINT('Origin',(22.,25.,0.));
#469=CARTESIAN_POINT('',(22.,-25.,-1.7));
#470=CARTESIAN_POINT('',(22.,-25.,0.));
#471=CARTESIAN_POINT('',(22.,25.,-1.7));
#472=CARTESIAN_POINT('',(22.,25.,-1.7));
#473=CARTESIAN_POINT('',(22.,25.,0.));
#474=CARTESIAN_POINT('Origin',(0.,25.,0.));
#475=CARTESIAN_POINT('',(-3.73517273739943E-16,25.,3.05));
#476=CARTESIAN_POINT('Origin',(0.,25.,0.));
#477=CARTESIAN_POINT('',(-3.73517273739943E-16,-25.,3.05));
#478=CARTESIAN_POINT('',(-3.73517273739943E-16,25.,3.05));
#479=CARTESIAN_POINT('Origin',(0.,-25.,0.));
#480=CARTESIAN_POINT('Origin',(21.7,25.,-1.70000000000001));
#481=CARTESIAN_POINT('Origin',(21.7,-25.,-1.70000000000001));
#482=CARTESIAN_POINT('Origin',(21.7,25.,-1.70000000000001));
#483=CARTESIAN_POINT('Origin',(1.89735380184963E-16,25.,0.));
#484=CARTESIAN_POINT('Origin',(1.89735380184963E-16,-25.,0.));
#485=CARTESIAN_POINT('Origin',(14.5,15.,2.));
#486=CARTESIAN_POINT('',(11.85,15.,-1.));
#487=CARTESIAN_POINT('',(17.15,15.,-1.));
#488=CARTESIAN_POINT('Origin',(14.5,15.,-1.));
#489=CARTESIAN_POINT('Origin',(14.5,15.,-1.));
#490=CARTESIAN_POINT('',(8.85,15.,2.));
#491=CARTESIAN_POINT('Origin',(14.5,15.,-2.));
#492=CARTESIAN_POINT('',(17.15,15.,-2.));
#493=CARTESIAN_POINT('Origin',(14.5,-15.,2.));
#494=CARTESIAN_POINT('',(11.85,-15.,-1.));
#495=CARTESIAN_POINT('',(17.15,-15.,-1.));
#496=CARTESIAN_POINT('Origin',(14.5,-15.,-1.));
#497=CARTESIAN_POINT('Origin',(14.5,-15.,-1.));
#498=CARTESIAN_POINT('',(8.85,-15.,2.));
#499=CARTESIAN_POINT('Origin',(14.5,-15.,-2.));
#500=CARTESIAN_POINT('',(17.15,-15.,-2.));
#501=UNCERTAINTY_MEASURE_WITH_UNIT(LENGTH_MEASURE(0.01),#505,
'DISTANCE_ACCURACY_VALUE',
'Maximum model space distance between geometric entities at asserted c
onnectivities');
#502=UNCERTAINTY_MEASURE_WITH_UNIT(LENGTH_MEASURE(0.01),#505,
'DISTANCE_ACCURACY_VALUE',
'Maximum model space distance between geometric entities at asserted c
onnectivities');
#503=(
GEOMETRIC_REPRESENTATION_CONTEXT(3)
GLOBAL_UNCERTAINTY_ASSIGNED_CONTEXT((#501))
GLOBAL_UNIT_ASSIGNED_CONTEXT((#505,#507,#508))
REPRESENTATION_CONTEXT('','3D')
);
#504=(
GEOMETRIC_REPRESENTATION_CONTEXT(3)
GLOBAL_UNCERTAINTY_ASSIGNED_CONTEXT((#502))
GLOBAL_UNIT_ASSIGNED_CONTEXT((#505,#507,#508))
REPRESENTATION_CONTEXT('','3D')
);
#505=(
LENGTH_UNIT()
NAMED_UNIT(*)
SI_UNIT(.MILLI.,.METRE.)
);
#506=(
LENGTH_UNIT()
NAMED_UNIT(*)
SI_UNIT(.CENTI.,.METRE.)
);
#507=(
NAMED_UNIT(*)
PLANE_ANGLE_UNIT()
SI_UNIT($,.RADIAN.)
);
#508=(
NAMED_UNIT(*)
SI_UNIT($,.STERADIAN.)
SOLID_ANGLE_UNIT()
);
#509=SHAPE_DEFINITION_REPRESENTATION(#510,#511);
#510=PRODUCT_DEFINITION_SHAPE('',$,#513);
#511=SHAPE_REPRESENTATION('',(#295),#503);
#512=PRODUCT_DEFINITION_CONTEXT('part definition',#517,'design');
#513=PRODUCT_DEFINITION('1008699','1008699',#514,#512);
#514=PRODUCT_DEFINITION_FORMATION('',$,#519);
#515=PRODUCT_RELATED_PRODUCT_CATEGORY('1008699','1008699',(#519));
#516=APPLICATION_PROTOCOL_DEFINITION('international standard',
'automotive_design',2009,#517);
#517=APPLICATION_CONTEXT(
'Core Data for Automotive Mechanical Design Process');
#518=PRODUCT_CONTEXT('part definition',#517,'mechanical');
#519=PRODUCT('1008699','1008699','STEP AP214',(#518));
#520=PRESENTATION_STYLE_ASSIGNMENT((#522));
#521=PRESENTATION_STYLE_ASSIGNMENT((#523));
#522=SURFACE_STYLE_USAGE(.BOTH.,#528);
#523=SURFACE_STYLE_USAGE(.BOTH.,#529);
#524=SURFACE_STYLE_RENDERING_WITH_PROPERTIES($,#536,(#526));
#525=SURFACE_STYLE_RENDERING_WITH_PROPERTIES($,#537,(#527));
#526=SURFACE_STYLE_TRANSPARENT(0.);
#527=SURFACE_STYLE_TRANSPARENT(0.);
#528=SURFACE_SIDE_STYLE('',(#530,#524));
#529=SURFACE_SIDE_STYLE('',(#531,#525));
#530=SURFACE_STYLE_FILL_AREA(#532);
#531=SURFACE_STYLE_FILL_AREA(#533);
#532=FILL_AREA_STYLE('',(#534));
#533=FILL_AREA_STYLE('',(#535));
#534=FILL_AREA_STYLE_COLOUR('',#536);
#535=FILL_AREA_STYLE_COLOUR('',#537);
#536=COLOUR_RGB('',0.749019607843137,0.749019607843137,0.749019607843137);
#537=COLOUR_RGB('',0.792156862745098,0.792156862745098,0.792156862745098);
ENDSEC;
END-ISO-10303-21;
