ISO-10303-21;
HEADER;
/* Generated by software containing ST-Developer
 * from STEP Tools, Inc. (www.steptools.com) 
 */

FILE_DESCRIPTION(
/* description */ ('STEP AP214'),
/* implementation_level */ '2;1');

FILE_NAME(
/* name */ 
'C:\\Users\\b.steehouwer\\Desktop\\Producten\\ISB profielsysteem\\CAD-
files\\Scharnieren en rol- en schuifelementen\\Scharnieren\\Universele
 scharnieren\\Scharnieren verborgen\\1008702.stp',
/* time_stamp */ '2024-05-29T12:56:32+02:00',
/* author */ ('b.steehouwer'),
/* organization */ ('CADENAS'),
/* preprocessor_version */ 'ST-DEVELOPER v18.1',
/* originating_system */ 'Autodesk Inventor 2021',
/* authorisation */ '  ');

FILE_SCHEMA (('AUTOMOTIVE_DESIGN { 1 0 10303 214 3 1 1 }'));
ENDSEC;

DATA;
#10=MECHANICAL_DESIGN_GEOMETRIC_PRESENTATION_REPRESENTATION('',(#13),#448);
#11=SHAPE_REPRESENTATION_RELATIONSHIP('SRR','None',#455,#12);
#12=ADVANCED_BREP_SHAPE_REPRESENTATION('',(#14),#447);
#13=STYLED_ITEM('',(#465),#14);
#14=MANIFOLD_SOLID_BREP('Solid1',#250);
#15=CONICAL_SURFACE('',#291,6.2,0.785398163397448);
#16=CONICAL_SURFACE('',#295,6.2,0.785398163397449);
#17=CYLINDRICAL_SURFACE('',#273,5.);
#18=CYLINDRICAL_SURFACE('',#279,2.);
#19=CYLINDRICAL_SURFACE('',#283,3.05);
#20=CYLINDRICAL_SURFACE('',#286,0.299999999999995);
#21=CYLINDRICAL_SURFACE('',#294,3.2);
#22=CYLINDRICAL_SURFACE('',#298,3.2);
#23=FACE_BOUND('',#59,.T.);
#24=FACE_BOUND('',#60,.T.);
#25=FACE_BOUND('',#63,.T.);
#26=FACE_BOUND('',#64,.T.);
#27=FACE_BOUND('',#70,.T.);
#28=FACE_BOUND('',#72,.T.);
#29=CIRCLE('',#271,3.2);
#30=CIRCLE('',#272,3.2);
#31=CIRCLE('',#274,5.);
#32=CIRCLE('',#275,5.);
#33=CIRCLE('',#277,6.2);
#34=CIRCLE('',#278,6.2);
#35=CIRCLE('',#280,2.);
#36=CIRCLE('',#281,2.);
#37=CIRCLE('',#284,3.05);
#38=CIRCLE('',#285,3.05);
#39=CIRCLE('',#287,0.299999999999995);
#40=CIRCLE('',#288,0.299999999999995);
#41=CIRCLE('',#292,3.2);
#42=CIRCLE('',#293,3.2);
#43=CIRCLE('',#296,3.2);
#44=CIRCLE('',#297,3.2);
#45=FACE_OUTER_BOUND('',#58,.T.);
#46=FACE_OUTER_BOUND('',#61,.T.);
#47=FACE_OUTER_BOUND('',#62,.T.);
#48=FACE_OUTER_BOUND('',#65,.T.);
#49=FACE_OUTER_BOUND('',#66,.T.);
#50=FACE_OUTER_BOUND('',#67,.T.);
#51=FACE_OUTER_BOUND('',#68,.T.);
#52=FACE_OUTER_BOUND('',#69,.T.);
#53=FACE_OUTER_BOUND('',#71,.T.);
#54=FACE_OUTER_BOUND('',#73,.T.);
#55=FACE_OUTER_BOUND('',#74,.T.);
#56=FACE_OUTER_BOUND('',#75,.T.);
#57=FACE_OUTER_BOUND('',#76,.T.);
#58=EDGE_LOOP('',(#166,#167,#168,#169));
#59=EDGE_LOOP('',(#170));
#60=EDGE_LOOP('',(#171));
#61=EDGE_LOOP('',(#172,#173,#174,#175));
#62=EDGE_LOOP('',(#176,#177,#178,#179));
#63=EDGE_LOOP('',(#180));
#64=EDGE_LOOP('',(#181));
#65=EDGE_LOOP('',(#182,#183,#184,#185));
#66=EDGE_LOOP('',(#186,#187,#188,#189));
#67=EDGE_LOOP('',(#190,#191,#192,#193));
#68=EDGE_LOOP('',(#194,#195,#196,#197));
#69=EDGE_LOOP('',(#198,#199,#200,#201,#202,#203));
#70=EDGE_LOOP('',(#204));
#71=EDGE_LOOP('',(#205,#206,#207,#208,#209,#210));
#72=EDGE_LOOP('',(#211));
#73=EDGE_LOOP('',(#212,#213,#214,#215,#216));
#74=EDGE_LOOP('',(#217,#218,#219,#220,#221));
#75=EDGE_LOOP('',(#222,#223,#224,#225,#226));
#76=EDGE_LOOP('',(#227,#228,#229,#230,#231));
#77=LINE('',#380,#94);
#78=LINE('',#382,#95);
#79=LINE('',#384,#96);
#80=LINE('',#385,#97);
#81=LINE('',#394,#98);
#82=LINE('',#398,#99);
#83=LINE('',#400,#100);
#84=LINE('',#401,#101);
#85=LINE('',#410,#102);
#86=LINE('',#414,#103);
#87=LINE('',#416,#104);
#88=LINE('',#417,#105);
#89=LINE('',#422,#106);
#90=LINE('',#434,#107);
#91=LINE('',#436,#108);
#92=LINE('',#442,#109);
#93=LINE('',#444,#110);
#94=VECTOR('',#303,1000.);
#95=VECTOR('',#304,1000.);
#96=VECTOR('',#305,1000.);
#97=VECTOR('',#306,1000.);
#98=VECTOR('',#315,1000.);
#99=VECTOR('',#320,1000.);
#100=VECTOR('',#321,1000.);
#101=VECTOR('',#322,1000.);
#102=VECTOR('',#331,1000.);
#103=VECTOR('',#336,1000.);
#104=VECTOR('',#337,1000.);
#105=VECTOR('',#338,1000.);
#106=VECTOR('',#343,3.05);
#107=VECTOR('',#362,6.2);
#108=VECTOR('',#365,3.2);
#109=VECTOR('',#372,6.2);
#110=VECTOR('',#375,3.2);
#111=VERTEX_POINT('',#378);
#112=VERTEX_POINT('',#379);
#113=VERTEX_POINT('',#381);
#114=VERTEX_POINT('',#383);
#115=VERTEX_POINT('',#386);
#116=VERTEX_POINT('',#388);
#117=VERTEX_POINT('',#391);
#118=VERTEX_POINT('',#393);
#119=VERTEX_POINT('',#397);
#120=VERTEX_POINT('',#399);
#121=VERTEX_POINT('',#402);
#122=VERTEX_POINT('',#404);
#123=VERTEX_POINT('',#407);
#124=VERTEX_POINT('',#409);
#125=VERTEX_POINT('',#413);
#126=VERTEX_POINT('',#415);
#127=VERTEX_POINT('',#419);
#128=VERTEX_POINT('',#421);
#129=VERTEX_POINT('',#430);
#130=VERTEX_POINT('',#431);
#131=VERTEX_POINT('',#438);
#132=VERTEX_POINT('',#439);
#133=EDGE_CURVE('',#111,#112,#77,.T.);
#134=EDGE_CURVE('',#113,#112,#78,.T.);
#135=EDGE_CURVE('',#114,#113,#79,.T.);
#136=EDGE_CURVE('',#114,#111,#80,.T.);
#137=EDGE_CURVE('',#115,#115,#29,.T.);
#138=EDGE_CURVE('',#116,#116,#30,.T.);
#139=EDGE_CURVE('',#112,#117,#31,.T.);
#140=EDGE_CURVE('',#118,#117,#81,.T.);
#141=EDGE_CURVE('',#113,#118,#32,.T.);
#142=EDGE_CURVE('',#117,#119,#82,.T.);
#143=EDGE_CURVE('',#120,#119,#83,.T.);
#144=EDGE_CURVE('',#118,#120,#84,.T.);
#145=EDGE_CURVE('',#121,#121,#33,.T.);
#146=EDGE_CURVE('',#122,#122,#34,.T.);
#147=EDGE_CURVE('',#119,#123,#35,.T.);
#148=EDGE_CURVE('',#124,#123,#85,.T.);
#149=EDGE_CURVE('',#120,#124,#36,.T.);
#150=EDGE_CURVE('',#123,#125,#86,.T.);
#151=EDGE_CURVE('',#126,#125,#87,.T.);
#152=EDGE_CURVE('',#124,#126,#88,.T.);
#153=EDGE_CURVE('',#127,#127,#37,.T.);
#154=EDGE_CURVE('',#127,#128,#89,.T.);
#155=EDGE_CURVE('',#128,#128,#38,.T.);
#156=EDGE_CURVE('',#125,#111,#39,.T.);
#157=EDGE_CURVE('',#126,#114,#40,.T.);
#158=EDGE_CURVE('',#129,#130,#41,.T.);
#159=EDGE_CURVE('',#130,#129,#42,.T.);
#160=EDGE_CURVE('',#129,#122,#90,.T.);
#161=EDGE_CURVE('',#130,#116,#91,.T.);
#162=EDGE_CURVE('',#131,#132,#43,.T.);
#163=EDGE_CURVE('',#132,#131,#44,.T.);
#164=EDGE_CURVE('',#131,#121,#92,.T.);
#165=EDGE_CURVE('',#132,#115,#93,.T.);
#166=ORIENTED_EDGE('',*,*,#133,.T.);
#167=ORIENTED_EDGE('',*,*,#134,.F.);
#168=ORIENTED_EDGE('',*,*,#135,.F.);
#169=ORIENTED_EDGE('',*,*,#136,.T.);
#170=ORIENTED_EDGE('',*,*,#137,.F.);
#171=ORIENTED_EDGE('',*,*,#138,.F.);
#172=ORIENTED_EDGE('',*,*,#139,.T.);
#173=ORIENTED_EDGE('',*,*,#140,.F.);
#174=ORIENTED_EDGE('',*,*,#141,.F.);
#175=ORIENTED_EDGE('',*,*,#134,.T.);
#176=ORIENTED_EDGE('',*,*,#142,.T.);
#177=ORIENTED_EDGE('',*,*,#143,.F.);
#178=ORIENTED_EDGE('',*,*,#144,.F.);
#179=ORIENTED_EDGE('',*,*,#140,.T.);
#180=ORIENTED_EDGE('',*,*,#145,.T.);
#181=ORIENTED_EDGE('',*,*,#146,.T.);
#182=ORIENTED_EDGE('',*,*,#147,.T.);
#183=ORIENTED_EDGE('',*,*,#148,.F.);
#184=ORIENTED_EDGE('',*,*,#149,.F.);
#185=ORIENTED_EDGE('',*,*,#143,.T.);
#186=ORIENTED_EDGE('',*,*,#150,.T.);
#187=ORIENTED_EDGE('',*,*,#151,.F.);
#188=ORIENTED_EDGE('',*,*,#152,.F.);
#189=ORIENTED_EDGE('',*,*,#148,.T.);
#190=ORIENTED_EDGE('',*,*,#153,.T.);
#191=ORIENTED_EDGE('',*,*,#154,.T.);
#192=ORIENTED_EDGE('',*,*,#155,.F.);
#193=ORIENTED_EDGE('',*,*,#154,.F.);
#194=ORIENTED_EDGE('',*,*,#156,.T.);
#195=ORIENTED_EDGE('',*,*,#136,.F.);
#196=ORIENTED_EDGE('',*,*,#157,.F.);
#197=ORIENTED_EDGE('',*,*,#151,.T.);
#198=ORIENTED_EDGE('',*,*,#135,.T.);
#199=ORIENTED_EDGE('',*,*,#141,.T.);
#200=ORIENTED_EDGE('',*,*,#144,.T.);
#201=ORIENTED_EDGE('',*,*,#149,.T.);
#202=ORIENTED_EDGE('',*,*,#152,.T.);
#203=ORIENTED_EDGE('',*,*,#157,.T.);
#204=ORIENTED_EDGE('',*,*,#153,.F.);
#205=ORIENTED_EDGE('',*,*,#133,.F.);
#206=ORIENTED_EDGE('',*,*,#156,.F.);
#207=ORIENTED_EDGE('',*,*,#150,.F.);
#208=ORIENTED_EDGE('',*,*,#147,.F.);
#209=ORIENTED_EDGE('',*,*,#142,.F.);
#210=ORIENTED_EDGE('',*,*,#139,.F.);
#211=ORIENTED_EDGE('',*,*,#155,.T.);
#212=ORIENTED_EDGE('',*,*,#158,.T.);
#213=ORIENTED_EDGE('',*,*,#159,.T.);
#214=ORIENTED_EDGE('',*,*,#160,.T.);
#215=ORIENTED_EDGE('',*,*,#146,.F.);
#216=ORIENTED_EDGE('',*,*,#160,.F.);
#217=ORIENTED_EDGE('',*,*,#158,.F.);
#218=ORIENTED_EDGE('',*,*,#159,.F.);
#219=ORIENTED_EDGE('',*,*,#161,.T.);
#220=ORIENTED_EDGE('',*,*,#138,.T.);
#221=ORIENTED_EDGE('',*,*,#161,.F.);
#222=ORIENTED_EDGE('',*,*,#162,.T.);
#223=ORIENTED_EDGE('',*,*,#163,.T.);
#224=ORIENTED_EDGE('',*,*,#164,.T.);
#225=ORIENTED_EDGE('',*,*,#145,.F.);
#226=ORIENTED_EDGE('',*,*,#164,.F.);
#227=ORIENTED_EDGE('',*,*,#162,.F.);
#228=ORIENTED_EDGE('',*,*,#163,.F.);
#229=ORIENTED_EDGE('',*,*,#165,.T.);
#230=ORIENTED_EDGE('',*,*,#137,.T.);
#231=ORIENTED_EDGE('',*,*,#165,.F.);
#232=PLANE('',#270);
#233=PLANE('',#276);
#234=PLANE('',#282);
#235=PLANE('',#289);
#236=PLANE('',#290);
#237=ADVANCED_FACE('',(#45,#23,#24),#232,.F.);
#238=ADVANCED_FACE('',(#46),#17,.T.);
#239=ADVANCED_FACE('',(#47,#25,#26),#233,.F.);
#240=ADVANCED_FACE('',(#48),#18,.T.);
#241=ADVANCED_FACE('',(#49),#234,.F.);
#242=ADVANCED_FACE('',(#50),#19,.F.);
#243=ADVANCED_FACE('',(#51),#20,.T.);
#244=ADVANCED_FACE('',(#52,#27),#235,.T.);
#245=ADVANCED_FACE('',(#53,#28),#236,.F.);
#246=ADVANCED_FACE('',(#54),#15,.F.);
#247=ADVANCED_FACE('',(#55),#21,.F.);
#248=ADVANCED_FACE('',(#56),#16,.F.);
#249=ADVANCED_FACE('',(#57),#22,.F.);
#250=CLOSED_SHELL('',(#237,#238,#239,#240,#241,#242,#243,#244,#245,#246,
#247,#248,#249));
#251=DERIVED_UNIT_ELEMENT(#253,1.);
#252=DERIVED_UNIT_ELEMENT(#450,-3.);
#253=(
MASS_UNIT()
NAMED_UNIT(*)
SI_UNIT($,.GRAM.)
);
#254=DERIVED_UNIT((#251,#252));
#255=MEASURE_REPRESENTATION_ITEM('density measure',
POSITIVE_RATIO_MEASURE(1.),#254);
#256=PROPERTY_DEFINITION_REPRESENTATION(#261,#258);
#257=PROPERTY_DEFINITION_REPRESENTATION(#262,#259);
#258=REPRESENTATION('material name',(#260),#447);
#259=REPRESENTATION('density',(#255),#447);
#260=DESCRIPTIVE_REPRESENTATION_ITEM('Generic','Generic');
#261=PROPERTY_DEFINITION('material property','material name',#457);
#262=PROPERTY_DEFINITION('material property','density of part',#457);
#263=DATE_TIME_ROLE('creation_date');
#264=APPLIED_DATE_AND_TIME_ASSIGNMENT(#265,#263,(#457));
#265=DATE_AND_TIME(#266,#267);
#266=CALENDAR_DATE(2022,13,12);
#267=LOCAL_TIME(13,39,19.,#268);
#268=COORDINATED_UNIVERSAL_TIME_OFFSET(0,0,.BEHIND.);
#269=AXIS2_PLACEMENT_3D('placement',#376,#299,#300);
#270=AXIS2_PLACEMENT_3D('',#377,#301,#302);
#271=AXIS2_PLACEMENT_3D('',#387,#307,#308);
#272=AXIS2_PLACEMENT_3D('',#389,#309,#310);
#273=AXIS2_PLACEMENT_3D('',#390,#311,#312);
#274=AXIS2_PLACEMENT_3D('',#392,#313,#314);
#275=AXIS2_PLACEMENT_3D('',#395,#316,#317);
#276=AXIS2_PLACEMENT_3D('',#396,#318,#319);
#277=AXIS2_PLACEMENT_3D('',#403,#323,#324);
#278=AXIS2_PLACEMENT_3D('',#405,#325,#326);
#279=AXIS2_PLACEMENT_3D('',#406,#327,#328);
#280=AXIS2_PLACEMENT_3D('',#408,#329,#330);
#281=AXIS2_PLACEMENT_3D('',#411,#332,#333);
#282=AXIS2_PLACEMENT_3D('',#412,#334,#335);
#283=AXIS2_PLACEMENT_3D('',#418,#339,#340);
#284=AXIS2_PLACEMENT_3D('',#420,#341,#342);
#285=AXIS2_PLACEMENT_3D('',#423,#344,#345);
#286=AXIS2_PLACEMENT_3D('',#424,#346,#347);
#287=AXIS2_PLACEMENT_3D('',#425,#348,#349);
#288=AXIS2_PLACEMENT_3D('',#426,#350,#351);
#289=AXIS2_PLACEMENT_3D('',#427,#352,#353);
#290=AXIS2_PLACEMENT_3D('',#428,#354,#355);
#291=AXIS2_PLACEMENT_3D('',#429,#356,#357);
#292=AXIS2_PLACEMENT_3D('',#432,#358,#359);
#293=AXIS2_PLACEMENT_3D('',#433,#360,#361);
#294=AXIS2_PLACEMENT_3D('',#435,#363,#364);
#295=AXIS2_PLACEMENT_3D('',#437,#366,#367);
#296=AXIS2_PLACEMENT_3D('',#440,#368,#369);
#297=AXIS2_PLACEMENT_3D('',#441,#370,#371);
#298=AXIS2_PLACEMENT_3D('',#443,#373,#374);
#299=DIRECTION('axis',(0.,0.,1.));
#300=DIRECTION('refdir',(1.,0.,0.));
#301=DIRECTION('center_axis',(0.,0.,1.));
#302=DIRECTION('ref_axis',(1.,0.,0.));
#303=DIRECTION('',(-1.,0.,0.));
#304=DIRECTION('',(0.,-1.,0.));
#305=DIRECTION('',(-1.,0.,0.));
#306=DIRECTION('',(0.,-1.,0.));
#307=DIRECTION('center_axis',(0.,0.,-1.));
#308=DIRECTION('ref_axis',(-1.,0.,0.));
#309=DIRECTION('center_axis',(0.,0.,-1.));
#310=DIRECTION('ref_axis',(-1.,0.,0.));
#311=DIRECTION('center_axis',(0.,-1.,0.));
#312=DIRECTION('ref_axis',(-1.,0.,1.83697019872103E-16));
#313=DIRECTION('center_axis',(0.,1.,0.));
#314=DIRECTION('ref_axis',(1.,0.,0.));
#315=DIRECTION('',(0.,-1.,0.));
#316=DIRECTION('center_axis',(0.,1.,0.));
#317=DIRECTION('ref_axis',(1.,0.,0.));
#318=DIRECTION('center_axis',(0.,0.,-1.));
#319=DIRECTION('ref_axis',(-1.,0.,0.));
#320=DIRECTION('',(1.,0.,0.));
#321=DIRECTION('',(0.,-1.,0.));
#322=DIRECTION('',(1.,0.,0.));
#323=DIRECTION('center_axis',(0.,0.,-1.));
#324=DIRECTION('ref_axis',(-1.,0.,0.));
#325=DIRECTION('center_axis',(0.,0.,-1.));
#326=DIRECTION('ref_axis',(-1.,0.,0.));
#327=DIRECTION('center_axis',(0.,-1.,0.));
#328=DIRECTION('ref_axis',(0.,0.,-1.));
#329=DIRECTION('center_axis',(0.,1.,0.));
#330=DIRECTION('ref_axis',(1.,0.,0.));
#331=DIRECTION('',(0.,-1.,0.));
#332=DIRECTION('center_axis',(0.,1.,0.));
#333=DIRECTION('ref_axis',(1.,0.,0.));
#334=DIRECTION('center_axis',(-1.,0.,0.));
#335=DIRECTION('ref_axis',(0.,0.,1.));
#336=DIRECTION('',(0.,0.,-1.));
#337=DIRECTION('',(0.,-1.,0.));
#338=DIRECTION('',(0.,0.,-1.));
#339=DIRECTION('center_axis',(0.,-1.,0.));
#340=DIRECTION('ref_axis',(0.,0.,-1.));
#341=DIRECTION('center_axis',(0.,1.,0.));
#342=DIRECTION('ref_axis',(1.,0.,0.));
#343=DIRECTION('',(0.,-1.,0.));
#344=DIRECTION('center_axis',(0.,1.,0.));
#345=DIRECTION('ref_axis',(1.,0.,0.));
#346=DIRECTION('center_axis',(0.,-1.,0.));
#347=DIRECTION('ref_axis',(0.,0.,-1.));
#348=DIRECTION('center_axis',(0.,1.,0.));
#349=DIRECTION('ref_axis',(1.,0.,0.));
#350=DIRECTION('center_axis',(0.,1.,0.));
#351=DIRECTION('ref_axis',(1.,0.,0.));
#352=DIRECTION('center_axis',(0.,1.,0.));
#353=DIRECTION('ref_axis',(0.,0.,1.));
#354=DIRECTION('center_axis',(0.,1.,0.));
#355=DIRECTION('ref_axis',(0.,0.,1.));
#356=DIRECTION('center_axis',(0.,0.,1.));
#357=DIRECTION('ref_axis',(1.,0.,0.));
#358=DIRECTION('center_axis',(0.,0.,-1.));
#359=DIRECTION('ref_axis',(-1.,0.,0.));
#360=DIRECTION('center_axis',(0.,0.,-1.));
#361=DIRECTION('ref_axis',(-1.,0.,0.));
#362=DIRECTION('',(-0.707106781186547,-8.65956056235493E-17,0.707106781186548));
#363=DIRECTION('center_axis',(0.,0.,-1.));
#364=DIRECTION('ref_axis',(-1.,0.,0.));
#365=DIRECTION('',(0.,0.,-1.));
#366=DIRECTION('center_axis',(0.,0.,1.));
#367=DIRECTION('ref_axis',(1.,0.,0.));
#368=DIRECTION('center_axis',(0.,0.,-1.));
#369=DIRECTION('ref_axis',(-1.,0.,0.));
#370=DIRECTION('center_axis',(0.,0.,-1.));
#371=DIRECTION('ref_axis',(-1.,0.,0.));
#372=DIRECTION('',(-0.707106781186548,-8.65956056235494E-17,0.707106781186547));
#373=DIRECTION('center_axis',(0.,0.,-1.));
#374=DIRECTION('ref_axis',(-1.,0.,0.));
#375=DIRECTION('',(0.,0.,-1.));
#376=CARTESIAN_POINT('',(0.,0.,0.));
#377=CARTESIAN_POINT('Origin',(46.7,25.,-2.));
#378=CARTESIAN_POINT('',(46.7,-25.,-2.));
#379=CARTESIAN_POINT('',(4.58257569495584,-25.,-2.));
#380=CARTESIAN_POINT('',(46.7,-25.,-2.));
#381=CARTESIAN_POINT('',(4.58257569495584,25.,-2.));
#382=CARTESIAN_POINT('',(4.58257569495584,25.,-2.));
#383=CARTESIAN_POINT('',(46.7,25.,-2.));
#384=CARTESIAN_POINT('',(46.7,25.,-2.));
#385=CARTESIAN_POINT('',(46.7,25.,-2.));
#386=CARTESIAN_POINT('',(30.2,-15.,-2.));
#387=CARTESIAN_POINT('Origin',(27.,-15.,-2.));
#388=CARTESIAN_POINT('',(30.2,15.,-2.));
#389=CARTESIAN_POINT('Origin',(27.,15.,-2.));
#390=CARTESIAN_POINT('Origin',(1.89735380184963E-16,25.,0.));
#391=CARTESIAN_POINT('',(4.58257569495584,-25.,2.));
#392=CARTESIAN_POINT('Origin',(1.89735380184963E-16,-25.,0.));
#393=CARTESIAN_POINT('',(4.58257569495584,25.,2.));
#394=CARTESIAN_POINT('',(4.58257569495584,25.,2.));
#395=CARTESIAN_POINT('Origin',(1.89735380184963E-16,25.,0.));
#396=CARTESIAN_POINT('Origin',(4.58257569495584,25.,2.));
#397=CARTESIAN_POINT('',(45.,-25.,2.));
#398=CARTESIAN_POINT('',(4.58257569495584,-25.,2.));
#399=CARTESIAN_POINT('',(45.,25.,2.));
#400=CARTESIAN_POINT('',(45.,25.,2.));
#401=CARTESIAN_POINT('',(4.58257569495584,25.,2.));
#402=CARTESIAN_POINT('',(20.8,-15.,2.));
#403=CARTESIAN_POINT('Origin',(27.,-15.,2.));
#404=CARTESIAN_POINT('',(20.8,15.,2.));
#405=CARTESIAN_POINT('Origin',(27.,15.,2.));
#406=CARTESIAN_POINT('Origin',(45.,25.,1.95156391047391E-15));
#407=CARTESIAN_POINT('',(47.,-25.,-1.60114976832659E-15));
#408=CARTESIAN_POINT('Origin',(45.,-25.,1.95156391047391E-15));
#409=CARTESIAN_POINT('',(47.,25.,-1.60114976832659E-15));
#410=CARTESIAN_POINT('',(47.,25.,-1.60114976832659E-15));
#411=CARTESIAN_POINT('Origin',(45.,25.,1.95156391047391E-15));
#412=CARTESIAN_POINT('Origin',(47.,25.,0.));
#413=CARTESIAN_POINT('',(47.,-25.,-1.7));
#414=CARTESIAN_POINT('',(47.,-25.,0.));
#415=CARTESIAN_POINT('',(47.,25.,-1.7));
#416=CARTESIAN_POINT('',(47.,25.,-1.7));
#417=CARTESIAN_POINT('',(47.,25.,0.));
#418=CARTESIAN_POINT('Origin',(0.,25.,0.));
#419=CARTESIAN_POINT('',(-3.73517273739943E-16,25.,3.05));
#420=CARTESIAN_POINT('Origin',(0.,25.,0.));
#421=CARTESIAN_POINT('',(-3.73517273739943E-16,-25.,3.05));
#422=CARTESIAN_POINT('',(-3.73517273739943E-16,25.,3.05));
#423=CARTESIAN_POINT('Origin',(0.,-25.,0.));
#424=CARTESIAN_POINT('Origin',(46.7,25.,-1.7));
#425=CARTESIAN_POINT('Origin',(46.7,-25.,-1.7));
#426=CARTESIAN_POINT('Origin',(46.7,25.,-1.7));
#427=CARTESIAN_POINT('Origin',(1.89735380184963E-16,25.,0.));
#428=CARTESIAN_POINT('Origin',(1.89735380184963E-16,-25.,0.));
#429=CARTESIAN_POINT('Origin',(27.,15.,2.));
#430=CARTESIAN_POINT('',(23.8,15.,-1.));
#431=CARTESIAN_POINT('',(30.2,15.,-1.));
#432=CARTESIAN_POINT('Origin',(27.,15.,-1.));
#433=CARTESIAN_POINT('Origin',(27.,15.,-1.));
#434=CARTESIAN_POINT('',(20.8,15.,2.));
#435=CARTESIAN_POINT('Origin',(27.,15.,-2.));
#436=CARTESIAN_POINT('',(30.2,15.,-2.));
#437=CARTESIAN_POINT('Origin',(27.,-15.,2.));
#438=CARTESIAN_POINT('',(23.8,-15.,-1.));
#439=CARTESIAN_POINT('',(30.2,-15.,-1.));
#440=CARTESIAN_POINT('Origin',(27.,-15.,-1.));
#441=CARTESIAN_POINT('Origin',(27.,-15.,-1.));
#442=CARTESIAN_POINT('',(20.8,-15.,2.));
#443=CARTESIAN_POINT('Origin',(27.,-15.,-2.));
#444=CARTESIAN_POINT('',(30.2,-15.,-2.));
#445=UNCERTAINTY_MEASURE_WITH_UNIT(LENGTH_MEASURE(0.01),#449,
'DISTANCE_ACCURACY_VALUE',
'Maximum model space distance between geometric entities at asserted c
onnectivities');
#446=UNCERTAINTY_MEASURE_WITH_UNIT(LENGTH_MEASURE(0.01),#449,
'DISTANCE_ACCURACY_VALUE',
'Maximum model space distance between geometric entities at asserted c
onnectivities');
#447=(
GEOMETRIC_REPRESENTATION_CONTEXT(3)
GLOBAL_UNCERTAINTY_ASSIGNED_CONTEXT((#445))
GLOBAL_UNIT_ASSIGNED_CONTEXT((#449,#451,#452))
REPRESENTATION_CONTEXT('','3D')
);
#448=(
GEOMETRIC_REPRESENTATION_CONTEXT(3)
GLOBAL_UNCERTAINTY_ASSIGNED_CONTEXT((#446))
GLOBAL_UNIT_ASSIGNED_CONTEXT((#449,#451,#452))
REPRESENTATION_CONTEXT('','3D')
);
#449=(
LENGTH_UNIT()
NAMED_UNIT(*)
SI_UNIT(.MILLI.,.METRE.)
);
#450=(
LENGTH_UNIT()
NAMED_UNIT(*)
SI_UNIT(.CENTI.,.METRE.)
);
#451=(
NAMED_UNIT(*)
PLANE_ANGLE_UNIT()
SI_UNIT($,.RADIAN.)
);
#452=(
NAMED_UNIT(*)
SI_UNIT($,.STERADIAN.)
SOLID_ANGLE_UNIT()
);
#453=SHAPE_DEFINITION_REPRESENTATION(#454,#455);
#454=PRODUCT_DEFINITION_SHAPE('',$,#457);
#455=SHAPE_REPRESENTATION('',(#269),#447);
#456=PRODUCT_DEFINITION_CONTEXT('part definition',#461,'design');
#457=PRODUCT_DEFINITION('1008702','1008702',#458,#456);
#458=PRODUCT_DEFINITION_FORMATION('',$,#463);
#459=PRODUCT_RELATED_PRODUCT_CATEGORY('1008702','1008702',(#463));
#460=APPLICATION_PROTOCOL_DEFINITION('international standard',
'automotive_design',2009,#461);
#461=APPLICATION_CONTEXT(
'Core Data for Automotive Mechanical Design Process');
#462=PRODUCT_CONTEXT('part definition',#461,'mechanical');
#463=PRODUCT('1008702','1008702','STEP AP214',(#462));
#464=PRESENTATION_STYLE_ASSIGNMENT((#466));
#465=PRESENTATION_STYLE_ASSIGNMENT((#467));
#466=SURFACE_STYLE_USAGE(.BOTH.,#472);
#467=SURFACE_STYLE_USAGE(.BOTH.,#473);
#468=SURFACE_STYLE_RENDERING_WITH_PROPERTIES($,#480,(#470));
#469=SURFACE_STYLE_RENDERING_WITH_PROPERTIES($,#481,(#471));
#470=SURFACE_STYLE_TRANSPARENT(0.);
#471=SURFACE_STYLE_TRANSPARENT(0.);
#472=SURFACE_SIDE_STYLE('',(#474,#468));
#473=SURFACE_SIDE_STYLE('',(#475,#469));
#474=SURFACE_STYLE_FILL_AREA(#476);
#475=SURFACE_STYLE_FILL_AREA(#477);
#476=FILL_AREA_STYLE('',(#478));
#477=FILL_AREA_STYLE('',(#479));
#478=FILL_AREA_STYLE_COLOUR('',#480);
#479=FILL_AREA_STYLE_COLOUR('',#481);
#480=COLOUR_RGB('',0.749019607843137,0.749019607843137,0.749019607843137);
#481=COLOUR_RGB('',0.792156862745098,0.792156862745098,0.792156862745098);
ENDSEC;
END-ISO-10303-21;
