ISO-10303-21;
HEADER;
/* Generated by software containing ST-Developer
 * from STEP Tools, Inc. (www.steptools.com) 
 */
/* OPTION: using custom renumber hook */

FILE_DESCRIPTION(
/* description */ ('STEP AP214'),
/* implementation_level */ '2;1');

FILE_NAME(
/* name */ '095AI40',
/* time_stamp */ '2022-12-13T13:39:05+01:00',
/* author */ ('License CC BY-ND 4.0'),
/* organization */ ('CADENAS'),
/* preprocessor_version */ 'ST-DEVELOPER v18.102',
/* originating_system */ 'PARTsolutions',
/* authorisation */ '  ');

FILE_SCHEMA (('AUTOMOTIVE_DESIGN {1 0 10303 214 3 1 1}'));
ENDSEC;

DATA;
#10=PROPERTY_DEFINITION_REPRESENTATION(#14,#12);
#11=PROPERTY_DEFINITION_REPRESENTATION(#15,#13);
#12=REPRESENTATION('',(#16),#399);
#13=REPRESENTATION('',(#17),#399);
#14=PROPERTY_DEFINITION('pmi validation property','',#404);
#15=PROPERTY_DEFINITION('pmi validation property','',#404);
#16=VALUE_REPRESENTATION_ITEM('number of annotations',COUNT_MEASURE(0.));
#17=VALUE_REPRESENTATION_ITEM('number of views',COUNT_MEASURE(0.));
#18=SHAPE_REPRESENTATION_RELATIONSHIP('','',#241,#19);
#19=ADVANCED_BREP_SHAPE_REPRESENTATION('',(#239),#399);
#20=CONICAL_SURFACE('',#264,6.2,0.785398163397448);
#21=CONICAL_SURFACE('',#267,6.2,0.785398163397449);
#22=CYLINDRICAL_SURFACE('',#246,5.);
#23=CYLINDRICAL_SURFACE('',#252,2.00000000000001);
#24=CYLINDRICAL_SURFACE('',#256,3.05);
#25=CYLINDRICAL_SURFACE('',#259,0.299999999999995);
#26=CYLINDRICAL_SURFACE('',#266,3.2);
#27=CYLINDRICAL_SURFACE('',#269,3.2);
#28=LINE('',#344,#40);
#29=LINE('',#347,#41);
#30=LINE('',#349,#42);
#31=LINE('',#351,#43);
#32=LINE('',#355,#44);
#33=LINE('',#363,#45);
#34=LINE('',#365,#46);
#35=LINE('',#367,#47);
#36=LINE('',#371,#48);
#37=LINE('',#375,#49);
#38=LINE('',#377,#50);
#39=LINE('',#379,#51);
#40=VECTOR('',#278,1000.);
#41=VECTOR('',#279,1000.);
#42=VECTOR('',#280,1000.);
#43=VECTOR('',#281,1000.);
#44=VECTOR('',#286,1000.);
#45=VECTOR('',#295,1000.);
#46=VECTOR('',#296,1000.);
#47=VECTOR('',#297,1000.);
#48=VECTOR('',#302,1000.);
#49=VECTOR('',#307,1000.);
#50=VECTOR('',#308,1000.);
#51=VECTOR('',#309,1000.);
#52=ORIENTED_EDGE('',*,*,#104,.F.);
#53=ORIENTED_EDGE('',*,*,#105,.F.);
#54=ORIENTED_EDGE('',*,*,#106,.T.);
#55=ORIENTED_EDGE('',*,*,#107,.F.);
#56=ORIENTED_EDGE('',*,*,#108,.F.);
#57=ORIENTED_EDGE('',*,*,#109,.T.);
#58=ORIENTED_EDGE('',*,*,#110,.T.);
#59=ORIENTED_EDGE('',*,*,#111,.F.);
#60=ORIENTED_EDGE('',*,*,#112,.F.);
#61=ORIENTED_EDGE('',*,*,#107,.T.);
#62=ORIENTED_EDGE('',*,*,#113,.T.);
#63=ORIENTED_EDGE('',*,*,#114,.T.);
#64=ORIENTED_EDGE('',*,*,#115,.T.);
#65=ORIENTED_EDGE('',*,*,#116,.F.);
#66=ORIENTED_EDGE('',*,*,#117,.F.);
#67=ORIENTED_EDGE('',*,*,#111,.T.);
#68=ORIENTED_EDGE('',*,*,#118,.T.);
#69=ORIENTED_EDGE('',*,*,#119,.F.);
#70=ORIENTED_EDGE('',*,*,#120,.F.);
#71=ORIENTED_EDGE('',*,*,#116,.T.);
#72=ORIENTED_EDGE('',*,*,#121,.T.);
#73=ORIENTED_EDGE('',*,*,#122,.F.);
#74=ORIENTED_EDGE('',*,*,#123,.F.);
#75=ORIENTED_EDGE('',*,*,#119,.T.);
#76=ORIENTED_EDGE('',*,*,#124,.T.);
#77=ORIENTED_EDGE('',*,*,#125,.F.);
#78=ORIENTED_EDGE('',*,*,#126,.T.);
#79=ORIENTED_EDGE('',*,*,#109,.F.);
#80=ORIENTED_EDGE('',*,*,#127,.F.);
#81=ORIENTED_EDGE('',*,*,#122,.T.);
#82=ORIENTED_EDGE('',*,*,#124,.F.);
#83=ORIENTED_EDGE('',*,*,#108,.T.);
#84=ORIENTED_EDGE('',*,*,#112,.T.);
#85=ORIENTED_EDGE('',*,*,#117,.T.);
#86=ORIENTED_EDGE('',*,*,#120,.T.);
#87=ORIENTED_EDGE('',*,*,#123,.T.);
#88=ORIENTED_EDGE('',*,*,#127,.T.);
#89=ORIENTED_EDGE('',*,*,#125,.T.);
#90=ORIENTED_EDGE('',*,*,#106,.F.);
#91=ORIENTED_EDGE('',*,*,#126,.F.);
#92=ORIENTED_EDGE('',*,*,#121,.F.);
#93=ORIENTED_EDGE('',*,*,#118,.F.);
#94=ORIENTED_EDGE('',*,*,#115,.F.);
#95=ORIENTED_EDGE('',*,*,#110,.F.);
#96=ORIENTED_EDGE('',*,*,#128,.T.);
#97=ORIENTED_EDGE('',*,*,#114,.F.);
#98=ORIENTED_EDGE('',*,*,#105,.T.);
#99=ORIENTED_EDGE('',*,*,#128,.F.);
#100=ORIENTED_EDGE('',*,*,#129,.T.);
#101=ORIENTED_EDGE('',*,*,#113,.F.);
#102=ORIENTED_EDGE('',*,*,#104,.T.);
#103=ORIENTED_EDGE('',*,*,#129,.F.);
#104=EDGE_CURVE('',#130,#130,#150,.T.);
#105=EDGE_CURVE('',#131,#131,#151,.T.);
#106=EDGE_CURVE('',#132,#133,#28,.T.);
#107=EDGE_CURVE('',#134,#133,#29,.T.);
#108=EDGE_CURVE('',#135,#134,#30,.T.);
#109=EDGE_CURVE('',#135,#132,#31,.T.);
#110=EDGE_CURVE('',#133,#136,#152,.T.);
#111=EDGE_CURVE('',#137,#136,#32,.T.);
#112=EDGE_CURVE('',#134,#137,#153,.T.);
#113=EDGE_CURVE('',#138,#138,#154,.T.);
#114=EDGE_CURVE('',#139,#139,#155,.T.);
#115=EDGE_CURVE('',#136,#140,#33,.T.);
#116=EDGE_CURVE('',#141,#140,#34,.T.);
#117=EDGE_CURVE('',#137,#141,#35,.T.);
#118=EDGE_CURVE('',#140,#142,#156,.T.);
#119=EDGE_CURVE('',#143,#142,#36,.T.);
#120=EDGE_CURVE('',#141,#143,#157,.T.);
#121=EDGE_CURVE('',#142,#144,#37,.T.);
#122=EDGE_CURVE('',#145,#144,#38,.T.);
#123=EDGE_CURVE('',#143,#145,#39,.T.);
#124=EDGE_CURVE('',#146,#146,#158,.T.);
#125=EDGE_CURVE('',#147,#147,#159,.T.);
#126=EDGE_CURVE('',#144,#132,#160,.T.);
#127=EDGE_CURVE('',#145,#135,#161,.T.);
#128=EDGE_CURVE('',#148,#148,#162,.T.);
#129=EDGE_CURVE('',#149,#149,#163,.T.);
#130=VERTEX_POINT('',#341);
#131=VERTEX_POINT('',#343);
#132=VERTEX_POINT('',#345);
#133=VERTEX_POINT('',#346);
#134=VERTEX_POINT('',#348);
#135=VERTEX_POINT('',#350);
#136=VERTEX_POINT('',#354);
#137=VERTEX_POINT('',#356);
#138=VERTEX_POINT('',#360);
#139=VERTEX_POINT('',#362);
#140=VERTEX_POINT('',#364);
#141=VERTEX_POINT('',#366);
#142=VERTEX_POINT('',#370);
#143=VERTEX_POINT('',#372);
#144=VERTEX_POINT('',#376);
#145=VERTEX_POINT('',#378);
#146=VERTEX_POINT('',#382);
#147=VERTEX_POINT('',#384);
#148=VERTEX_POINT('',#392);
#149=VERTEX_POINT('',#396);
#150=CIRCLE('',#244,3.2);
#151=CIRCLE('',#245,3.2);
#152=CIRCLE('',#247,5.);
#153=CIRCLE('',#248,5.);
#154=CIRCLE('',#250,6.2);
#155=CIRCLE('',#251,6.2);
#156=CIRCLE('',#253,2.00000000000001);
#157=CIRCLE('',#254,2.00000000000001);
#158=CIRCLE('',#257,3.05);
#159=CIRCLE('',#258,3.05);
#160=CIRCLE('',#260,0.299999999999995);
#161=CIRCLE('',#261,0.299999999999995);
#162=CIRCLE('',#265,3.2);
#163=CIRCLE('',#268,3.2);
#164=EDGE_LOOP('',(#52));
#165=EDGE_LOOP('',(#53));
#166=EDGE_LOOP('',(#54,#55,#56,#57));
#167=EDGE_LOOP('',(#58,#59,#60,#61));
#168=EDGE_LOOP('',(#62));
#169=EDGE_LOOP('',(#63));
#170=EDGE_LOOP('',(#64,#65,#66,#67));
#171=EDGE_LOOP('',(#68,#69,#70,#71));
#172=EDGE_LOOP('',(#72,#73,#74,#75));
#173=EDGE_LOOP('',(#76));
#174=EDGE_LOOP('',(#77));
#175=EDGE_LOOP('',(#78,#79,#80,#81));
#176=EDGE_LOOP('',(#82));
#177=EDGE_LOOP('',(#83,#84,#85,#86,#87,#88));
#178=EDGE_LOOP('',(#89));
#179=EDGE_LOOP('',(#90,#91,#92,#93,#94,#95));
#180=EDGE_LOOP('',(#96));
#181=EDGE_LOOP('',(#97));
#182=EDGE_LOOP('',(#98));
#183=EDGE_LOOP('',(#99));
#184=EDGE_LOOP('',(#100));
#185=EDGE_LOOP('',(#101));
#186=EDGE_LOOP('',(#102));
#187=EDGE_LOOP('',(#103));
#188=FACE_BOUND('',#164,.T.);
#189=FACE_BOUND('',#165,.T.);
#190=FACE_BOUND('',#166,.T.);
#191=FACE_BOUND('',#167,.T.);
#192=FACE_BOUND('',#168,.T.);
#193=FACE_BOUND('',#169,.T.);
#194=FACE_BOUND('',#170,.T.);
#195=FACE_BOUND('',#171,.T.);
#196=FACE_BOUND('',#172,.T.);
#197=FACE_BOUND('',#173,.T.);
#198=FACE_BOUND('',#174,.T.);
#199=FACE_BOUND('',#175,.T.);
#200=FACE_BOUND('',#176,.T.);
#201=FACE_BOUND('',#177,.T.);
#202=FACE_BOUND('',#178,.T.);
#203=FACE_BOUND('',#179,.T.);
#204=FACE_BOUND('',#180,.T.);
#205=FACE_BOUND('',#181,.T.);
#206=FACE_BOUND('',#182,.T.);
#207=FACE_BOUND('',#183,.T.);
#208=FACE_BOUND('',#184,.T.);
#209=FACE_BOUND('',#185,.T.);
#210=FACE_BOUND('',#186,.T.);
#211=FACE_BOUND('',#187,.T.);
#212=PLANE('',#243);
#213=PLANE('',#249);
#214=PLANE('',#255);
#215=PLANE('',#262);
#216=PLANE('',#263);
#217=ADVANCED_FACE('',(#188,#189,#190),#212,.F.);
#218=ADVANCED_FACE('',(#191),#22,.T.);
#219=ADVANCED_FACE('',(#192,#193,#194),#213,.F.);
#220=ADVANCED_FACE('',(#195),#23,.T.);
#221=ADVANCED_FACE('',(#196),#214,.F.);
#222=ADVANCED_FACE('',(#197,#198),#24,.F.);
#223=ADVANCED_FACE('',(#199),#25,.T.);
#224=ADVANCED_FACE('',(#200,#201),#215,.T.);
#225=ADVANCED_FACE('',(#202,#203),#216,.F.);
#226=ADVANCED_FACE('',(#204,#205),#20,.F.);
#227=ADVANCED_FACE('',(#206,#207),#26,.F.);
#228=ADVANCED_FACE('',(#208,#209),#21,.F.);
#229=ADVANCED_FACE('',(#210,#211),#27,.F.);
#230=CLOSED_SHELL('',(#217,#218,#219,#220,#221,#222,#223,#224,#225,#226,
#227,#228,#229));
#231=STYLED_ITEM('',(#232),#239);
#232=PRESENTATION_STYLE_ASSIGNMENT((#233));
#233=SURFACE_STYLE_USAGE(.BOTH.,#234);
#234=SURFACE_SIDE_STYLE('',(#235));
#235=SURFACE_STYLE_FILL_AREA(#236);
#236=FILL_AREA_STYLE('',(#237));
#237=FILL_AREA_STYLE_COLOUR('',#238);
#238=COLOUR_RGB('',0.792156875133514,0.792156875133514,0.792156875133514);
#239=MANIFOLD_SOLID_BREP('095AI40',#230);
#240=SHAPE_DEFINITION_REPRESENTATION(#404,#241);
#241=SHAPE_REPRESENTATION('095AI40',(#242),#399);
#242=AXIS2_PLACEMENT_3D('',#338,#270,#271);
#243=AXIS2_PLACEMENT_3D('',#339,#272,#273);
#244=AXIS2_PLACEMENT_3D('',#340,#274,#275);
#245=AXIS2_PLACEMENT_3D('',#342,#276,#277);
#246=AXIS2_PLACEMENT_3D('',#352,#282,#283);
#247=AXIS2_PLACEMENT_3D('',#353,#284,#285);
#248=AXIS2_PLACEMENT_3D('',#357,#287,#288);
#249=AXIS2_PLACEMENT_3D('',#358,#289,#290);
#250=AXIS2_PLACEMENT_3D('',#359,#291,#292);
#251=AXIS2_PLACEMENT_3D('',#361,#293,#294);
#252=AXIS2_PLACEMENT_3D('',#368,#298,#299);
#253=AXIS2_PLACEMENT_3D('',#369,#300,#301);
#254=AXIS2_PLACEMENT_3D('',#373,#303,#304);
#255=AXIS2_PLACEMENT_3D('',#374,#305,#306);
#256=AXIS2_PLACEMENT_3D('',#380,#310,#311);
#257=AXIS2_PLACEMENT_3D('',#381,#312,#313);
#258=AXIS2_PLACEMENT_3D('',#383,#314,#315);
#259=AXIS2_PLACEMENT_3D('',#385,#316,#317);
#260=AXIS2_PLACEMENT_3D('',#386,#318,#319);
#261=AXIS2_PLACEMENT_3D('',#387,#320,#321);
#262=AXIS2_PLACEMENT_3D('',#388,#322,#323);
#263=AXIS2_PLACEMENT_3D('',#389,#324,#325);
#264=AXIS2_PLACEMENT_3D('',#390,#326,#327);
#265=AXIS2_PLACEMENT_3D('',#391,#328,#329);
#266=AXIS2_PLACEMENT_3D('',#393,#330,#331);
#267=AXIS2_PLACEMENT_3D('',#394,#332,#333);
#268=AXIS2_PLACEMENT_3D('',#395,#334,#335);
#269=AXIS2_PLACEMENT_3D('',#397,#336,#337);
#270=DIRECTION('',(0.,0.,1.));
#271=DIRECTION('',(1.,0.,0.));
#272=DIRECTION('',(0.,0.,1.));
#273=DIRECTION('',(1.,0.,0.));
#274=DIRECTION('',(0.,0.,-1.));
#275=DIRECTION('',(-1.,0.,0.));
#276=DIRECTION('',(0.,0.,-1.));
#277=DIRECTION('',(-1.,0.,0.));
#278=DIRECTION('',(-1.,0.,0.));
#279=DIRECTION('',(0.,-1.,0.));
#280=DIRECTION('',(-1.,0.,0.));
#281=DIRECTION('',(0.,-1.,0.));
#282=DIRECTION('',(0.,-1.,0.));
#283=DIRECTION('',(0.,0.,-1.));
#284=DIRECTION('',(0.,1.,0.));
#285=DIRECTION('',(1.,0.,0.));
#286=DIRECTION('',(0.,-1.,0.));
#287=DIRECTION('',(0.,1.,0.));
#288=DIRECTION('',(1.,0.,0.));
#289=DIRECTION('',(0.,0.,-1.));
#290=DIRECTION('',(-1.,0.,0.));
#291=DIRECTION('',(0.,0.,-1.));
#292=DIRECTION('',(-1.,0.,0.));
#293=DIRECTION('',(0.,0.,-1.));
#294=DIRECTION('',(-1.,0.,0.));
#295=DIRECTION('',(1.,0.,0.));
#296=DIRECTION('',(0.,-1.,0.));
#297=DIRECTION('',(1.,0.,0.));
#298=DIRECTION('',(0.,-1.,0.));
#299=DIRECTION('',(0.,0.,-1.));
#300=DIRECTION('',(0.,1.,0.));
#301=DIRECTION('',(1.,0.,0.));
#302=DIRECTION('',(0.,-1.,0.));
#303=DIRECTION('',(0.,1.,0.));
#304=DIRECTION('',(1.,0.,0.));
#305=DIRECTION('',(-1.,0.,0.));
#306=DIRECTION('',(0.,0.,1.));
#307=DIRECTION('',(0.,0.,-1.));
#308=DIRECTION('',(0.,-1.,0.));
#309=DIRECTION('',(0.,0.,-1.));
#310=DIRECTION('',(0.,-1.,0.));
#311=DIRECTION('',(0.,0.,-1.));
#312=DIRECTION('',(0.,1.,0.));
#313=DIRECTION('',(1.,0.,0.));
#314=DIRECTION('',(0.,1.,0.));
#315=DIRECTION('',(1.,0.,0.));
#316=DIRECTION('',(0.,-1.,0.));
#317=DIRECTION('',(0.,0.,-1.));
#318=DIRECTION('',(0.,1.,0.));
#319=DIRECTION('',(1.,0.,0.));
#320=DIRECTION('',(0.,1.,0.));
#321=DIRECTION('',(1.,0.,0.));
#322=DIRECTION('',(0.,1.,0.));
#323=DIRECTION('',(0.,0.,1.));
#324=DIRECTION('',(0.,1.,0.));
#325=DIRECTION('',(0.,0.,1.));
#326=DIRECTION('',(0.,0.,1.));
#327=DIRECTION('',(1.,0.,0.));
#328=DIRECTION('',(0.,0.,-1.));
#329=DIRECTION('',(-1.,0.,0.));
#330=DIRECTION('',(0.,0.,-1.));
#331=DIRECTION('',(-1.,0.,0.));
#332=DIRECTION('',(0.,0.,1.));
#333=DIRECTION('',(1.,0.,0.));
#334=DIRECTION('',(0.,0.,-1.));
#335=DIRECTION('',(-1.,0.,0.));
#336=DIRECTION('',(0.,0.,-1.));
#337=DIRECTION('',(-1.,0.,0.));
#338=CARTESIAN_POINT('',(0.,0.,0.));
#339=CARTESIAN_POINT('',(41.7,25.,-2.));
#340=CARTESIAN_POINT('',(25.,-15.,-2.));
#341=CARTESIAN_POINT('',(21.8,-15.,-2.));
#342=CARTESIAN_POINT('',(25.,15.,-2.));
#343=CARTESIAN_POINT('',(21.8,15.,-2.));
#344=CARTESIAN_POINT('',(41.7,-25.,-2.));
#345=CARTESIAN_POINT('',(41.7,-25.,-2.));
#346=CARTESIAN_POINT('',(4.58257569495584,-25.,-2.));
#347=CARTESIAN_POINT('',(4.58257569495584,25.,-2.));
#348=CARTESIAN_POINT('',(4.58257569495584,25.,-2.));
#349=CARTESIAN_POINT('',(41.7,25.,-2.));
#350=CARTESIAN_POINT('',(41.7,25.,-2.));
#351=CARTESIAN_POINT('',(41.7,25.,-2.));
#352=CARTESIAN_POINT('',(6.50521303491303E-16,25.,2.16840434497101E-15));
#353=CARTESIAN_POINT('',(6.50521303491303E-16,-25.,2.16840434497101E-15));
#354=CARTESIAN_POINT('',(4.58257569495584,-25.,2.));
#355=CARTESIAN_POINT('',(4.58257569495584,25.,2.));
#356=CARTESIAN_POINT('',(4.58257569495584,25.,2.));
#357=CARTESIAN_POINT('',(6.50521303491303E-16,25.,2.16840434497101E-15));
#358=CARTESIAN_POINT('',(4.58257569495584,25.,2.));
#359=CARTESIAN_POINT('',(25.,-15.,2.));
#360=CARTESIAN_POINT('',(18.8,-15.,2.));
#361=CARTESIAN_POINT('',(25.,15.,2.));
#362=CARTESIAN_POINT('',(18.8,15.,2.));
#363=CARTESIAN_POINT('',(4.58257569495584,-25.,2.));
#364=CARTESIAN_POINT('',(40.,-25.,2.));
#365=CARTESIAN_POINT('',(40.,25.,2.));
#366=CARTESIAN_POINT('',(40.,25.,2.));
#367=CARTESIAN_POINT('',(4.58257569495584,25.,2.));
#368=CARTESIAN_POINT('',(40.,25.,-9.97465998686664E-15));
#369=CARTESIAN_POINT('',(40.,-25.,-9.97465998686664E-15));
#370=CARTESIAN_POINT('',(42.,-25.,-1.09287578986534E-15));
#371=CARTESIAN_POINT('',(42.,25.,-1.09287578986534E-15));
#372=CARTESIAN_POINT('',(42.,25.,-1.09287578986534E-15));
#373=CARTESIAN_POINT('',(40.,25.,-9.97465998686664E-15));
#374=CARTESIAN_POINT('',(42.,25.,0.));
#375=CARTESIAN_POINT('',(42.,-25.,0.));
#376=CARTESIAN_POINT('',(42.,-25.,-1.7));
#377=CARTESIAN_POINT('',(42.,25.,-1.7));
#378=CARTESIAN_POINT('',(42.,25.,-1.7));
#379=CARTESIAN_POINT('',(42.,25.,0.));
#380=CARTESIAN_POINT('',(0.,25.,0.));
#381=CARTESIAN_POINT('',(0.,25.,0.));
#382=CARTESIAN_POINT('',(3.05,25.,0.));
#383=CARTESIAN_POINT('',(0.,-25.,0.));
#384=CARTESIAN_POINT('',(3.05,-25.,0.));
#385=CARTESIAN_POINT('',(41.7,25.,-1.70000000000001));
#386=CARTESIAN_POINT('',(41.7,-25.,-1.70000000000001));
#387=CARTESIAN_POINT('',(41.7,25.,-1.70000000000001));
#388=CARTESIAN_POINT('',(6.50521303491303E-16,25.,2.16840434497101E-15));
#389=CARTESIAN_POINT('',(6.50521303491303E-16,-25.,2.16840434497101E-15));
#390=CARTESIAN_POINT('',(25.,15.,2.));
#391=CARTESIAN_POINT('',(25.,15.,-1.));
#392=CARTESIAN_POINT('',(21.8,15.,-1.));
#393=CARTESIAN_POINT('',(25.,15.,-2.));
#394=CARTESIAN_POINT('',(25.,-15.,2.));
#395=CARTESIAN_POINT('',(25.,-15.,-1.));
#396=CARTESIAN_POINT('',(21.8,-15.,-1.));
#397=CARTESIAN_POINT('',(25.,-15.,-2.));
#398=MECHANICAL_DESIGN_GEOMETRIC_PRESENTATION_REPRESENTATION('',(#231),
#399);
#399=(
GEOMETRIC_REPRESENTATION_CONTEXT(3)
GLOBAL_UNCERTAINTY_ASSIGNED_CONTEXT((#400))
GLOBAL_UNIT_ASSIGNED_CONTEXT((#403,#402,#401))
REPRESENTATION_CONTEXT('095AI40','TOP_LEVEL_ASSEMBLY_PART')
);
#400=UNCERTAINTY_MEASURE_WITH_UNIT(LENGTH_MEASURE(0.005),#403,
'DISTANCE_ACCURACY_VALUE','Maximum Tolerance applied to model');
#401=(
NAMED_UNIT(*)
SI_UNIT($,.STERADIAN.)
SOLID_ANGLE_UNIT()
);
#402=(
NAMED_UNIT(*)
PLANE_ANGLE_UNIT()
SI_UNIT($,.RADIAN.)
);
#403=(
LENGTH_UNIT()
NAMED_UNIT(*)
SI_UNIT(.MILLI.,.METRE.)
);
#404=PRODUCT_DEFINITION_SHAPE('','',#405);
#405=PRODUCT_DEFINITION('','',#407,#406);
#406=PRODUCT_DEFINITION_CONTEXT('',#413,'design');
#407=PRODUCT_DEFINITION_FORMATION_WITH_SPECIFIED_SOURCE('','',#409,
 .NOT_KNOWN.);
#408=PRODUCT_RELATED_PRODUCT_CATEGORY('','',(#409));
#409=PRODUCT('095AI40','095AI40','095AI40',(#411));
#410=PRODUCT_CATEGORY('','');
#411=PRODUCT_CONTEXT('',#413,'mechanical');
#412=APPLICATION_PROTOCOL_DEFINITION('international standard',
'automotive_design',2010,#413);
#413=APPLICATION_CONTEXT(
'core data for automotive mechanical design processes');
ENDSEC;
END-ISO-10303-21;
