ISO-10303-21;
HEADER;
/* Generated by software containing ST-Developer
 * from STEP Tools, Inc. (www.steptools.com) 
 */

FILE_DESCRIPTION(
/* description */ (''),
/* implementation_level */ '2;1');

FILE_NAME(
/* name */ '1008472.stp',
/* time_stamp */ '2024-06-03T14:18:39+02:00',
/* author */ ('Bo'),
/* organization */ ('COOMACH'),
/* preprocessor_version */ 'ST-DEVELOPER v20',
/* originating_system */ 'Autodesk Inventor 2025',
/* authorisation */ '');

FILE_SCHEMA (('AUTOMOTIVE_DESIGN { 1 0 10303 214 3 1 1 }'));
ENDSEC;

DATA;
#10=MECHANICAL_DESIGN_GEOMETRIC_PRESENTATION_REPRESENTATION('',(#14,#15),
#655);
#11=SHAPE_REPRESENTATION_RELATIONSHIP('SRR','None',#662,#12);
#12=ADVANCED_BREP_SHAPE_REPRESENTATION('',(#13),#654);
#13=MANIFOLD_SOLID_BREP('Solid1',#402);
#14=STYLED_ITEM('',(#673),#401);
#15=STYLED_ITEM('',(#672),#13);
#16=FACE_OUTER_BOUND('',#36,.T.);
#17=FACE_OUTER_BOUND('',#37,.T.);
#18=FACE_OUTER_BOUND('',#38,.T.);
#19=FACE_OUTER_BOUND('',#39,.T.);
#20=FACE_OUTER_BOUND('',#40,.T.);
#21=FACE_OUTER_BOUND('',#41,.T.);
#22=FACE_OUTER_BOUND('',#42,.T.);
#23=FACE_OUTER_BOUND('',#43,.T.);
#24=FACE_OUTER_BOUND('',#44,.T.);
#25=FACE_OUTER_BOUND('',#45,.T.);
#26=FACE_OUTER_BOUND('',#46,.T.);
#27=FACE_OUTER_BOUND('',#47,.T.);
#28=FACE_OUTER_BOUND('',#48,.T.);
#29=FACE_OUTER_BOUND('',#49,.T.);
#30=FACE_OUTER_BOUND('',#50,.T.);
#31=FACE_OUTER_BOUND('',#51,.T.);
#32=FACE_OUTER_BOUND('',#52,.T.);
#33=FACE_OUTER_BOUND('',#53,.T.);
#34=FACE_OUTER_BOUND('',#54,.T.);
#35=FACE_OUTER_BOUND('',#55,.T.);
#36=EDGE_LOOP('',(#254,#255,#256,#257));
#37=EDGE_LOOP('',(#258,#259,#260,#261));
#38=EDGE_LOOP('',(#262,#263,#264,#265));
#39=EDGE_LOOP('',(#266,#267,#268,#269));
#40=EDGE_LOOP('',(#270,#271,#272,#273));
#41=EDGE_LOOP('',(#274,#275,#276,#277));
#42=EDGE_LOOP('',(#278,#279,#280,#281));
#43=EDGE_LOOP('',(#282,#283,#284,#285));
#44=EDGE_LOOP('',(#286,#287,#288,#289));
#45=EDGE_LOOP('',(#290,#291,#292,#293));
#46=EDGE_LOOP('',(#294,#295,#296,#297));
#47=EDGE_LOOP('',(#298,#299,#300,#301));
#48=EDGE_LOOP('',(#302,#303,#304,#305));
#49=EDGE_LOOP('',(#306,#307,#308,#309));
#50=EDGE_LOOP('',(#310,#311,#312,#313));
#51=EDGE_LOOP('',(#314,#315,#316,#317));
#52=EDGE_LOOP('',(#318,#319,#320,#321));
#53=EDGE_LOOP('',(#322,#323,#324,#325));
#54=EDGE_LOOP('',(#326,#327,#328,#329,#330,#331,#332,#333,#334,#335,#336,
#337,#338,#339,#340,#341,#342,#343));
#55=EDGE_LOOP('',(#344,#345,#346,#347,#348,#349,#350,#351,#352,#353,#354,
#355,#356,#357,#358,#359,#360,#361));
#56=LINE('',#545,#110);
#57=LINE('',#547,#111);
#58=LINE('',#549,#112);
#59=LINE('',#550,#113);
#60=LINE('',#553,#114);
#61=LINE('',#555,#115);
#62=LINE('',#556,#116);
#63=LINE('',#559,#117);
#64=LINE('',#561,#118);
#65=LINE('',#562,#119);
#66=LINE('',#565,#120);
#67=LINE('',#567,#121);
#68=LINE('',#568,#122);
#69=LINE('',#571,#123);
#70=LINE('',#573,#124);
#71=LINE('',#574,#125);
#72=LINE('',#577,#126);
#73=LINE('',#579,#127);
#74=LINE('',#580,#128);
#75=LINE('',#583,#129);
#76=LINE('',#585,#130);
#77=LINE('',#586,#131);
#78=LINE('',#589,#132);
#79=LINE('',#591,#133);
#80=LINE('',#592,#134);
#81=LINE('',#595,#135);
#82=LINE('',#597,#136);
#83=LINE('',#598,#137);
#84=LINE('',#601,#138);
#85=LINE('',#603,#139);
#86=LINE('',#604,#140);
#87=LINE('',#607,#141);
#88=LINE('',#609,#142);
#89=LINE('',#610,#143);
#90=LINE('',#613,#144);
#91=LINE('',#615,#145);
#92=LINE('',#616,#146);
#93=LINE('',#619,#147);
#94=LINE('',#621,#148);
#95=LINE('',#622,#149);
#96=LINE('',#625,#150);
#97=LINE('',#627,#151);
#98=LINE('',#628,#152);
#99=LINE('',#631,#153);
#100=LINE('',#633,#154);
#101=LINE('',#634,#155);
#102=LINE('',#637,#156);
#103=LINE('',#639,#157);
#104=LINE('',#640,#158);
#105=LINE('',#643,#159);
#106=LINE('',#645,#160);
#107=LINE('',#646,#161);
#108=LINE('',#648,#162);
#109=LINE('',#649,#163);
#110=VECTOR('',#449,9.99999999999999);
#111=VECTOR('',#450,10.);
#112=VECTOR('',#451,9.99999999999999);
#113=VECTOR('',#452,10.);
#114=VECTOR('',#455,10.);
#115=VECTOR('',#456,10.);
#116=VECTOR('',#457,10.);
#117=VECTOR('',#460,10.);
#118=VECTOR('',#461,10.);
#119=VECTOR('',#462,10.);
#120=VECTOR('',#465,10.);
#121=VECTOR('',#466,10.);
#122=VECTOR('',#467,10.);
#123=VECTOR('',#470,10.);
#124=VECTOR('',#471,10.);
#125=VECTOR('',#472,10.);
#126=VECTOR('',#475,10.);
#127=VECTOR('',#476,10.);
#128=VECTOR('',#477,10.);
#129=VECTOR('',#480,10.);
#130=VECTOR('',#481,10.);
#131=VECTOR('',#482,10.);
#132=VECTOR('',#485,10.);
#133=VECTOR('',#486,10.);
#134=VECTOR('',#487,10.);
#135=VECTOR('',#490,10.);
#136=VECTOR('',#491,10.);
#137=VECTOR('',#492,10.);
#138=VECTOR('',#495,10.);
#139=VECTOR('',#496,10.);
#140=VECTOR('',#497,10.);
#141=VECTOR('',#500,10.);
#142=VECTOR('',#501,10.);
#143=VECTOR('',#502,10.);
#144=VECTOR('',#505,10.);
#145=VECTOR('',#506,10.);
#146=VECTOR('',#507,10.);
#147=VECTOR('',#510,10.);
#148=VECTOR('',#511,10.);
#149=VECTOR('',#512,10.);
#150=VECTOR('',#515,10.);
#151=VECTOR('',#516,10.);
#152=VECTOR('',#517,10.);
#153=VECTOR('',#520,10.);
#154=VECTOR('',#521,10.);
#155=VECTOR('',#522,10.);
#156=VECTOR('',#525,10.);
#157=VECTOR('',#526,10.);
#158=VECTOR('',#527,10.);
#159=VECTOR('',#530,9.99999999999999);
#160=VECTOR('',#531,10.);
#161=VECTOR('',#532,9.99999999999999);
#162=VECTOR('',#535,10.);
#163=VECTOR('',#536,10.);
#164=VERTEX_POINT('',#543);
#165=VERTEX_POINT('',#544);
#166=VERTEX_POINT('',#546);
#167=VERTEX_POINT('',#548);
#168=VERTEX_POINT('',#552);
#169=VERTEX_POINT('',#554);
#170=VERTEX_POINT('',#558);
#171=VERTEX_POINT('',#560);
#172=VERTEX_POINT('',#564);
#173=VERTEX_POINT('',#566);
#174=VERTEX_POINT('',#570);
#175=VERTEX_POINT('',#572);
#176=VERTEX_POINT('',#576);
#177=VERTEX_POINT('',#578);
#178=VERTEX_POINT('',#582);
#179=VERTEX_POINT('',#584);
#180=VERTEX_POINT('',#588);
#181=VERTEX_POINT('',#590);
#182=VERTEX_POINT('',#594);
#183=VERTEX_POINT('',#596);
#184=VERTEX_POINT('',#600);
#185=VERTEX_POINT('',#602);
#186=VERTEX_POINT('',#606);
#187=VERTEX_POINT('',#608);
#188=VERTEX_POINT('',#612);
#189=VERTEX_POINT('',#614);
#190=VERTEX_POINT('',#618);
#191=VERTEX_POINT('',#620);
#192=VERTEX_POINT('',#624);
#193=VERTEX_POINT('',#626);
#194=VERTEX_POINT('',#630);
#195=VERTEX_POINT('',#632);
#196=VERTEX_POINT('',#636);
#197=VERTEX_POINT('',#638);
#198=VERTEX_POINT('',#642);
#199=VERTEX_POINT('',#644);
#200=EDGE_CURVE('',#164,#165,#56,.T.);
#201=EDGE_CURVE('',#166,#165,#57,.T.);
#202=EDGE_CURVE('',#166,#167,#58,.T.);
#203=EDGE_CURVE('',#167,#164,#59,.T.);
#204=EDGE_CURVE('',#165,#168,#60,.T.);
#205=EDGE_CURVE('',#169,#168,#61,.T.);
#206=EDGE_CURVE('',#169,#166,#62,.T.);
#207=EDGE_CURVE('',#168,#170,#63,.T.);
#208=EDGE_CURVE('',#171,#170,#64,.T.);
#209=EDGE_CURVE('',#171,#169,#65,.T.);
#210=EDGE_CURVE('',#170,#172,#66,.T.);
#211=EDGE_CURVE('',#173,#172,#67,.T.);
#212=EDGE_CURVE('',#173,#171,#68,.T.);
#213=EDGE_CURVE('',#172,#174,#69,.T.);
#214=EDGE_CURVE('',#175,#174,#70,.T.);
#215=EDGE_CURVE('',#175,#173,#71,.T.);
#216=EDGE_CURVE('',#174,#176,#72,.T.);
#217=EDGE_CURVE('',#177,#176,#73,.T.);
#218=EDGE_CURVE('',#177,#175,#74,.T.);
#219=EDGE_CURVE('',#176,#178,#75,.T.);
#220=EDGE_CURVE('',#179,#178,#76,.T.);
#221=EDGE_CURVE('',#179,#177,#77,.T.);
#222=EDGE_CURVE('',#178,#180,#78,.T.);
#223=EDGE_CURVE('',#181,#180,#79,.T.);
#224=EDGE_CURVE('',#181,#179,#80,.T.);
#225=EDGE_CURVE('',#180,#182,#81,.T.);
#226=EDGE_CURVE('',#183,#182,#82,.T.);
#227=EDGE_CURVE('',#183,#181,#83,.T.);
#228=EDGE_CURVE('',#182,#184,#84,.T.);
#229=EDGE_CURVE('',#185,#184,#85,.T.);
#230=EDGE_CURVE('',#185,#183,#86,.T.);
#231=EDGE_CURVE('',#184,#186,#87,.T.);
#232=EDGE_CURVE('',#187,#186,#88,.T.);
#233=EDGE_CURVE('',#187,#185,#89,.T.);
#234=EDGE_CURVE('',#186,#188,#90,.T.);
#235=EDGE_CURVE('',#189,#188,#91,.T.);
#236=EDGE_CURVE('',#189,#187,#92,.T.);
#237=EDGE_CURVE('',#188,#190,#93,.T.);
#238=EDGE_CURVE('',#191,#190,#94,.T.);
#239=EDGE_CURVE('',#191,#189,#95,.T.);
#240=EDGE_CURVE('',#190,#192,#96,.T.);
#241=EDGE_CURVE('',#193,#192,#97,.T.);
#242=EDGE_CURVE('',#193,#191,#98,.T.);
#243=EDGE_CURVE('',#192,#194,#99,.T.);
#244=EDGE_CURVE('',#195,#194,#100,.T.);
#245=EDGE_CURVE('',#195,#193,#101,.T.);
#246=EDGE_CURVE('',#194,#196,#102,.T.);
#247=EDGE_CURVE('',#197,#196,#103,.T.);
#248=EDGE_CURVE('',#197,#195,#104,.T.);
#249=EDGE_CURVE('',#196,#198,#105,.T.);
#250=EDGE_CURVE('',#199,#198,#106,.T.);
#251=EDGE_CURVE('',#199,#197,#107,.T.);
#252=EDGE_CURVE('',#198,#164,#108,.T.);
#253=EDGE_CURVE('',#167,#199,#109,.T.);
#254=ORIENTED_EDGE('',*,*,#200,.T.);
#255=ORIENTED_EDGE('',*,*,#201,.F.);
#256=ORIENTED_EDGE('',*,*,#202,.T.);
#257=ORIENTED_EDGE('',*,*,#203,.T.);
#258=ORIENTED_EDGE('',*,*,#204,.T.);
#259=ORIENTED_EDGE('',*,*,#205,.F.);
#260=ORIENTED_EDGE('',*,*,#206,.T.);
#261=ORIENTED_EDGE('',*,*,#201,.T.);
#262=ORIENTED_EDGE('',*,*,#207,.T.);
#263=ORIENTED_EDGE('',*,*,#208,.F.);
#264=ORIENTED_EDGE('',*,*,#209,.T.);
#265=ORIENTED_EDGE('',*,*,#205,.T.);
#266=ORIENTED_EDGE('',*,*,#210,.T.);
#267=ORIENTED_EDGE('',*,*,#211,.F.);
#268=ORIENTED_EDGE('',*,*,#212,.T.);
#269=ORIENTED_EDGE('',*,*,#208,.T.);
#270=ORIENTED_EDGE('',*,*,#213,.T.);
#271=ORIENTED_EDGE('',*,*,#214,.F.);
#272=ORIENTED_EDGE('',*,*,#215,.T.);
#273=ORIENTED_EDGE('',*,*,#211,.T.);
#274=ORIENTED_EDGE('',*,*,#216,.T.);
#275=ORIENTED_EDGE('',*,*,#217,.F.);
#276=ORIENTED_EDGE('',*,*,#218,.T.);
#277=ORIENTED_EDGE('',*,*,#214,.T.);
#278=ORIENTED_EDGE('',*,*,#219,.T.);
#279=ORIENTED_EDGE('',*,*,#220,.F.);
#280=ORIENTED_EDGE('',*,*,#221,.T.);
#281=ORIENTED_EDGE('',*,*,#217,.T.);
#282=ORIENTED_EDGE('',*,*,#222,.T.);
#283=ORIENTED_EDGE('',*,*,#223,.F.);
#284=ORIENTED_EDGE('',*,*,#224,.T.);
#285=ORIENTED_EDGE('',*,*,#220,.T.);
#286=ORIENTED_EDGE('',*,*,#225,.T.);
#287=ORIENTED_EDGE('',*,*,#226,.F.);
#288=ORIENTED_EDGE('',*,*,#227,.T.);
#289=ORIENTED_EDGE('',*,*,#223,.T.);
#290=ORIENTED_EDGE('',*,*,#228,.T.);
#291=ORIENTED_EDGE('',*,*,#229,.F.);
#292=ORIENTED_EDGE('',*,*,#230,.T.);
#293=ORIENTED_EDGE('',*,*,#226,.T.);
#294=ORIENTED_EDGE('',*,*,#231,.T.);
#295=ORIENTED_EDGE('',*,*,#232,.F.);
#296=ORIENTED_EDGE('',*,*,#233,.T.);
#297=ORIENTED_EDGE('',*,*,#229,.T.);
#298=ORIENTED_EDGE('',*,*,#234,.T.);
#299=ORIENTED_EDGE('',*,*,#235,.F.);
#300=ORIENTED_EDGE('',*,*,#236,.T.);
#301=ORIENTED_EDGE('',*,*,#232,.T.);
#302=ORIENTED_EDGE('',*,*,#237,.T.);
#303=ORIENTED_EDGE('',*,*,#238,.F.);
#304=ORIENTED_EDGE('',*,*,#239,.T.);
#305=ORIENTED_EDGE('',*,*,#235,.T.);
#306=ORIENTED_EDGE('',*,*,#240,.T.);
#307=ORIENTED_EDGE('',*,*,#241,.F.);
#308=ORIENTED_EDGE('',*,*,#242,.T.);
#309=ORIENTED_EDGE('',*,*,#238,.T.);
#310=ORIENTED_EDGE('',*,*,#243,.T.);
#311=ORIENTED_EDGE('',*,*,#244,.F.);
#312=ORIENTED_EDGE('',*,*,#245,.T.);
#313=ORIENTED_EDGE('',*,*,#241,.T.);
#314=ORIENTED_EDGE('',*,*,#246,.T.);
#315=ORIENTED_EDGE('',*,*,#247,.F.);
#316=ORIENTED_EDGE('',*,*,#248,.T.);
#317=ORIENTED_EDGE('',*,*,#244,.T.);
#318=ORIENTED_EDGE('',*,*,#249,.T.);
#319=ORIENTED_EDGE('',*,*,#250,.F.);
#320=ORIENTED_EDGE('',*,*,#251,.T.);
#321=ORIENTED_EDGE('',*,*,#247,.T.);
#322=ORIENTED_EDGE('',*,*,#252,.T.);
#323=ORIENTED_EDGE('',*,*,#203,.F.);
#324=ORIENTED_EDGE('',*,*,#253,.T.);
#325=ORIENTED_EDGE('',*,*,#250,.T.);
#326=ORIENTED_EDGE('',*,*,#253,.F.);
#327=ORIENTED_EDGE('',*,*,#202,.F.);
#328=ORIENTED_EDGE('',*,*,#206,.F.);
#329=ORIENTED_EDGE('',*,*,#209,.F.);
#330=ORIENTED_EDGE('',*,*,#212,.F.);
#331=ORIENTED_EDGE('',*,*,#215,.F.);
#332=ORIENTED_EDGE('',*,*,#218,.F.);
#333=ORIENTED_EDGE('',*,*,#221,.F.);
#334=ORIENTED_EDGE('',*,*,#224,.F.);
#335=ORIENTED_EDGE('',*,*,#227,.F.);
#336=ORIENTED_EDGE('',*,*,#230,.F.);
#337=ORIENTED_EDGE('',*,*,#233,.F.);
#338=ORIENTED_EDGE('',*,*,#236,.F.);
#339=ORIENTED_EDGE('',*,*,#239,.F.);
#340=ORIENTED_EDGE('',*,*,#242,.F.);
#341=ORIENTED_EDGE('',*,*,#245,.F.);
#342=ORIENTED_EDGE('',*,*,#248,.F.);
#343=ORIENTED_EDGE('',*,*,#251,.F.);
#344=ORIENTED_EDGE('',*,*,#200,.F.);
#345=ORIENTED_EDGE('',*,*,#252,.F.);
#346=ORIENTED_EDGE('',*,*,#249,.F.);
#347=ORIENTED_EDGE('',*,*,#246,.F.);
#348=ORIENTED_EDGE('',*,*,#243,.F.);
#349=ORIENTED_EDGE('',*,*,#240,.F.);
#350=ORIENTED_EDGE('',*,*,#237,.F.);
#351=ORIENTED_EDGE('',*,*,#234,.F.);
#352=ORIENTED_EDGE('',*,*,#231,.F.);
#353=ORIENTED_EDGE('',*,*,#228,.F.);
#354=ORIENTED_EDGE('',*,*,#225,.F.);
#355=ORIENTED_EDGE('',*,*,#222,.F.);
#356=ORIENTED_EDGE('',*,*,#219,.F.);
#357=ORIENTED_EDGE('',*,*,#216,.F.);
#358=ORIENTED_EDGE('',*,*,#213,.F.);
#359=ORIENTED_EDGE('',*,*,#210,.F.);
#360=ORIENTED_EDGE('',*,*,#207,.F.);
#361=ORIENTED_EDGE('',*,*,#204,.F.);
#362=PLANE('',#425);
#363=PLANE('',#426);
#364=PLANE('',#427);
#365=PLANE('',#428);
#366=PLANE('',#429);
#367=PLANE('',#430);
#368=PLANE('',#431);
#369=PLANE('',#432);
#370=PLANE('',#433);
#371=PLANE('',#434);
#372=PLANE('',#435);
#373=PLANE('',#436);
#374=PLANE('',#437);
#375=PLANE('',#438);
#376=PLANE('',#439);
#377=PLANE('',#440);
#378=PLANE('',#441);
#379=PLANE('',#442);
#380=PLANE('',#443);
#381=PLANE('',#444);
#382=ADVANCED_FACE('',(#16),#362,.T.);
#383=ADVANCED_FACE('',(#17),#363,.T.);
#384=ADVANCED_FACE('',(#18),#364,.T.);
#385=ADVANCED_FACE('',(#19),#365,.T.);
#386=ADVANCED_FACE('',(#20),#366,.T.);
#387=ADVANCED_FACE('',(#21),#367,.T.);
#388=ADVANCED_FACE('',(#22),#368,.T.);
#389=ADVANCED_FACE('',(#23),#369,.T.);
#390=ADVANCED_FACE('',(#24),#370,.T.);
#391=ADVANCED_FACE('',(#25),#371,.T.);
#392=ADVANCED_FACE('',(#26),#372,.T.);
#393=ADVANCED_FACE('',(#27),#373,.T.);
#394=ADVANCED_FACE('',(#28),#374,.T.);
#395=ADVANCED_FACE('',(#29),#375,.T.);
#396=ADVANCED_FACE('',(#30),#376,.T.);
#397=ADVANCED_FACE('',(#31),#377,.T.);
#398=ADVANCED_FACE('',(#32),#378,.T.);
#399=ADVANCED_FACE('',(#33),#379,.T.);
#400=ADVANCED_FACE('',(#34),#380,.F.);
#401=ADVANCED_FACE('',(#35),#381,.T.);
#402=CLOSED_SHELL('',(#382,#383,#384,#385,#386,#387,#388,#389,#390,#391,
#392,#393,#394,#395,#396,#397,#398,#399,#400,#401));
#403=DERIVED_UNIT_ELEMENT(#406,1.);
#404=DERIVED_UNIT_ELEMENT(#657,-3.);
#405=DIMENSIONAL_EXPONENTS(0.,1.,0.,0.,0.,0.,0.);
#406=(
CONVERSION_BASED_UNIT('gram',#408)
MASS_UNIT()
NAMED_UNIT(#405)
);
#407=(
MASS_UNIT()
NAMED_UNIT(*)
SI_UNIT(.KILO.,.GRAM.)
);
#408=MASS_MEASURE_WITH_UNIT(MASS_MEASURE(0.001),#407);
#409=DERIVED_UNIT((#403,#404));
#410=MEASURE_REPRESENTATION_ITEM('density measure',
POSITIVE_RATIO_MEASURE(1.),#409);
#411=PROPERTY_DEFINITION_REPRESENTATION(#416,#413);
#412=PROPERTY_DEFINITION_REPRESENTATION(#417,#414);
#413=REPRESENTATION('material name',(#415),#654);
#414=REPRESENTATION('density',(#410),#654);
#415=DESCRIPTIVE_REPRESENTATION_ITEM('Generic','Generic');
#416=PROPERTY_DEFINITION('material property','material name',#664);
#417=PROPERTY_DEFINITION('material property','density of part',#664);
#418=DATE_TIME_ROLE('creation_date');
#419=APPLIED_DATE_AND_TIME_ASSIGNMENT(#420,#418,(#664));
#420=DATE_AND_TIME(#421,#422);
#421=CALENDAR_DATE(2024,3,6);
#422=LOCAL_TIME(14,14,45.,#423);
#423=COORDINATED_UNIVERSAL_TIME_OFFSET(0,0,.BEHIND.);
#424=AXIS2_PLACEMENT_3D('',#541,#445,#446);
#425=AXIS2_PLACEMENT_3D('',#542,#447,#448);
#426=AXIS2_PLACEMENT_3D('',#551,#453,#454);
#427=AXIS2_PLACEMENT_3D('',#557,#458,#459);
#428=AXIS2_PLACEMENT_3D('',#563,#463,#464);
#429=AXIS2_PLACEMENT_3D('',#569,#468,#469);
#430=AXIS2_PLACEMENT_3D('',#575,#473,#474);
#431=AXIS2_PLACEMENT_3D('',#581,#478,#479);
#432=AXIS2_PLACEMENT_3D('',#587,#483,#484);
#433=AXIS2_PLACEMENT_3D('',#593,#488,#489);
#434=AXIS2_PLACEMENT_3D('',#599,#493,#494);
#435=AXIS2_PLACEMENT_3D('',#605,#498,#499);
#436=AXIS2_PLACEMENT_3D('',#611,#503,#504);
#437=AXIS2_PLACEMENT_3D('',#617,#508,#509);
#438=AXIS2_PLACEMENT_3D('',#623,#513,#514);
#439=AXIS2_PLACEMENT_3D('',#629,#518,#519);
#440=AXIS2_PLACEMENT_3D('',#635,#523,#524);
#441=AXIS2_PLACEMENT_3D('',#641,#528,#529);
#442=AXIS2_PLACEMENT_3D('',#647,#533,#534);
#443=AXIS2_PLACEMENT_3D('',#650,#537,#538);
#444=AXIS2_PLACEMENT_3D('',#651,#539,#540);
#445=DIRECTION('axis',(0.,0.,1.));
#446=DIRECTION('refdir',(1.,0.,0.));
#447=DIRECTION('center_axis',(-0.707106781186548,-0.707106781186548,0.));
#448=DIRECTION('ref_axis',(0.,0.,1.));
#449=DIRECTION('',(-0.707106781186547,0.707106781186547,0.));
#450=DIRECTION('',(0.,0.,1.));
#451=DIRECTION('',(0.707106781186547,-0.707106781186547,0.));
#452=DIRECTION('',(0.,0.,1.));
#453=DIRECTION('center_axis',(-1.,0.,0.));
#454=DIRECTION('ref_axis',(0.,0.,1.));
#455=DIRECTION('',(0.,1.,0.));
#456=DIRECTION('',(0.,0.,1.));
#457=DIRECTION('',(0.,-1.,0.));
#458=DIRECTION('center_axis',(0.,1.,0.));
#459=DIRECTION('ref_axis',(0.,0.,1.));
#460=DIRECTION('',(1.,0.,0.));
#461=DIRECTION('',(0.,0.,1.));
#462=DIRECTION('',(-1.,0.,0.));
#463=DIRECTION('center_axis',(-1.,0.,0.));
#464=DIRECTION('ref_axis',(0.,0.,1.));
#465=DIRECTION('',(0.,1.,0.));
#466=DIRECTION('',(0.,0.,1.));
#467=DIRECTION('',(0.,-1.,0.));
#468=DIRECTION('center_axis',(0.,-1.,0.));
#469=DIRECTION('ref_axis',(0.,0.,-1.));
#470=DIRECTION('',(-1.,0.,0.));
#471=DIRECTION('',(0.,0.,1.));
#472=DIRECTION('',(1.,0.,0.));
#473=DIRECTION('center_axis',(-1.,0.,0.));
#474=DIRECTION('ref_axis',(0.,0.,1.));
#475=DIRECTION('',(0.,1.,0.));
#476=DIRECTION('',(0.,0.,1.));
#477=DIRECTION('',(0.,-1.,0.));
#478=DIRECTION('center_axis',(0.,1.,0.));
#479=DIRECTION('ref_axis',(0.,0.,1.));
#480=DIRECTION('',(1.,0.,0.));
#481=DIRECTION('',(0.,0.,1.));
#482=DIRECTION('',(-1.,0.,0.));
#483=DIRECTION('center_axis',(-1.,0.,0.));
#484=DIRECTION('ref_axis',(0.,0.,1.));
#485=DIRECTION('',(0.,1.,0.));
#486=DIRECTION('',(0.,0.,1.));
#487=DIRECTION('',(0.,-1.,0.));
#488=DIRECTION('center_axis',(0.,1.,0.));
#489=DIRECTION('ref_axis',(0.,0.,1.));
#490=DIRECTION('',(1.,0.,0.));
#491=DIRECTION('',(0.,0.,1.));
#492=DIRECTION('',(-1.,0.,0.));
#493=DIRECTION('center_axis',(1.,0.,0.));
#494=DIRECTION('ref_axis',(0.,0.,-1.));
#495=DIRECTION('',(0.,-1.,0.));
#496=DIRECTION('',(0.,0.,1.));
#497=DIRECTION('',(0.,1.,0.));
#498=DIRECTION('center_axis',(0.,1.,0.));
#499=DIRECTION('ref_axis',(0.,0.,1.));
#500=DIRECTION('',(1.,0.,0.));
#501=DIRECTION('',(0.,0.,1.));
#502=DIRECTION('',(-1.,0.,0.));
#503=DIRECTION('center_axis',(1.,0.,0.));
#504=DIRECTION('ref_axis',(0.,0.,-1.));
#505=DIRECTION('',(0.,-1.,0.));
#506=DIRECTION('',(0.,0.,1.));
#507=DIRECTION('',(0.,1.,0.));
#508=DIRECTION('center_axis',(0.,-1.,0.));
#509=DIRECTION('ref_axis',(0.,0.,-1.));
#510=DIRECTION('',(-1.,0.,0.));
#511=DIRECTION('',(0.,0.,1.));
#512=DIRECTION('',(1.,0.,0.));
#513=DIRECTION('center_axis',(1.,0.,0.));
#514=DIRECTION('ref_axis',(0.,0.,-1.));
#515=DIRECTION('',(0.,-1.,0.));
#516=DIRECTION('',(0.,0.,1.));
#517=DIRECTION('',(0.,1.,0.));
#518=DIRECTION('center_axis',(0.,1.,0.));
#519=DIRECTION('ref_axis',(0.,0.,1.));
#520=DIRECTION('',(1.,0.,0.));
#521=DIRECTION('',(0.,0.,1.));
#522=DIRECTION('',(-1.,0.,0.));
#523=DIRECTION('center_axis',(1.,0.,0.));
#524=DIRECTION('ref_axis',(0.,0.,-1.));
#525=DIRECTION('',(0.,-1.,0.));
#526=DIRECTION('',(0.,0.,1.));
#527=DIRECTION('',(0.,1.,0.));
#528=DIRECTION('center_axis',(0.707106781186548,-0.707106781186548,0.));
#529=DIRECTION('ref_axis',(0.,0.,-1.));
#530=DIRECTION('',(-0.707106781186547,-0.707106781186547,0.));
#531=DIRECTION('',(0.,0.,1.));
#532=DIRECTION('',(0.707106781186547,0.707106781186547,0.));
#533=DIRECTION('center_axis',(0.,-1.,0.));
#534=DIRECTION('ref_axis',(0.,0.,-1.));
#535=DIRECTION('',(-1.,0.,0.));
#536=DIRECTION('',(1.,0.,0.));
#537=DIRECTION('center_axis',(0.,0.,1.));
#538=DIRECTION('ref_axis',(1.,0.,0.));
#539=DIRECTION('center_axis',(0.,0.,1.));
#540=DIRECTION('ref_axis',(1.,0.,0.));
#541=CARTESIAN_POINT('',(0.,0.,0.));
#542=CARTESIAN_POINT('Origin',(-5.,-8.5,0.));
#543=CARTESIAN_POINT('',(-5.,-8.5,627.));
#544=CARTESIAN_POINT('',(-7.,-6.5,627.));
#545=CARTESIAN_POINT('',(-7.,-6.5,627.));
#546=CARTESIAN_POINT('',(-7.,-6.5,0.));
#547=CARTESIAN_POINT('',(-7.,-6.5,0.));
#548=CARTESIAN_POINT('',(-5.,-8.5,0.));
#549=CARTESIAN_POINT('',(-7.,-6.5,0.));
#550=CARTESIAN_POINT('',(-5.,-8.5,0.));
#551=CARTESIAN_POINT('Origin',(-7.,-6.5,0.));
#552=CARTESIAN_POINT('',(-7.,-5.,627.));
#553=CARTESIAN_POINT('',(-7.,-5.,627.));
#554=CARTESIAN_POINT('',(-7.,-5.,0.));
#555=CARTESIAN_POINT('',(-7.,-5.,0.));
#556=CARTESIAN_POINT('',(-7.,-5.,0.));
#557=CARTESIAN_POINT('Origin',(-7.,-5.,0.));
#558=CARTESIAN_POINT('',(-3.85,-5.,627.));
#559=CARTESIAN_POINT('',(-3.85,-5.,627.));
#560=CARTESIAN_POINT('',(-3.85,-5.,0.));
#561=CARTESIAN_POINT('',(-3.85,-5.,0.));
#562=CARTESIAN_POINT('',(-3.85,-5.,0.));
#563=CARTESIAN_POINT('Origin',(-3.85,-5.,0.));
#564=CARTESIAN_POINT('',(-3.85,0.,627.));
#565=CARTESIAN_POINT('',(-3.85,0.,627.));
#566=CARTESIAN_POINT('',(-3.85,0.,0.));
#567=CARTESIAN_POINT('',(-3.85,0.,0.));
#568=CARTESIAN_POINT('',(-3.85,0.,0.));
#569=CARTESIAN_POINT('Origin',(-3.85,0.,0.));
#570=CARTESIAN_POINT('',(-7.,0.,627.));
#571=CARTESIAN_POINT('',(-7.,0.,627.));
#572=CARTESIAN_POINT('',(-7.,0.,0.));
#573=CARTESIAN_POINT('',(-7.,0.,0.));
#574=CARTESIAN_POINT('',(-7.,0.,0.));
#575=CARTESIAN_POINT('Origin',(-7.,0.,0.));
#576=CARTESIAN_POINT('',(-7.,5.,627.));
#577=CARTESIAN_POINT('',(-7.,5.,627.));
#578=CARTESIAN_POINT('',(-7.,5.,0.));
#579=CARTESIAN_POINT('',(-7.,5.,0.));
#580=CARTESIAN_POINT('',(-7.,5.,0.));
#581=CARTESIAN_POINT('Origin',(-7.,5.,0.));
#582=CARTESIAN_POINT('',(-3.85,5.,627.));
#583=CARTESIAN_POINT('',(-3.85,5.,627.));
#584=CARTESIAN_POINT('',(-3.85,5.,0.));
#585=CARTESIAN_POINT('',(-3.85,5.,0.));
#586=CARTESIAN_POINT('',(-3.85,5.,0.));
#587=CARTESIAN_POINT('Origin',(-3.85,5.,0.));
#588=CARTESIAN_POINT('',(-3.85,13.5,627.));
#589=CARTESIAN_POINT('',(-3.85,13.5,627.));
#590=CARTESIAN_POINT('',(-3.85,13.5,0.));
#591=CARTESIAN_POINT('',(-3.85,13.5,0.));
#592=CARTESIAN_POINT('',(-3.85,13.5,0.));
#593=CARTESIAN_POINT('Origin',(-3.85,13.5,0.));
#594=CARTESIAN_POINT('',(3.85,13.5,627.));
#595=CARTESIAN_POINT('',(3.85,13.5,627.));
#596=CARTESIAN_POINT('',(3.85,13.5,0.));
#597=CARTESIAN_POINT('',(3.85,13.5,0.));
#598=CARTESIAN_POINT('',(3.85,13.5,0.));
#599=CARTESIAN_POINT('Origin',(3.85,13.5,0.));
#600=CARTESIAN_POINT('',(3.85,5.,627.));
#601=CARTESIAN_POINT('',(3.85,5.,627.));
#602=CARTESIAN_POINT('',(3.85,5.,0.));
#603=CARTESIAN_POINT('',(3.85,5.,0.));
#604=CARTESIAN_POINT('',(3.85,5.,0.));
#605=CARTESIAN_POINT('Origin',(3.85,5.,0.));
#606=CARTESIAN_POINT('',(7.,5.,627.));
#607=CARTESIAN_POINT('',(7.,5.,627.));
#608=CARTESIAN_POINT('',(7.,5.,0.));
#609=CARTESIAN_POINT('',(7.,5.,0.));
#610=CARTESIAN_POINT('',(7.,5.,0.));
#611=CARTESIAN_POINT('Origin',(7.,5.,0.));
#612=CARTESIAN_POINT('',(7.,0.,627.));
#613=CARTESIAN_POINT('',(7.,0.,627.));
#614=CARTESIAN_POINT('',(7.,0.,0.));
#615=CARTESIAN_POINT('',(7.,0.,0.));
#616=CARTESIAN_POINT('',(7.,0.,0.));
#617=CARTESIAN_POINT('Origin',(7.,0.,0.));
#618=CARTESIAN_POINT('',(3.85,0.,627.));
#619=CARTESIAN_POINT('',(3.85,0.,627.));
#620=CARTESIAN_POINT('',(3.85,0.,0.));
#621=CARTESIAN_POINT('',(3.85,0.,0.));
#622=CARTESIAN_POINT('',(3.85,0.,0.));
#623=CARTESIAN_POINT('Origin',(3.85,0.,0.));
#624=CARTESIAN_POINT('',(3.85,-5.,627.));
#625=CARTESIAN_POINT('',(3.85,-5.,627.));
#626=CARTESIAN_POINT('',(3.85,-5.,0.));
#627=CARTESIAN_POINT('',(3.85,-5.,0.));
#628=CARTESIAN_POINT('',(3.85,-5.,0.));
#629=CARTESIAN_POINT('Origin',(3.85,-5.,0.));
#630=CARTESIAN_POINT('',(7.,-5.,627.));
#631=CARTESIAN_POINT('',(7.,-5.,627.));
#632=CARTESIAN_POINT('',(7.,-5.,0.));
#633=CARTESIAN_POINT('',(7.,-5.,0.));
#634=CARTESIAN_POINT('',(7.,-5.,0.));
#635=CARTESIAN_POINT('Origin',(7.,-5.,0.));
#636=CARTESIAN_POINT('',(7.,-6.5,627.));
#637=CARTESIAN_POINT('',(7.,-6.5,627.));
#638=CARTESIAN_POINT('',(7.,-6.5,0.));
#639=CARTESIAN_POINT('',(7.,-6.5,0.));
#640=CARTESIAN_POINT('',(7.,-6.5,0.));
#641=CARTESIAN_POINT('Origin',(7.,-6.5,0.));
#642=CARTESIAN_POINT('',(5.,-8.5,627.));
#643=CARTESIAN_POINT('',(5.,-8.5,627.));
#644=CARTESIAN_POINT('',(5.,-8.5,0.));
#645=CARTESIAN_POINT('',(5.,-8.5,0.));
#646=CARTESIAN_POINT('',(5.,-8.5,0.));
#647=CARTESIAN_POINT('Origin',(5.,-8.5,0.));
#648=CARTESIAN_POINT('',(-5.,-8.5,627.));
#649=CARTESIAN_POINT('',(-5.,-8.5,0.));
#650=CARTESIAN_POINT('Origin',(4.5102810375397E-16,1.41658217047033,0.));
#651=CARTESIAN_POINT('Origin',(-4.16333634234434E-16,1.41658217047033,627.));
#652=UNCERTAINTY_MEASURE_WITH_UNIT(LENGTH_MEASURE(0.01),#656,
'DISTANCE_ACCURACY_VALUE',
'Maximum model space distance between geometric entities at asserted c
onnectivities');
#653=UNCERTAINTY_MEASURE_WITH_UNIT(LENGTH_MEASURE(0.01),#656,
'DISTANCE_ACCURACY_VALUE',
'Maximum model space distance between geometric entities at asserted c
onnectivities');
#654=(
GEOMETRIC_REPRESENTATION_CONTEXT(3)
GLOBAL_UNCERTAINTY_ASSIGNED_CONTEXT((#652))
GLOBAL_UNIT_ASSIGNED_CONTEXT((#656,#658,#659))
REPRESENTATION_CONTEXT('','3D')
);
#655=(
GEOMETRIC_REPRESENTATION_CONTEXT(3)
GLOBAL_UNCERTAINTY_ASSIGNED_CONTEXT((#653))
GLOBAL_UNIT_ASSIGNED_CONTEXT((#656,#658,#659))
REPRESENTATION_CONTEXT('','3D')
);
#656=(
LENGTH_UNIT()
NAMED_UNIT(*)
SI_UNIT(.MILLI.,.METRE.)
);
#657=(
LENGTH_UNIT()
NAMED_UNIT(*)
SI_UNIT(.CENTI.,.METRE.)
);
#658=(
NAMED_UNIT(*)
PLANE_ANGLE_UNIT()
SI_UNIT($,.RADIAN.)
);
#659=(
NAMED_UNIT(*)
SI_UNIT($,.STERADIAN.)
SOLID_ANGLE_UNIT()
);
#660=SHAPE_DEFINITION_REPRESENTATION(#661,#662);
#661=PRODUCT_DEFINITION_SHAPE('',$,#664);
#662=SHAPE_REPRESENTATION('',(#424),#654);
#663=PRODUCT_DEFINITION_CONTEXT('part definition',#668,'design');
#664=PRODUCT_DEFINITION('1008472','1008472',#665,#663);
#665=PRODUCT_DEFINITION_FORMATION('',$,#670);
#666=PRODUCT_RELATED_PRODUCT_CATEGORY('1008472','1008472',(#670));
#667=APPLICATION_PROTOCOL_DEFINITION('international standard',
'automotive_design',2009,#668);
#668=APPLICATION_CONTEXT(
'Core Data for Automotive Mechanical Design Process');
#669=PRODUCT_CONTEXT('part definition',#668,'mechanical');
#670=PRODUCT('1008472','1008472',$,(#669));
#671=PRESENTATION_STYLE_ASSIGNMENT((#674));
#672=PRESENTATION_STYLE_ASSIGNMENT((#675));
#673=PRESENTATION_STYLE_ASSIGNMENT((#676));
#674=SURFACE_STYLE_USAGE(.BOTH.,#683);
#675=SURFACE_STYLE_USAGE(.BOTH.,#684);
#676=SURFACE_STYLE_USAGE(.BOTH.,#685);
#677=SURFACE_STYLE_RENDERING_WITH_PROPERTIES($,#695,(#680));
#678=SURFACE_STYLE_RENDERING_WITH_PROPERTIES($,#696,(#681));
#679=SURFACE_STYLE_RENDERING_WITH_PROPERTIES($,#697,(#682));
#680=SURFACE_STYLE_TRANSPARENT(0.);
#681=SURFACE_STYLE_TRANSPARENT(0.);
#682=SURFACE_STYLE_TRANSPARENT(0.);
#683=SURFACE_SIDE_STYLE('',(#686,#677));
#684=SURFACE_SIDE_STYLE('',(#687,#678));
#685=SURFACE_SIDE_STYLE('',(#688,#679));
#686=SURFACE_STYLE_FILL_AREA(#689);
#687=SURFACE_STYLE_FILL_AREA(#690);
#688=SURFACE_STYLE_FILL_AREA(#691);
#689=FILL_AREA_STYLE('',(#692));
#690=FILL_AREA_STYLE('',(#693));
#691=FILL_AREA_STYLE('',(#694));
#692=FILL_AREA_STYLE_COLOUR('',#695);
#693=FILL_AREA_STYLE_COLOUR('',#696);
#694=FILL_AREA_STYLE_COLOUR('',#697);
#695=COLOUR_RGB('',0.749019607843137,0.749019607843137,0.749019607843137);
#696=COLOUR_RGB('',0.,0.,0.);
#697=COLOUR_RGB('',0.835294117647059,0.835294117647059,0.);
ENDSEC;
END-ISO-10303-21;
