ISO-10303-21;
HEADER;
/* Generated by software containing ST-Developer
 * from STEP Tools, Inc. (www.steptools.com) 
 */
/* OPTION: using custom renumber hook */

FILE_DESCRIPTION(
/* description */ ('STEP AP214'),
/* implementation_level */ '2;1');

FILE_NAME(
/* name */ '051DC553030FM08',
/* time_stamp */ '2023-03-15T15:47:22+01:00',
/* author */ ('License CC BY-ND 4.0'),
/* organization */ ('CADENAS'),
/* preprocessor_version */ 'ST-DEVELOPER v19.3',
/* originating_system */ 'PARTsolutions',
/* authorisation */ '  ');

FILE_SCHEMA (('AUTOMOTIVE_DESIGN {1 0 10303 214 3 1 1}'));
ENDSEC;

DATA;
#10=PROPERTY_DEFINITION_REPRESENTATION(#14,#12);
#11=PROPERTY_DEFINITION_REPRESENTATION(#15,#13);
#12=REPRESENTATION('',(#16),#183);
#13=REPRESENTATION('',(#17),#183);
#14=PROPERTY_DEFINITION('pmi validation property','',#188);
#15=PROPERTY_DEFINITION('pmi validation property','',#188);
#16=VALUE_REPRESENTATION_ITEM('number of annotations',COUNT_MEASURE(0.));
#17=VALUE_REPRESENTATION_ITEM('number of views',COUNT_MEASURE(0.));
#18=SHAPE_REPRESENTATION_RELATIONSHIP('','',#127,#19);
#19=ADVANCED_BREP_SHAPE_REPRESENTATION('',(#125),#183);
#20=VERTEX_LOOP('',#45);
#21=CONICAL_SURFACE('',#135,4.,0.785398163397448);
#22=CONICAL_SURFACE('',#139,3.3235,1.0471975511966);
#23=CYLINDRICAL_SURFACE('',#131,15.);
#24=CYLINDRICAL_SURFACE('',#137,3.3235);
#25=ORIENTED_EDGE('',*,*,#35,.F.);
#26=ORIENTED_EDGE('',*,*,#36,.F.);
#27=ORIENTED_EDGE('',*,*,#35,.T.);
#28=ORIENTED_EDGE('',*,*,#37,.F.);
#29=ORIENTED_EDGE('',*,*,#36,.T.);
#30=ORIENTED_EDGE('',*,*,#38,.F.);
#31=ORIENTED_EDGE('',*,*,#37,.T.);
#32=ORIENTED_EDGE('',*,*,#39,.F.);
#33=ORIENTED_EDGE('',*,*,#38,.T.);
#34=ORIENTED_EDGE('',*,*,#39,.T.);
#35=EDGE_CURVE('',#40,#40,#46,.T.);
#36=EDGE_CURVE('',#41,#41,#47,.T.);
#37=EDGE_CURVE('',#42,#42,#48,.T.);
#38=EDGE_CURVE('',#43,#43,#49,.T.);
#39=EDGE_CURVE('',#44,#44,#50,.T.);
#40=VERTEX_POINT('',#167);
#41=VERTEX_POINT('',#170);
#42=VERTEX_POINT('',#173);
#43=VERTEX_POINT('',#176);
#44=VERTEX_POINT('',#179);
#45=VERTEX_POINT('',#181);
#46=CIRCLE('',#130,15.);
#47=CIRCLE('',#132,15.);
#48=CIRCLE('',#134,4.);
#49=CIRCLE('',#136,3.3235);
#50=CIRCLE('',#138,3.3235);
#51=EDGE_LOOP('',(#25));
#52=EDGE_LOOP('',(#26));
#53=EDGE_LOOP('',(#27));
#54=EDGE_LOOP('',(#28));
#55=EDGE_LOOP('',(#29));
#56=EDGE_LOOP('',(#30));
#57=EDGE_LOOP('',(#31));
#58=EDGE_LOOP('',(#32));
#59=EDGE_LOOP('',(#33));
#60=EDGE_LOOP('',(#34));
#61=FACE_BOUND('',#51,.T.);
#62=FACE_BOUND('',#52,.T.);
#63=FACE_BOUND('',#53,.T.);
#64=FACE_BOUND('',#54,.T.);
#65=FACE_BOUND('',#55,.T.);
#66=FACE_BOUND('',#56,.T.);
#67=FACE_BOUND('',#57,.T.);
#68=FACE_BOUND('',#58,.T.);
#69=FACE_BOUND('',#59,.T.);
#70=FACE_BOUND('',#20,.T.);
#71=FACE_BOUND('',#60,.T.);
#72=PLANE('',#129);
#73=PLANE('',#133);
#74=STYLED_ITEM('',(#80),#118);
#75=STYLED_ITEM('',(#81),#119);
#76=STYLED_ITEM('',(#82),#120);
#77=STYLED_ITEM('',(#83),#121);
#78=STYLED_ITEM('',(#84),#122);
#79=STYLED_ITEM('',(#85),#123);
#80=PRESENTATION_STYLE_ASSIGNMENT((#86));
#81=PRESENTATION_STYLE_ASSIGNMENT((#87));
#82=PRESENTATION_STYLE_ASSIGNMENT((#88));
#83=PRESENTATION_STYLE_ASSIGNMENT((#89));
#84=PRESENTATION_STYLE_ASSIGNMENT((#90));
#85=PRESENTATION_STYLE_ASSIGNMENT((#91));
#86=SURFACE_STYLE_USAGE(.BOTH.,#92);
#87=SURFACE_STYLE_USAGE(.BOTH.,#93);
#88=SURFACE_STYLE_USAGE(.BOTH.,#94);
#89=SURFACE_STYLE_USAGE(.BOTH.,#95);
#90=SURFACE_STYLE_USAGE(.BOTH.,#96);
#91=SURFACE_STYLE_USAGE(.BOTH.,#97);
#92=SURFACE_SIDE_STYLE('',(#98));
#93=SURFACE_SIDE_STYLE('',(#99));
#94=SURFACE_SIDE_STYLE('',(#100));
#95=SURFACE_SIDE_STYLE('',(#101));
#96=SURFACE_SIDE_STYLE('',(#102));
#97=SURFACE_SIDE_STYLE('',(#103));
#98=SURFACE_STYLE_FILL_AREA(#104);
#99=SURFACE_STYLE_FILL_AREA(#105);
#100=SURFACE_STYLE_FILL_AREA(#106);
#101=SURFACE_STYLE_FILL_AREA(#107);
#102=SURFACE_STYLE_FILL_AREA(#108);
#103=SURFACE_STYLE_FILL_AREA(#109);
#104=FILL_AREA_STYLE('',(#110));
#105=FILL_AREA_STYLE('',(#111));
#106=FILL_AREA_STYLE('',(#112));
#107=FILL_AREA_STYLE('',(#113));
#108=FILL_AREA_STYLE('',(#114));
#109=FILL_AREA_STYLE('',(#115));
#110=FILL_AREA_STYLE_COLOUR('',#116);
#111=FILL_AREA_STYLE_COLOUR('',#116);
#112=FILL_AREA_STYLE_COLOUR('',#116);
#113=FILL_AREA_STYLE_COLOUR('',#117);
#114=FILL_AREA_STYLE_COLOUR('',#117);
#115=FILL_AREA_STYLE_COLOUR('',#117);
#116=COLOUR_RGB('',0.752941191196442,0.752941191196442,0.752941191196442);
#117=COLOUR_RGB('',0.7294117808342,0.76862746477127,0.7843137383461);
#118=ADVANCED_FACE('',(#61),#72,.F.);
#119=ADVANCED_FACE('',(#62,#63),#23,.T.);
#120=ADVANCED_FACE('',(#64,#65),#73,.F.);
#121=ADVANCED_FACE('',(#66,#67),#21,.F.);
#122=ADVANCED_FACE('',(#68,#69),#24,.F.);
#123=ADVANCED_FACE('',(#70,#71),#22,.F.);
#124=CLOSED_SHELL('',(#118,#119,#120,#121,#122,#123));
#125=MANIFOLD_SOLID_BREP('051DC553030FM08',#124);
#126=SHAPE_DEFINITION_REPRESENTATION(#188,#127);
#127=SHAPE_REPRESENTATION('051DC553030FM08',(#128),#183);
#128=AXIS2_PLACEMENT_3D('',#164,#140,#141);
#129=AXIS2_PLACEMENT_3D('',#165,#142,#143);
#130=AXIS2_PLACEMENT_3D('',#166,#144,#145);
#131=AXIS2_PLACEMENT_3D('',#168,#146,#147);
#132=AXIS2_PLACEMENT_3D('',#169,#148,#149);
#133=AXIS2_PLACEMENT_3D('',#171,#150,#151);
#134=AXIS2_PLACEMENT_3D('',#172,#152,#153);
#135=AXIS2_PLACEMENT_3D('',#174,#154,#155);
#136=AXIS2_PLACEMENT_3D('',#175,#156,#157);
#137=AXIS2_PLACEMENT_3D('',#177,#158,#159);
#138=AXIS2_PLACEMENT_3D('',#178,#160,#161);
#139=AXIS2_PLACEMENT_3D('',#180,#162,#163);
#140=DIRECTION('',(0.,0.,1.));
#141=DIRECTION('',(1.,0.,0.));
#142=DIRECTION('',(-3.79403198951365E-18,-1.,0.));
#143=DIRECTION('',(1.,-3.79403198951365E-18,0.));
#144=DIRECTION('',(-3.79403198951365E-18,-1.,0.));
#145=DIRECTION('',(1.,-3.79403198951365E-18,0.));
#146=DIRECTION('',(-3.79403198951365E-18,-1.,0.));
#147=DIRECTION('',(1.,-3.79403198951365E-18,0.));
#148=DIRECTION('',(-3.79403198951365E-18,-1.,0.));
#149=DIRECTION('',(1.,-3.79403198951365E-18,0.));
#150=DIRECTION('',(3.79403198951365E-18,1.,0.));
#151=DIRECTION('',(-1.,3.79403198951365E-18,0.));
#152=DIRECTION('',(-3.79403198951365E-18,-1.,0.));
#153=DIRECTION('',(1.,-3.79403198951365E-18,0.));
#154=DIRECTION('',(-3.79403198951365E-18,-1.,0.));
#155=DIRECTION('',(1.,-3.79403198951365E-18,0.));
#156=DIRECTION('',(-3.79403198951365E-18,-1.,0.));
#157=DIRECTION('',(1.,-3.79403198951365E-18,0.));
#158=DIRECTION('',(-3.79403198951365E-18,-1.,0.));
#159=DIRECTION('',(1.,-3.79403198951365E-18,0.));
#160=DIRECTION('',(-3.79403198951365E-18,-1.,0.));
#161=DIRECTION('',(1.,-3.79403198951365E-18,0.));
#162=DIRECTION('',(-3.79403198951365E-18,-1.,0.));
#163=DIRECTION('',(1.,-3.79403198951365E-18,0.));
#164=CARTESIAN_POINT('',(0.,0.,0.));
#165=CARTESIAN_POINT('',(1.07960090530897E-34,30.,0.));
#166=CARTESIAN_POINT('',(2.40741243048404E-32,30.,0.));
#167=CARTESIAN_POINT('',(15.,30.,0.));
#168=CARTESIAN_POINT('',(-1.13820959685409E-16,1.77635683940025E-15,0.));
#169=CARTESIAN_POINT('',(-1.13820959685409E-16,5.69104798427047E-17,0.));
#170=CARTESIAN_POINT('',(15.,-3.61111864572607E-32,0.));
#171=CARTESIAN_POINT('',(15.,-2.08671759423251E-17,0.));
#172=CARTESIAN_POINT('',(-1.13820959685409E-16,1.51761279580547E-17,0.));
#173=CARTESIAN_POINT('',(4.,1.17361355986097E-31,0.));
#174=CARTESIAN_POINT('',(-1.13820959685409E-16,1.51761279580547E-17,0.));
#175=CARTESIAN_POINT('',(-1.11254297044503E-16,0.6765,0.));
#176=CARTESIAN_POINT('',(3.3235,0.6765,0.));
#177=CARTESIAN_POINT('',(-1.13820959685409E-16,1.77635683940025E-15,0.));
#178=CARTESIAN_POINT('',(-6.27912294264508E-17,13.45,0.));
#179=CARTESIAN_POINT('',(3.3235,13.45,0.));
#180=CARTESIAN_POINT('',(-6.27912294264508E-17,13.45,0.));
#181=CARTESIAN_POINT('',(0.,15.3688236196517,0.));
#182=MECHANICAL_DESIGN_GEOMETRIC_PRESENTATION_REPRESENTATION('',(#74,#75,
#76,#77,#78,#79),#183);
#183=(
GEOMETRIC_REPRESENTATION_CONTEXT(3)
GLOBAL_UNCERTAINTY_ASSIGNED_CONTEXT((#184))
GLOBAL_UNIT_ASSIGNED_CONTEXT((#187,#186,#185))
REPRESENTATION_CONTEXT('051DC553030FM08','TOP_LEVEL_ASSEMBLY_PART')
);
#184=UNCERTAINTY_MEASURE_WITH_UNIT(LENGTH_MEASURE(0.005),#187,
'DISTANCE_ACCURACY_VALUE','Maximum Tolerance applied to model');
#185=(
NAMED_UNIT(*)
SI_UNIT($,.STERADIAN.)
SOLID_ANGLE_UNIT()
);
#186=(
NAMED_UNIT(*)
PLANE_ANGLE_UNIT()
SI_UNIT($,.RADIAN.)
);
#187=(
LENGTH_UNIT()
NAMED_UNIT(*)
SI_UNIT(.MILLI.,.METRE.)
);
#188=PRODUCT_DEFINITION_SHAPE('','',#189);
#189=PRODUCT_DEFINITION('','',#191,#190);
#190=PRODUCT_DEFINITION_CONTEXT('',#197,'design');
#191=PRODUCT_DEFINITION_FORMATION_WITH_SPECIFIED_SOURCE('','',#193,
 .NOT_KNOWN.);
#192=PRODUCT_RELATED_PRODUCT_CATEGORY('','',(#193));
#193=PRODUCT('051DC553030FM08','051DC553030FM08','051DC553030FM08',(#195));
#194=PRODUCT_CATEGORY('','');
#195=PRODUCT_CONTEXT('',#197,'mechanical');
#196=APPLICATION_PROTOCOL_DEFINITION('international standard',
'automotive_design',2010,#197);
#197=APPLICATION_CONTEXT(
'core data for automotive mechanical design processes');
ENDSEC;
END-ISO-10303-21;
