ISO-10303-21;
HEADER;
/* Generated by software containing ST-Developer
 * from STEP Tools, Inc. (www.steptools.com) 
 */
/* OPTION: using custom renumber hook */

FILE_DESCRIPTION(
/* description */ ('STEP AP214'),
/* implementation_level */ '2;1');

FILE_NAME(
/* name */ '098D030ZSG',
/* time_stamp */ '2022-07-14T16:36:26+02:00',
/* author */ ('License CC BY-ND 4.0'),
/* organization */ ('CADENAS'),
/* preprocessor_version */ 'ST-DEVELOPER v18.102',
/* originating_system */ 'PARTsolutions',
/* authorisation */ '  ');

FILE_SCHEMA (('AUTOMOTIVE_DESIGN {1 0 10303 214 3 1 1}'));
ENDSEC;

DATA;
#10=PROPERTY_DEFINITION_REPRESENTATION(#14,#12);
#11=PROPERTY_DEFINITION_REPRESENTATION(#15,#13);
#12=REPRESENTATION('',(#16),#584);
#13=REPRESENTATION('',(#17),#584);
#14=PROPERTY_DEFINITION('pmi validation property','',#589);
#15=PROPERTY_DEFINITION('pmi validation property','',#589);
#16=VALUE_REPRESENTATION_ITEM('number of annotations',COUNT_MEASURE(0.));
#17=VALUE_REPRESENTATION_ITEM('number of views',COUNT_MEASURE(0.));
#18=SHAPE_REPRESENTATION_RELATIONSHIP('','',#394,#19);
#19=ADVANCED_BREP_SHAPE_REPRESENTATION('',(#392),#584);
#20=CYLINDRICAL_SURFACE('',#412,10.5);
#21=CYLINDRICAL_SURFACE('',#420,4.);
#22=CYLINDRICAL_SURFACE('',#424,4.25);
#23=CYLINDRICAL_SURFACE('',#428,10.);
#24=CYLINDRICAL_SURFACE('',#434,5.);
#25=PLANE('',#402);
#26=PLANE('',#410);
#27=PLANE('',#422);
#28=PLANE('',#426);
#29=PLANE('',#432);
#30=PLANE('',#436);
#31=TOROIDAL_SURFACE('',#400,7.50000000000001,0.500000000000005);
#32=TOROIDAL_SURFACE('',#404,8.99383565779554,2.99999999999999);
#33=TOROIDAL_SURFACE('',#430,8.,2.);
#34=CONICAL_SURFACE('',#398,7.6,0.244978663126864);
#35=CONICAL_SURFACE('',#406,11.9253917449817,0.214018319657895);
#36=CONICAL_SURFACE('',#408,14.02,0.0798299857122375);
#37=CONICAL_SURFACE('',#414,10.5,0.263306549569161);
#38=CONICAL_SURFACE('',#416,9.57,1.2526428791858);
#39=CONICAL_SURFACE('',#418,7.9,0.772740611563396);
#40=ORIENTED_EDGE('',*,*,#80,.F.);
#41=ORIENTED_EDGE('',*,*,#81,.F.);
#42=ORIENTED_EDGE('',*,*,#80,.T.);
#43=ORIENTED_EDGE('',*,*,#81,.T.);
#44=ORIENTED_EDGE('',*,*,#82,.F.);
#45=ORIENTED_EDGE('',*,*,#83,.F.);
#46=ORIENTED_EDGE('',*,*,#82,.T.);
#47=ORIENTED_EDGE('',*,*,#83,.T.);
#48=ORIENTED_EDGE('',*,*,#84,.F.);
#49=ORIENTED_EDGE('',*,*,#85,.F.);
#50=ORIENTED_EDGE('',*,*,#84,.T.);
#51=ORIENTED_EDGE('',*,*,#86,.F.);
#52=ORIENTED_EDGE('',*,*,#85,.T.);
#53=ORIENTED_EDGE('',*,*,#87,.F.);
#54=ORIENTED_EDGE('',*,*,#86,.T.);
#55=ORIENTED_EDGE('',*,*,#88,.F.);
#56=ORIENTED_EDGE('',*,*,#87,.T.);
#57=ORIENTED_EDGE('',*,*,#89,.F.);
#58=ORIENTED_EDGE('',*,*,#88,.T.);
#59=ORIENTED_EDGE('',*,*,#90,.F.);
#60=ORIENTED_EDGE('',*,*,#89,.T.);
#61=ORIENTED_EDGE('',*,*,#91,.F.);
#62=ORIENTED_EDGE('',*,*,#90,.T.);
#63=ORIENTED_EDGE('',*,*,#92,.F.);
#64=ORIENTED_EDGE('',*,*,#91,.T.);
#65=ORIENTED_EDGE('',*,*,#93,.F.);
#66=ORIENTED_EDGE('',*,*,#92,.T.);
#67=ORIENTED_EDGE('',*,*,#94,.F.);
#68=ORIENTED_EDGE('',*,*,#93,.T.);
#69=ORIENTED_EDGE('',*,*,#95,.F.);
#70=ORIENTED_EDGE('',*,*,#94,.T.);
#71=ORIENTED_EDGE('',*,*,#96,.F.);
#72=ORIENTED_EDGE('',*,*,#95,.T.);
#73=ORIENTED_EDGE('',*,*,#96,.T.);
#74=ORIENTED_EDGE('',*,*,#97,.F.);
#75=ORIENTED_EDGE('',*,*,#98,.F.);
#76=ORIENTED_EDGE('',*,*,#97,.T.);
#77=ORIENTED_EDGE('',*,*,#99,.F.);
#78=ORIENTED_EDGE('',*,*,#98,.T.);
#79=ORIENTED_EDGE('',*,*,#99,.T.);
#80=EDGE_CURVE('',#100,#100,#120,.T.);
#81=EDGE_CURVE('',#101,#101,#121,.T.);
#82=EDGE_CURVE('',#102,#102,#122,.T.);
#83=EDGE_CURVE('',#103,#103,#123,.T.);
#84=EDGE_CURVE('',#104,#104,#124,.T.);
#85=EDGE_CURVE('',#105,#105,#125,.T.);
#86=EDGE_CURVE('',#106,#106,#126,.T.);
#87=EDGE_CURVE('',#107,#107,#127,.T.);
#88=EDGE_CURVE('',#108,#108,#128,.T.);
#89=EDGE_CURVE('',#109,#109,#129,.T.);
#90=EDGE_CURVE('',#110,#110,#130,.T.);
#91=EDGE_CURVE('',#111,#111,#131,.T.);
#92=EDGE_CURVE('',#112,#112,#132,.T.);
#93=EDGE_CURVE('',#113,#113,#133,.T.);
#94=EDGE_CURVE('',#114,#114,#134,.T.);
#95=EDGE_CURVE('',#115,#115,#135,.T.);
#96=EDGE_CURVE('',#116,#116,#136,.T.);
#97=EDGE_CURVE('',#117,#117,#137,.T.);
#98=EDGE_CURVE('',#118,#118,#138,.T.);
#99=EDGE_CURVE('',#119,#119,#139,.T.);
#100=VERTEX_POINT('',#524);
#101=VERTEX_POINT('',#527);
#102=VERTEX_POINT('',#530);
#103=VERTEX_POINT('',#533);
#104=VERTEX_POINT('',#536);
#105=VERTEX_POINT('',#539);
#106=VERTEX_POINT('',#542);
#107=VERTEX_POINT('',#545);
#108=VERTEX_POINT('',#548);
#109=VERTEX_POINT('',#551);
#110=VERTEX_POINT('',#554);
#111=VERTEX_POINT('',#557);
#112=VERTEX_POINT('',#560);
#113=VERTEX_POINT('',#563);
#114=VERTEX_POINT('',#566);
#115=VERTEX_POINT('',#569);
#116=VERTEX_POINT('',#572);
#117=VERTEX_POINT('',#575);
#118=VERTEX_POINT('',#578);
#119=VERTEX_POINT('',#581);
#120=CIRCLE('',#397,7.6);
#121=CIRCLE('',#399,7.);
#122=CIRCLE('',#401,7.5);
#123=CIRCLE('',#403,8.99383565779554);
#124=CIRCLE('',#405,11.9253917449817);
#125=CIRCLE('',#407,14.02);
#126=CIRCLE('',#409,14.5);
#127=CIRCLE('',#411,10.5);
#128=CIRCLE('',#413,10.5);
#129=CIRCLE('',#415,9.57);
#130=CIRCLE('',#417,7.9);
#131=CIRCLE('',#419,4.);
#132=CIRCLE('',#421,4.);
#133=CIRCLE('',#423,4.25);
#134=CIRCLE('',#425,4.25);
#135=CIRCLE('',#427,10.);
#136=CIRCLE('',#429,10.);
#137=CIRCLE('',#431,8.);
#138=CIRCLE('',#433,5.);
#139=CIRCLE('',#435,5.);
#140=EDGE_LOOP('',(#40));
#141=EDGE_LOOP('',(#41));
#142=EDGE_LOOP('',(#42));
#143=EDGE_LOOP('',(#43));
#144=EDGE_LOOP('',(#44));
#145=EDGE_LOOP('',(#45));
#146=EDGE_LOOP('',(#46));
#147=EDGE_LOOP('',(#47));
#148=EDGE_LOOP('',(#48));
#149=EDGE_LOOP('',(#49));
#150=EDGE_LOOP('',(#50));
#151=EDGE_LOOP('',(#51));
#152=EDGE_LOOP('',(#52));
#153=EDGE_LOOP('',(#53));
#154=EDGE_LOOP('',(#54));
#155=EDGE_LOOP('',(#55));
#156=EDGE_LOOP('',(#56));
#157=EDGE_LOOP('',(#57));
#158=EDGE_LOOP('',(#58));
#159=EDGE_LOOP('',(#59));
#160=EDGE_LOOP('',(#60));
#161=EDGE_LOOP('',(#61));
#162=EDGE_LOOP('',(#62));
#163=EDGE_LOOP('',(#63));
#164=EDGE_LOOP('',(#64));
#165=EDGE_LOOP('',(#65));
#166=EDGE_LOOP('',(#66));
#167=EDGE_LOOP('',(#67));
#168=EDGE_LOOP('',(#68));
#169=EDGE_LOOP('',(#69));
#170=EDGE_LOOP('',(#70));
#171=EDGE_LOOP('',(#71));
#172=EDGE_LOOP('',(#72));
#173=EDGE_LOOP('',(#73));
#174=EDGE_LOOP('',(#74));
#175=EDGE_LOOP('',(#75));
#176=EDGE_LOOP('',(#76));
#177=EDGE_LOOP('',(#77));
#178=EDGE_LOOP('',(#78));
#179=EDGE_LOOP('',(#79));
#180=FACE_BOUND('',#140,.T.);
#181=FACE_BOUND('',#141,.T.);
#182=FACE_BOUND('',#142,.T.);
#183=FACE_BOUND('',#143,.T.);
#184=FACE_BOUND('',#144,.T.);
#185=FACE_BOUND('',#145,.T.);
#186=FACE_BOUND('',#146,.T.);
#187=FACE_BOUND('',#147,.T.);
#188=FACE_BOUND('',#148,.T.);
#189=FACE_BOUND('',#149,.T.);
#190=FACE_BOUND('',#150,.T.);
#191=FACE_BOUND('',#151,.T.);
#192=FACE_BOUND('',#152,.T.);
#193=FACE_BOUND('',#153,.T.);
#194=FACE_BOUND('',#154,.T.);
#195=FACE_BOUND('',#155,.T.);
#196=FACE_BOUND('',#156,.T.);
#197=FACE_BOUND('',#157,.T.);
#198=FACE_BOUND('',#158,.T.);
#199=FACE_BOUND('',#159,.T.);
#200=FACE_BOUND('',#160,.T.);
#201=FACE_BOUND('',#161,.T.);
#202=FACE_BOUND('',#162,.T.);
#203=FACE_BOUND('',#163,.T.);
#204=FACE_BOUND('',#164,.T.);
#205=FACE_BOUND('',#165,.T.);
#206=FACE_BOUND('',#166,.T.);
#207=FACE_BOUND('',#167,.T.);
#208=FACE_BOUND('',#168,.T.);
#209=FACE_BOUND('',#169,.T.);
#210=FACE_BOUND('',#170,.T.);
#211=FACE_BOUND('',#171,.T.);
#212=FACE_BOUND('',#172,.T.);
#213=FACE_BOUND('',#173,.T.);
#214=FACE_BOUND('',#174,.T.);
#215=FACE_BOUND('',#175,.T.);
#216=FACE_BOUND('',#176,.T.);
#217=FACE_BOUND('',#177,.T.);
#218=FACE_BOUND('',#178,.T.);
#219=FACE_BOUND('',#179,.T.);
#220=SPHERICAL_SURFACE('',#396,7.6);
#221=STYLED_ITEM('',(#242),#370);
#222=STYLED_ITEM('',(#243),#371);
#223=STYLED_ITEM('',(#244),#372);
#224=STYLED_ITEM('',(#245),#373);
#225=STYLED_ITEM('',(#246),#374);
#226=STYLED_ITEM('',(#247),#375);
#227=STYLED_ITEM('',(#248),#376);
#228=STYLED_ITEM('',(#249),#377);
#229=STYLED_ITEM('',(#250),#378);
#230=STYLED_ITEM('',(#251),#379);
#231=STYLED_ITEM('',(#252),#380);
#232=STYLED_ITEM('',(#253),#381);
#233=STYLED_ITEM('',(#254),#382);
#234=STYLED_ITEM('',(#255),#383);
#235=STYLED_ITEM('',(#256),#384);
#236=STYLED_ITEM('',(#257),#385);
#237=STYLED_ITEM('',(#258),#386);
#238=STYLED_ITEM('',(#259),#387);
#239=STYLED_ITEM('',(#260),#388);
#240=STYLED_ITEM('',(#261),#389);
#241=STYLED_ITEM('',(#262),#390);
#242=PRESENTATION_STYLE_ASSIGNMENT((#263));
#243=PRESENTATION_STYLE_ASSIGNMENT((#264));
#244=PRESENTATION_STYLE_ASSIGNMENT((#265));
#245=PRESENTATION_STYLE_ASSIGNMENT((#266));
#246=PRESENTATION_STYLE_ASSIGNMENT((#267));
#247=PRESENTATION_STYLE_ASSIGNMENT((#268));
#248=PRESENTATION_STYLE_ASSIGNMENT((#269));
#249=PRESENTATION_STYLE_ASSIGNMENT((#270));
#250=PRESENTATION_STYLE_ASSIGNMENT((#271));
#251=PRESENTATION_STYLE_ASSIGNMENT((#272));
#252=PRESENTATION_STYLE_ASSIGNMENT((#273));
#253=PRESENTATION_STYLE_ASSIGNMENT((#274));
#254=PRESENTATION_STYLE_ASSIGNMENT((#275));
#255=PRESENTATION_STYLE_ASSIGNMENT((#276));
#256=PRESENTATION_STYLE_ASSIGNMENT((#277));
#257=PRESENTATION_STYLE_ASSIGNMENT((#278));
#258=PRESENTATION_STYLE_ASSIGNMENT((#279));
#259=PRESENTATION_STYLE_ASSIGNMENT((#280));
#260=PRESENTATION_STYLE_ASSIGNMENT((#281));
#261=PRESENTATION_STYLE_ASSIGNMENT((#282));
#262=PRESENTATION_STYLE_ASSIGNMENT((#283));
#263=SURFACE_STYLE_USAGE(.BOTH.,#284);
#264=SURFACE_STYLE_USAGE(.BOTH.,#285);
#265=SURFACE_STYLE_USAGE(.BOTH.,#286);
#266=SURFACE_STYLE_USAGE(.BOTH.,#287);
#267=SURFACE_STYLE_USAGE(.BOTH.,#288);
#268=SURFACE_STYLE_USAGE(.BOTH.,#289);
#269=SURFACE_STYLE_USAGE(.BOTH.,#290);
#270=SURFACE_STYLE_USAGE(.BOTH.,#291);
#271=SURFACE_STYLE_USAGE(.BOTH.,#292);
#272=SURFACE_STYLE_USAGE(.BOTH.,#293);
#273=SURFACE_STYLE_USAGE(.BOTH.,#294);
#274=SURFACE_STYLE_USAGE(.BOTH.,#295);
#275=SURFACE_STYLE_USAGE(.BOTH.,#296);
#276=SURFACE_STYLE_USAGE(.BOTH.,#297);
#277=SURFACE_STYLE_USAGE(.BOTH.,#298);
#278=SURFACE_STYLE_USAGE(.BOTH.,#299);
#279=SURFACE_STYLE_USAGE(.BOTH.,#300);
#280=SURFACE_STYLE_USAGE(.BOTH.,#301);
#281=SURFACE_STYLE_USAGE(.BOTH.,#302);
#282=SURFACE_STYLE_USAGE(.BOTH.,#303);
#283=SURFACE_STYLE_USAGE(.BOTH.,#304);
#284=SURFACE_SIDE_STYLE('',(#305));
#285=SURFACE_SIDE_STYLE('',(#306));
#286=SURFACE_SIDE_STYLE('',(#307));
#287=SURFACE_SIDE_STYLE('',(#308));
#288=SURFACE_SIDE_STYLE('',(#309));
#289=SURFACE_SIDE_STYLE('',(#310));
#290=SURFACE_SIDE_STYLE('',(#311));
#291=SURFACE_SIDE_STYLE('',(#312));
#292=SURFACE_SIDE_STYLE('',(#313));
#293=SURFACE_SIDE_STYLE('',(#314));
#294=SURFACE_SIDE_STYLE('',(#315));
#295=SURFACE_SIDE_STYLE('',(#316));
#296=SURFACE_SIDE_STYLE('',(#317));
#297=SURFACE_SIDE_STYLE('',(#318));
#298=SURFACE_SIDE_STYLE('',(#319));
#299=SURFACE_SIDE_STYLE('',(#320));
#300=SURFACE_SIDE_STYLE('',(#321));
#301=SURFACE_SIDE_STYLE('',(#322));
#302=SURFACE_SIDE_STYLE('',(#323));
#303=SURFACE_SIDE_STYLE('',(#324));
#304=SURFACE_SIDE_STYLE('',(#325));
#305=SURFACE_STYLE_FILL_AREA(#326);
#306=SURFACE_STYLE_FILL_AREA(#327);
#307=SURFACE_STYLE_FILL_AREA(#328);
#308=SURFACE_STYLE_FILL_AREA(#329);
#309=SURFACE_STYLE_FILL_AREA(#330);
#310=SURFACE_STYLE_FILL_AREA(#331);
#311=SURFACE_STYLE_FILL_AREA(#332);
#312=SURFACE_STYLE_FILL_AREA(#333);
#313=SURFACE_STYLE_FILL_AREA(#334);
#314=SURFACE_STYLE_FILL_AREA(#335);
#315=SURFACE_STYLE_FILL_AREA(#336);
#316=SURFACE_STYLE_FILL_AREA(#337);
#317=SURFACE_STYLE_FILL_AREA(#338);
#318=SURFACE_STYLE_FILL_AREA(#339);
#319=SURFACE_STYLE_FILL_AREA(#340);
#320=SURFACE_STYLE_FILL_AREA(#341);
#321=SURFACE_STYLE_FILL_AREA(#342);
#322=SURFACE_STYLE_FILL_AREA(#343);
#323=SURFACE_STYLE_FILL_AREA(#344);
#324=SURFACE_STYLE_FILL_AREA(#345);
#325=SURFACE_STYLE_FILL_AREA(#346);
#326=FILL_AREA_STYLE('',(#347));
#327=FILL_AREA_STYLE('',(#348));
#328=FILL_AREA_STYLE('',(#349));
#329=FILL_AREA_STYLE('',(#350));
#330=FILL_AREA_STYLE('',(#351));
#331=FILL_AREA_STYLE('',(#352));
#332=FILL_AREA_STYLE('',(#353));
#333=FILL_AREA_STYLE('',(#354));
#334=FILL_AREA_STYLE('',(#355));
#335=FILL_AREA_STYLE('',(#356));
#336=FILL_AREA_STYLE('',(#357));
#337=FILL_AREA_STYLE('',(#358));
#338=FILL_AREA_STYLE('',(#359));
#339=FILL_AREA_STYLE('',(#360));
#340=FILL_AREA_STYLE('',(#361));
#341=FILL_AREA_STYLE('',(#362));
#342=FILL_AREA_STYLE('',(#363));
#343=FILL_AREA_STYLE('',(#364));
#344=FILL_AREA_STYLE('',(#365));
#345=FILL_AREA_STYLE('',(#366));
#346=FILL_AREA_STYLE('',(#367));
#347=FILL_AREA_STYLE_COLOUR('',#368);
#348=FILL_AREA_STYLE_COLOUR('',#368);
#349=FILL_AREA_STYLE_COLOUR('',#368);
#350=FILL_AREA_STYLE_COLOUR('',#368);
#351=FILL_AREA_STYLE_COLOUR('',#368);
#352=FILL_AREA_STYLE_COLOUR('',#368);
#353=FILL_AREA_STYLE_COLOUR('',#368);
#354=FILL_AREA_STYLE_COLOUR('',#368);
#355=FILL_AREA_STYLE_COLOUR('',#368);
#356=FILL_AREA_STYLE_COLOUR('',#368);
#357=FILL_AREA_STYLE_COLOUR('',#368);
#358=FILL_AREA_STYLE_COLOUR('',#368);
#359=FILL_AREA_STYLE_COLOUR('',#368);
#360=FILL_AREA_STYLE_COLOUR('',#369);
#361=FILL_AREA_STYLE_COLOUR('',#369);
#362=FILL_AREA_STYLE_COLOUR('',#369);
#363=FILL_AREA_STYLE_COLOUR('',#369);
#364=FILL_AREA_STYLE_COLOUR('',#369);
#365=FILL_AREA_STYLE_COLOUR('',#369);
#366=FILL_AREA_STYLE_COLOUR('',#369);
#367=FILL_AREA_STYLE_COLOUR('',#369);
#368=COLOUR_RGB('',0.7294117808342,0.76862746477127,0.7843137383461);
#369=COLOUR_RGB('',0.054901961237192,0.054901961237192,0.062745101749897);
#370=ADVANCED_FACE('',(#180),#220,.F.);
#371=ADVANCED_FACE('',(#181,#182),#34,.F.);
#372=ADVANCED_FACE('',(#183,#184),#31,.T.);
#373=ADVANCED_FACE('',(#185,#186),#25,.F.);
#374=ADVANCED_FACE('',(#187,#188),#32,.T.);
#375=ADVANCED_FACE('',(#189,#190),#35,.T.);
#376=ADVANCED_FACE('',(#191,#192),#36,.T.);
#377=ADVANCED_FACE('',(#193,#194),#26,.F.);
#378=ADVANCED_FACE('',(#195,#196),#20,.F.);
#379=ADVANCED_FACE('',(#197,#198),#37,.F.);
#380=ADVANCED_FACE('',(#199,#200),#38,.F.);
#381=ADVANCED_FACE('',(#201,#202),#39,.T.);
#382=ADVANCED_FACE('',(#203,#204),#21,.T.);
#383=ADVANCED_FACE('',(#205,#206),#27,.F.);
#384=ADVANCED_FACE('',(#207,#208),#22,.F.);
#385=ADVANCED_FACE('',(#209,#210),#28,.F.);
#386=ADVANCED_FACE('',(#211,#212),#23,.T.);
#387=ADVANCED_FACE('',(#213,#214),#33,.T.);
#388=ADVANCED_FACE('',(#215,#216),#29,.F.);
#389=ADVANCED_FACE('',(#217,#218),#24,.F.);
#390=ADVANCED_FACE('',(#219),#30,.F.);
#391=CLOSED_SHELL('',(#370,#371,#372,#373,#374,#375,#376,#377,#378,#379,
#380,#381,#382,#383,#384,#385,#386,#387,#388,#389,#390));
#392=MANIFOLD_SOLID_BREP('098D030ZSG',#391);
#393=SHAPE_DEFINITION_REPRESENTATION(#589,#394);
#394=SHAPE_REPRESENTATION('098D030ZSG',(#395),#584);
#395=AXIS2_PLACEMENT_3D('',#521,#437,#438);
#396=AXIS2_PLACEMENT_3D('',#522,#439,#440);
#397=AXIS2_PLACEMENT_3D('',#523,#441,#442);
#398=AXIS2_PLACEMENT_3D('',#525,#443,#444);
#399=AXIS2_PLACEMENT_3D('',#526,#445,#446);
#400=AXIS2_PLACEMENT_3D('',#528,#447,#448);
#401=AXIS2_PLACEMENT_3D('',#529,#449,#450);
#402=AXIS2_PLACEMENT_3D('',#531,#451,#452);
#403=AXIS2_PLACEMENT_3D('',#532,#453,#454);
#404=AXIS2_PLACEMENT_3D('',#534,#455,#456);
#405=AXIS2_PLACEMENT_3D('',#535,#457,#458);
#406=AXIS2_PLACEMENT_3D('',#537,#459,#460);
#407=AXIS2_PLACEMENT_3D('',#538,#461,#462);
#408=AXIS2_PLACEMENT_3D('',#540,#463,#464);
#409=AXIS2_PLACEMENT_3D('',#541,#465,#466);
#410=AXIS2_PLACEMENT_3D('',#543,#467,#468);
#411=AXIS2_PLACEMENT_3D('',#544,#469,#470);
#412=AXIS2_PLACEMENT_3D('',#546,#471,#472);
#413=AXIS2_PLACEMENT_3D('',#547,#473,#474);
#414=AXIS2_PLACEMENT_3D('',#549,#475,#476);
#415=AXIS2_PLACEMENT_3D('',#550,#477,#478);
#416=AXIS2_PLACEMENT_3D('',#552,#479,#480);
#417=AXIS2_PLACEMENT_3D('',#553,#481,#482);
#418=AXIS2_PLACEMENT_3D('',#555,#483,#484);
#419=AXIS2_PLACEMENT_3D('',#556,#485,#486);
#420=AXIS2_PLACEMENT_3D('',#558,#487,#488);
#421=AXIS2_PLACEMENT_3D('',#559,#489,#490);
#422=AXIS2_PLACEMENT_3D('',#561,#491,#492);
#423=AXIS2_PLACEMENT_3D('',#562,#493,#494);
#424=AXIS2_PLACEMENT_3D('',#564,#495,#496);
#425=AXIS2_PLACEMENT_3D('',#565,#497,#498);
#426=AXIS2_PLACEMENT_3D('',#567,#499,#500);
#427=AXIS2_PLACEMENT_3D('',#568,#501,#502);
#428=AXIS2_PLACEMENT_3D('',#570,#503,#504);
#429=AXIS2_PLACEMENT_3D('',#571,#505,#506);
#430=AXIS2_PLACEMENT_3D('',#573,#507,#508);
#431=AXIS2_PLACEMENT_3D('',#574,#509,#510);
#432=AXIS2_PLACEMENT_3D('',#576,#511,#512);
#433=AXIS2_PLACEMENT_3D('',#577,#513,#514);
#434=AXIS2_PLACEMENT_3D('',#579,#515,#516);
#435=AXIS2_PLACEMENT_3D('',#580,#517,#518);
#436=AXIS2_PLACEMENT_3D('',#582,#519,#520);
#437=DIRECTION('',(0.,0.,1.));
#438=DIRECTION('',(1.,0.,0.));
#439=DIRECTION('',(0.,-1.,0.));
#440=DIRECTION('',(-1.,0.,0.));
#441=DIRECTION('',(0.,-1.,0.));
#442=DIRECTION('',(0.,0.,-1.));
#443=DIRECTION('',(0.,-1.,0.));
#444=DIRECTION('',(0.,0.,-1.));
#445=DIRECTION('',(0.,-1.,0.));
#446=DIRECTION('',(0.,0.,-1.));
#447=DIRECTION('',(0.,-1.,0.));
#448=DIRECTION('',(0.,0.,-1.));
#449=DIRECTION('',(0.,-1.,0.));
#450=DIRECTION('',(0.,0.,-1.));
#451=DIRECTION('',(0.,-1.,0.));
#452=DIRECTION('',(0.,0.,-1.));
#453=DIRECTION('',(0.,-1.,0.));
#454=DIRECTION('',(0.,0.,-1.));
#455=DIRECTION('',(0.,-1.,0.));
#456=DIRECTION('',(0.,0.,-1.));
#457=DIRECTION('',(0.,-1.,0.));
#458=DIRECTION('',(0.,0.,-1.));
#459=DIRECTION('',(0.,-1.,0.));
#460=DIRECTION('',(0.,0.,-1.));
#461=DIRECTION('',(0.,-1.,0.));
#462=DIRECTION('',(0.,0.,-1.));
#463=DIRECTION('',(0.,-1.,0.));
#464=DIRECTION('',(0.,0.,-1.));
#465=DIRECTION('',(0.,-1.,0.));
#466=DIRECTION('',(0.,0.,-1.));
#467=DIRECTION('',(0.,1.,0.));
#468=DIRECTION('',(0.,0.,1.));
#469=DIRECTION('',(0.,-1.,0.));
#470=DIRECTION('',(0.,0.,-1.));
#471=DIRECTION('',(0.,-1.,0.));
#472=DIRECTION('',(0.,0.,-1.));
#473=DIRECTION('',(0.,-1.,0.));
#474=DIRECTION('',(0.,0.,-1.));
#475=DIRECTION('',(0.,-1.,0.));
#476=DIRECTION('',(0.,0.,-1.));
#477=DIRECTION('',(0.,-1.,0.));
#478=DIRECTION('',(0.,0.,-1.));
#479=DIRECTION('',(0.,-1.,0.));
#480=DIRECTION('',(0.,0.,-1.));
#481=DIRECTION('',(0.,-1.,0.));
#482=DIRECTION('',(0.,0.,-1.));
#483=DIRECTION('',(0.,1.,0.));
#484=DIRECTION('',(0.,0.,1.));
#485=DIRECTION('',(0.,-1.,0.));
#486=DIRECTION('',(0.,0.,-1.));
#487=DIRECTION('',(0.,-1.,0.));
#488=DIRECTION('',(0.,0.,-1.));
#489=DIRECTION('',(0.,-1.,0.));
#490=DIRECTION('',(0.,0.,-1.));
#491=DIRECTION('',(0.,-1.,0.));
#492=DIRECTION('',(0.,0.,-1.));
#493=DIRECTION('',(0.,-1.,0.));
#494=DIRECTION('',(0.,0.,-1.));
#495=DIRECTION('',(0.,-1.,0.));
#496=DIRECTION('',(0.,0.,-1.));
#497=DIRECTION('',(0.,-1.,0.));
#498=DIRECTION('',(0.,0.,-1.));
#499=DIRECTION('',(0.,-1.,0.));
#500=DIRECTION('',(0.,0.,-1.));
#501=DIRECTION('',(0.,-1.,0.));
#502=DIRECTION('',(0.,0.,-1.));
#503=DIRECTION('',(0.,-1.,0.));
#504=DIRECTION('',(0.,0.,-1.));
#505=DIRECTION('',(0.,-1.,0.));
#506=DIRECTION('',(0.,0.,-1.));
#507=DIRECTION('',(0.,-1.,0.));
#508=DIRECTION('',(0.,0.,-1.));
#509=DIRECTION('',(0.,-1.,0.));
#510=DIRECTION('',(0.,0.,-1.));
#511=DIRECTION('',(0.,1.,0.));
#512=DIRECTION('',(0.,0.,1.));
#513=DIRECTION('',(0.,-1.,0.));
#514=DIRECTION('',(0.,0.,-1.));
#515=DIRECTION('',(0.,-1.,0.));
#516=DIRECTION('',(0.,0.,-1.));
#517=DIRECTION('',(0.,-1.,0.));
#518=DIRECTION('',(0.,0.,-1.));
#519=DIRECTION('',(0.,1.,0.));
#520=DIRECTION('',(0.,0.,1.));
#521=CARTESIAN_POINT('',(0.,0.,0.));
#522=CARTESIAN_POINT('',(-1.30104260698261E-15,15.1,0.));
#523=CARTESIAN_POINT('',(0.,15.1,0.));
#524=CARTESIAN_POINT('',(0.,15.1,-7.6));
#525=CARTESIAN_POINT('',(0.,15.1,0.));
#526=CARTESIAN_POINT('',(0.,17.5,0.));
#527=CARTESIAN_POINT('',(0.,17.5,-7.));
#528=CARTESIAN_POINT('',(0.,17.5,0.));
#529=CARTESIAN_POINT('',(0.,18.,0.));
#530=CARTESIAN_POINT('',(0.,18.,-7.5));
#531=CARTESIAN_POINT('',(7.5,18.,0.));
#532=CARTESIAN_POINT('',(0.,18.,0.));
#533=CARTESIAN_POINT('',(0.,18.,-8.99383565779554));
#534=CARTESIAN_POINT('',(0.,15.,0.));
#535=CARTESIAN_POINT('',(0.,15.6371647413986,0.));
#536=CARTESIAN_POINT('',(0.,15.6371647413986,-11.9253917449817));
#537=CARTESIAN_POINT('',(0.,15.6371647413986,0.));
#538=CARTESIAN_POINT('',(0.,6.,0.));
#539=CARTESIAN_POINT('',(0.,6.,-14.02));
#540=CARTESIAN_POINT('',(0.,6.,0.));
#541=CARTESIAN_POINT('',(0.,0.,0.));
#542=CARTESIAN_POINT('',(0.,0.,-14.5));
#543=CARTESIAN_POINT('',(14.5,0.,0.));
#544=CARTESIAN_POINT('',(0.,0.,0.));
#545=CARTESIAN_POINT('',(0.,0.,-10.5));
#546=CARTESIAN_POINT('',(0.,0.,0.));
#547=CARTESIAN_POINT('',(0.,5.,0.));
#548=CARTESIAN_POINT('',(0.,5.,-10.5));
#549=CARTESIAN_POINT('',(0.,5.,0.));
#550=CARTESIAN_POINT('',(0.,8.45,0.));
#551=CARTESIAN_POINT('',(0.,8.45,-9.57));
#552=CARTESIAN_POINT('',(0.,8.45,0.));
#553=CARTESIAN_POINT('',(0.,9.,0.));
#554=CARTESIAN_POINT('',(0.,9.,-7.9));
#555=CARTESIAN_POINT('',(0.,9.,0.));
#556=CARTESIAN_POINT('',(0.,5.,0.));
#557=CARTESIAN_POINT('',(0.,5.,-4.));
#558=CARTESIAN_POINT('',(0.,0.,0.));
#559=CARTESIAN_POINT('',(0.,0.5,0.));
#560=CARTESIAN_POINT('',(0.,0.5,-4.));
#561=CARTESIAN_POINT('',(0.,0.5,0.));
#562=CARTESIAN_POINT('',(0.,0.5,0.));
#563=CARTESIAN_POINT('',(0.,0.5,-4.25));
#564=CARTESIAN_POINT('',(0.,-2.,0.));
#565=CARTESIAN_POINT('',(0.,5.,0.));
#566=CARTESIAN_POINT('',(0.,5.,-4.25));
#567=CARTESIAN_POINT('',(4.25,5.,0.));
#568=CARTESIAN_POINT('',(0.,5.,0.));
#569=CARTESIAN_POINT('',(0.,5.,-10.));
#570=CARTESIAN_POINT('',(0.,-2.,0.));
#571=CARTESIAN_POINT('',(0.,0.,0.));
#572=CARTESIAN_POINT('',(0.,0.,-10.));
#573=CARTESIAN_POINT('',(0.,1.84314369322536E-15,0.));
#574=CARTESIAN_POINT('',(0.,-2.,0.));
#575=CARTESIAN_POINT('',(0.,-2.,-8.));
#576=CARTESIAN_POINT('',(8.,-2.,0.));
#577=CARTESIAN_POINT('',(0.,-2.,0.));
#578=CARTESIAN_POINT('',(0.,-2.,-5.));
#579=CARTESIAN_POINT('',(0.,-2.,0.));
#580=CARTESIAN_POINT('',(0.,-1.6,0.));
#581=CARTESIAN_POINT('',(0.,-1.6,-5.));
#582=CARTESIAN_POINT('',(5.,-1.6,0.));
#583=MECHANICAL_DESIGN_GEOMETRIC_PRESENTATION_REPRESENTATION('',(#221,#222,
#223,#224,#225,#226,#227,#228,#229,#230,#231,#232,#233,#234,#235,#236,#237,
#238,#239,#240,#241),#584);
#584=(
GEOMETRIC_REPRESENTATION_CONTEXT(3)
GLOBAL_UNCERTAINTY_ASSIGNED_CONTEXT((#585))
GLOBAL_UNIT_ASSIGNED_CONTEXT((#588,#587,#586))
REPRESENTATION_CONTEXT('098D030ZSG','TOP_LEVEL_ASSEMBLY_PART')
);
#585=UNCERTAINTY_MEASURE_WITH_UNIT(LENGTH_MEASURE(0.005),#588,
'DISTANCE_ACCURACY_VALUE','Maximum Tolerance applied to model');
#586=(
NAMED_UNIT(*)
SI_UNIT($,.STERADIAN.)
SOLID_ANGLE_UNIT()
);
#587=(
NAMED_UNIT(*)
PLANE_ANGLE_UNIT()
SI_UNIT($,.RADIAN.)
);
#588=(
LENGTH_UNIT()
NAMED_UNIT(*)
SI_UNIT(.MILLI.,.METRE.)
);
#589=PRODUCT_DEFINITION_SHAPE('','',#590);
#590=PRODUCT_DEFINITION('','',#592,#591);
#591=PRODUCT_DEFINITION_CONTEXT('',#598,'design');
#592=PRODUCT_DEFINITION_FORMATION_WITH_SPECIFIED_SOURCE('','',#594,
 .NOT_KNOWN.);
#593=PRODUCT_RELATED_PRODUCT_CATEGORY('','',(#594));
#594=PRODUCT('098D030ZSG','098D030ZSG','098D030ZSG',(#596));
#595=PRODUCT_CATEGORY('','');
#596=PRODUCT_CONTEXT('',#598,'mechanical');
#597=APPLICATION_PROTOCOL_DEFINITION('international standard',
'automotive_design',2010,#598);
#598=APPLICATION_CONTEXT(
'core data for automotive mechanical design processes');
ENDSEC;
END-ISO-10303-21;
