ISO-10303-21;
HEADER;
/* Generated by software containing ST-Developer
 * from STEP Tools, Inc. (www.steptools.com) 
 */
/* OPTION: using custom renumber hook */

FILE_DESCRIPTION(
/* description */ ('STEP AP214'),
/* implementation_level */ '2;1');

FILE_NAME(
/* name */ '098D040ZSG',
/* time_stamp */ '2022-07-14T16:36:35+02:00',
/* author */ ('License CC BY-ND 4.0'),
/* organization */ ('CADENAS'),
/* preprocessor_version */ 'ST-DEVELOPER v18.102',
/* originating_system */ 'PARTsolutions',
/* authorisation */ '  ');

FILE_SCHEMA (('AUTOMOTIVE_DESIGN {1 0 10303 214 3 1 1}'));
ENDSEC;

DATA;
#10=PROPERTY_DEFINITION_REPRESENTATION(#14,#12);
#11=PROPERTY_DEFINITION_REPRESENTATION(#15,#13);
#12=REPRESENTATION('',(#16),#518);
#13=REPRESENTATION('',(#17),#518);
#14=PROPERTY_DEFINITION('pmi validation property','',#523);
#15=PROPERTY_DEFINITION('pmi validation property','',#523);
#16=VALUE_REPRESENTATION_ITEM('number of annotations',COUNT_MEASURE(0.));
#17=VALUE_REPRESENTATION_ITEM('number of views',COUNT_MEASURE(0.));
#18=SHAPE_REPRESENTATION_RELATIONSHIP('','',#351,#19);
#19=ADVANCED_BREP_SHAPE_REPRESENTATION('',(#349),#518);
#20=ORIENTED_CLOSED_SHELL('',*,#348,.F.);
#21=SPHERICAL_SURFACE('',#383,7.6);
#22=DEGENERATE_TOROIDAL_SURFACE('',#373,59.7499999999947,89.9999999999937,
 .F.);
#23=CONICAL_SURFACE('',#369,18.8608713058075,0.101092512440198);
#24=CONICAL_SURFACE('',#381,7.6,0.244978663126864);
#25=PLANE('',#358);
#26=PLANE('',#362);
#27=PLANE('',#363);
#28=PLANE('',#367);
#29=PLANE('',#377);
#30=PLANE('',#384);
#31=PLANE('',#386);
#32=TOROIDAL_SURFACE('',#356,13.,2.);
#33=TOROIDAL_SURFACE('',#371,15.8761877990878,3.00000000000006);
#34=TOROIDAL_SURFACE('',#375,9.99209560946674,3.00000000000001);
#35=TOROIDAL_SURFACE('',#379,7.50000000000001,0.500000000000005);
#36=ORIENTED_EDGE('',*,*,#70,.F.);
#37=ORIENTED_EDGE('',*,*,#71,.T.);
#38=ORIENTED_EDGE('',*,*,#70,.T.);
#39=ORIENTED_EDGE('',*,*,#72,.F.);
#40=ORIENTED_EDGE('',*,*,#73,.F.);
#41=ORIENTED_EDGE('',*,*,#72,.T.);
#42=ORIENTED_EDGE('',*,*,#74,.F.);
#43=ORIENTED_EDGE('',*,*,#73,.T.);
#44=ORIENTED_EDGE('',*,*,#74,.T.);
#45=ORIENTED_EDGE('',*,*,#71,.F.);
#46=ORIENTED_EDGE('',*,*,#75,.T.);
#47=ORIENTED_EDGE('',*,*,#75,.F.);
#48=ORIENTED_EDGE('',*,*,#76,.T.);
#49=ORIENTED_EDGE('',*,*,#76,.F.);
#50=ORIENTED_EDGE('',*,*,#77,.T.);
#51=ORIENTED_EDGE('',*,*,#77,.F.);
#52=ORIENTED_EDGE('',*,*,#78,.T.);
#53=ORIENTED_EDGE('',*,*,#79,.T.);
#54=ORIENTED_EDGE('',*,*,#78,.F.);
#55=ORIENTED_EDGE('',*,*,#80,.T.);
#56=ORIENTED_EDGE('',*,*,#79,.F.);
#57=ORIENTED_EDGE('',*,*,#81,.T.);
#58=ORIENTED_EDGE('',*,*,#80,.F.);
#59=ORIENTED_EDGE('',*,*,#81,.F.);
#60=ORIENTED_EDGE('',*,*,#82,.T.);
#61=ORIENTED_EDGE('',*,*,#83,.T.);
#62=ORIENTED_EDGE('',*,*,#82,.F.);
#63=ORIENTED_EDGE('',*,*,#83,.F.);
#64=ORIENTED_EDGE('',*,*,#84,.T.);
#65=ORIENTED_EDGE('',*,*,#84,.F.);
#66=ORIENTED_EDGE('',*,*,#85,.T.);
#67=ORIENTED_EDGE('',*,*,#86,.F.);
#68=ORIENTED_EDGE('',*,*,#85,.F.);
#69=ORIENTED_EDGE('',*,*,#86,.T.);
#70=EDGE_CURVE('',#87,#87,#104,.T.);
#71=EDGE_CURVE('',#88,#88,#105,.T.);
#72=EDGE_CURVE('',#89,#89,#106,.T.);
#73=EDGE_CURVE('',#90,#90,#107,.T.);
#74=EDGE_CURVE('',#91,#91,#108,.T.);
#75=EDGE_CURVE('',#92,#92,#109,.T.);
#76=EDGE_CURVE('',#93,#93,#110,.T.);
#77=EDGE_CURVE('',#94,#94,#111,.T.);
#78=EDGE_CURVE('',#95,#95,#112,.T.);
#79=EDGE_CURVE('',#96,#96,#113,.T.);
#80=EDGE_CURVE('',#97,#97,#114,.T.);
#81=EDGE_CURVE('',#98,#98,#115,.T.);
#82=EDGE_CURVE('',#99,#99,#116,.T.);
#83=EDGE_CURVE('',#100,#100,#117,.T.);
#84=EDGE_CURVE('',#101,#101,#118,.T.);
#85=EDGE_CURVE('',#102,#102,#119,.T.);
#86=EDGE_CURVE('',#103,#103,#120,.T.);
#87=VERTEX_POINT('',#466);
#88=VERTEX_POINT('',#468);
#89=VERTEX_POINT('',#471);
#90=VERTEX_POINT('',#474);
#91=VERTEX_POINT('',#477);
#92=VERTEX_POINT('',#481);
#93=VERTEX_POINT('',#484);
#94=VERTEX_POINT('',#487);
#95=VERTEX_POINT('',#490);
#96=VERTEX_POINT('',#493);
#97=VERTEX_POINT('',#496);
#98=VERTEX_POINT('',#499);
#99=VERTEX_POINT('',#502);
#100=VERTEX_POINT('',#505);
#101=VERTEX_POINT('',#508);
#102=VERTEX_POINT('',#512);
#103=VERTEX_POINT('',#515);
#104=CIRCLE('',#354,15.);
#105=CIRCLE('',#355,15.);
#106=CIRCLE('',#357,13.);
#107=CIRCLE('',#359,7.5);
#108=CIRCLE('',#361,7.5);
#109=CIRCLE('',#364,16.);
#110=CIRCLE('',#366,16.);
#111=CIRCLE('',#368,19.5);
#112=CIRCLE('',#370,18.8608713058075);
#113=CIRCLE('',#372,18.4839873783667);
#114=CIRCLE('',#374,12.396995458069);
#115=CIRCLE('',#376,9.99209560946675);
#116=CIRCLE('',#378,7.5);
#117=CIRCLE('',#380,7.);
#118=CIRCLE('',#382,7.6);
#119=CIRCLE('',#385,7.5);
#120=CIRCLE('',#387,7.5);
#121=EDGE_LOOP('',(#36));
#122=EDGE_LOOP('',(#37));
#123=EDGE_LOOP('',(#38));
#124=EDGE_LOOP('',(#39));
#125=EDGE_LOOP('',(#40));
#126=EDGE_LOOP('',(#41));
#127=EDGE_LOOP('',(#42));
#128=EDGE_LOOP('',(#43));
#129=EDGE_LOOP('',(#44));
#130=EDGE_LOOP('',(#45));
#131=EDGE_LOOP('',(#46));
#132=EDGE_LOOP('',(#47));
#133=EDGE_LOOP('',(#48));
#134=EDGE_LOOP('',(#49));
#135=EDGE_LOOP('',(#50));
#136=EDGE_LOOP('',(#51));
#137=EDGE_LOOP('',(#52));
#138=EDGE_LOOP('',(#53));
#139=EDGE_LOOP('',(#54));
#140=EDGE_LOOP('',(#55));
#141=EDGE_LOOP('',(#56));
#142=EDGE_LOOP('',(#57));
#143=EDGE_LOOP('',(#58));
#144=EDGE_LOOP('',(#59));
#145=EDGE_LOOP('',(#60));
#146=EDGE_LOOP('',(#61));
#147=EDGE_LOOP('',(#62));
#148=EDGE_LOOP('',(#63));
#149=EDGE_LOOP('',(#64));
#150=EDGE_LOOP('',(#65));
#151=EDGE_LOOP('',(#66));
#152=EDGE_LOOP('',(#67));
#153=EDGE_LOOP('',(#68));
#154=EDGE_LOOP('',(#69));
#155=FACE_BOUND('',#121,.T.);
#156=FACE_BOUND('',#122,.T.);
#157=FACE_BOUND('',#123,.T.);
#158=FACE_BOUND('',#124,.T.);
#159=FACE_BOUND('',#125,.T.);
#160=FACE_BOUND('',#126,.T.);
#161=FACE_BOUND('',#127,.T.);
#162=FACE_BOUND('',#128,.T.);
#163=FACE_BOUND('',#129,.T.);
#164=FACE_BOUND('',#130,.T.);
#165=FACE_BOUND('',#131,.T.);
#166=FACE_BOUND('',#132,.T.);
#167=FACE_BOUND('',#133,.T.);
#168=FACE_BOUND('',#134,.T.);
#169=FACE_BOUND('',#135,.T.);
#170=FACE_BOUND('',#136,.T.);
#171=FACE_BOUND('',#137,.T.);
#172=FACE_BOUND('',#138,.T.);
#173=FACE_BOUND('',#139,.T.);
#174=FACE_BOUND('',#140,.T.);
#175=FACE_BOUND('',#141,.T.);
#176=FACE_BOUND('',#142,.T.);
#177=FACE_BOUND('',#143,.T.);
#178=FACE_BOUND('',#144,.T.);
#179=FACE_BOUND('',#145,.T.);
#180=FACE_BOUND('',#146,.T.);
#181=FACE_BOUND('',#147,.T.);
#182=FACE_BOUND('',#148,.T.);
#183=FACE_BOUND('',#149,.T.);
#184=FACE_BOUND('',#150,.T.);
#185=FACE_BOUND('',#151,.T.);
#186=FACE_BOUND('',#152,.T.);
#187=FACE_BOUND('',#153,.T.);
#188=FACE_BOUND('',#154,.T.);
#189=CYLINDRICAL_SURFACE('',#353,15.);
#190=CYLINDRICAL_SURFACE('',#360,7.5);
#191=CYLINDRICAL_SURFACE('',#365,16.);
#192=CYLINDRICAL_SURFACE('',#388,7.5);
#193=STYLED_ITEM('',(#212),#328);
#194=STYLED_ITEM('',(#213),#329);
#195=STYLED_ITEM('',(#214),#330);
#196=STYLED_ITEM('',(#215),#331);
#197=STYLED_ITEM('',(#216),#332);
#198=STYLED_ITEM('',(#217),#333);
#199=STYLED_ITEM('',(#218),#334);
#200=STYLED_ITEM('',(#219),#335);
#201=STYLED_ITEM('',(#220),#336);
#202=STYLED_ITEM('',(#221),#337);
#203=STYLED_ITEM('',(#222),#338);
#204=STYLED_ITEM('',(#223),#339);
#205=STYLED_ITEM('',(#224),#340);
#206=STYLED_ITEM('',(#225),#341);
#207=STYLED_ITEM('',(#226),#342);
#208=STYLED_ITEM('',(#227),#343);
#209=STYLED_ITEM('',(#228),#344);
#210=STYLED_ITEM('',(#229),#345);
#211=STYLED_ITEM('',(#230),#346);
#212=PRESENTATION_STYLE_ASSIGNMENT((#231));
#213=PRESENTATION_STYLE_ASSIGNMENT((#232));
#214=PRESENTATION_STYLE_ASSIGNMENT((#233));
#215=PRESENTATION_STYLE_ASSIGNMENT((#234));
#216=PRESENTATION_STYLE_ASSIGNMENT((#235));
#217=PRESENTATION_STYLE_ASSIGNMENT((#236));
#218=PRESENTATION_STYLE_ASSIGNMENT((#237));
#219=PRESENTATION_STYLE_ASSIGNMENT((#238));
#220=PRESENTATION_STYLE_ASSIGNMENT((#239));
#221=PRESENTATION_STYLE_ASSIGNMENT((#240));
#222=PRESENTATION_STYLE_ASSIGNMENT((#241));
#223=PRESENTATION_STYLE_ASSIGNMENT((#242));
#224=PRESENTATION_STYLE_ASSIGNMENT((#243));
#225=PRESENTATION_STYLE_ASSIGNMENT((#244));
#226=PRESENTATION_STYLE_ASSIGNMENT((#245));
#227=PRESENTATION_STYLE_ASSIGNMENT((#246));
#228=PRESENTATION_STYLE_ASSIGNMENT((#247));
#229=PRESENTATION_STYLE_ASSIGNMENT((#248));
#230=PRESENTATION_STYLE_ASSIGNMENT((#249));
#231=SURFACE_STYLE_USAGE(.BOTH.,#250);
#232=SURFACE_STYLE_USAGE(.BOTH.,#251);
#233=SURFACE_STYLE_USAGE(.BOTH.,#252);
#234=SURFACE_STYLE_USAGE(.BOTH.,#253);
#235=SURFACE_STYLE_USAGE(.BOTH.,#254);
#236=SURFACE_STYLE_USAGE(.BOTH.,#255);
#237=SURFACE_STYLE_USAGE(.BOTH.,#256);
#238=SURFACE_STYLE_USAGE(.BOTH.,#257);
#239=SURFACE_STYLE_USAGE(.BOTH.,#258);
#240=SURFACE_STYLE_USAGE(.BOTH.,#259);
#241=SURFACE_STYLE_USAGE(.BOTH.,#260);
#242=SURFACE_STYLE_USAGE(.BOTH.,#261);
#243=SURFACE_STYLE_USAGE(.BOTH.,#262);
#244=SURFACE_STYLE_USAGE(.BOTH.,#263);
#245=SURFACE_STYLE_USAGE(.BOTH.,#264);
#246=SURFACE_STYLE_USAGE(.BOTH.,#265);
#247=SURFACE_STYLE_USAGE(.BOTH.,#266);
#248=SURFACE_STYLE_USAGE(.BOTH.,#267);
#249=SURFACE_STYLE_USAGE(.BOTH.,#268);
#250=SURFACE_SIDE_STYLE('',(#269));
#251=SURFACE_SIDE_STYLE('',(#270));
#252=SURFACE_SIDE_STYLE('',(#271));
#253=SURFACE_SIDE_STYLE('',(#272));
#254=SURFACE_SIDE_STYLE('',(#273));
#255=SURFACE_SIDE_STYLE('',(#274));
#256=SURFACE_SIDE_STYLE('',(#275));
#257=SURFACE_SIDE_STYLE('',(#276));
#258=SURFACE_SIDE_STYLE('',(#277));
#259=SURFACE_SIDE_STYLE('',(#278));
#260=SURFACE_SIDE_STYLE('',(#279));
#261=SURFACE_SIDE_STYLE('',(#280));
#262=SURFACE_SIDE_STYLE('',(#281));
#263=SURFACE_SIDE_STYLE('',(#282));
#264=SURFACE_SIDE_STYLE('',(#283));
#265=SURFACE_SIDE_STYLE('',(#284));
#266=SURFACE_SIDE_STYLE('',(#285));
#267=SURFACE_SIDE_STYLE('',(#286));
#268=SURFACE_SIDE_STYLE('',(#287));
#269=SURFACE_STYLE_FILL_AREA(#288);
#270=SURFACE_STYLE_FILL_AREA(#289);
#271=SURFACE_STYLE_FILL_AREA(#290);
#272=SURFACE_STYLE_FILL_AREA(#291);
#273=SURFACE_STYLE_FILL_AREA(#292);
#274=SURFACE_STYLE_FILL_AREA(#293);
#275=SURFACE_STYLE_FILL_AREA(#294);
#276=SURFACE_STYLE_FILL_AREA(#295);
#277=SURFACE_STYLE_FILL_AREA(#296);
#278=SURFACE_STYLE_FILL_AREA(#297);
#279=SURFACE_STYLE_FILL_AREA(#298);
#280=SURFACE_STYLE_FILL_AREA(#299);
#281=SURFACE_STYLE_FILL_AREA(#300);
#282=SURFACE_STYLE_FILL_AREA(#301);
#283=SURFACE_STYLE_FILL_AREA(#302);
#284=SURFACE_STYLE_FILL_AREA(#303);
#285=SURFACE_STYLE_FILL_AREA(#304);
#286=SURFACE_STYLE_FILL_AREA(#305);
#287=SURFACE_STYLE_FILL_AREA(#306);
#288=FILL_AREA_STYLE('',(#307));
#289=FILL_AREA_STYLE('',(#308));
#290=FILL_AREA_STYLE('',(#309));
#291=FILL_AREA_STYLE('',(#310));
#292=FILL_AREA_STYLE('',(#311));
#293=FILL_AREA_STYLE('',(#312));
#294=FILL_AREA_STYLE('',(#313));
#295=FILL_AREA_STYLE('',(#314));
#296=FILL_AREA_STYLE('',(#315));
#297=FILL_AREA_STYLE('',(#316));
#298=FILL_AREA_STYLE('',(#317));
#299=FILL_AREA_STYLE('',(#318));
#300=FILL_AREA_STYLE('',(#319));
#301=FILL_AREA_STYLE('',(#320));
#302=FILL_AREA_STYLE('',(#321));
#303=FILL_AREA_STYLE('',(#322));
#304=FILL_AREA_STYLE('',(#323));
#305=FILL_AREA_STYLE('',(#324));
#306=FILL_AREA_STYLE('',(#325));
#307=FILL_AREA_STYLE_COLOUR('',#326);
#308=FILL_AREA_STYLE_COLOUR('',#326);
#309=FILL_AREA_STYLE_COLOUR('',#326);
#310=FILL_AREA_STYLE_COLOUR('',#326);
#311=FILL_AREA_STYLE_COLOUR('',#326);
#312=FILL_AREA_STYLE_COLOUR('',#327);
#313=FILL_AREA_STYLE_COLOUR('',#327);
#314=FILL_AREA_STYLE_COLOUR('',#327);
#315=FILL_AREA_STYLE_COLOUR('',#327);
#316=FILL_AREA_STYLE_COLOUR('',#327);
#317=FILL_AREA_STYLE_COLOUR('',#327);
#318=FILL_AREA_STYLE_COLOUR('',#327);
#319=FILL_AREA_STYLE_COLOUR('',#327);
#320=FILL_AREA_STYLE_COLOUR('',#327);
#321=FILL_AREA_STYLE_COLOUR('',#327);
#322=FILL_AREA_STYLE_COLOUR('',#327);
#323=FILL_AREA_STYLE_COLOUR('',#327);
#324=FILL_AREA_STYLE_COLOUR('',#326);
#325=FILL_AREA_STYLE_COLOUR('',#326);
#326=COLOUR_RGB('',0.054901961237192,0.054901961237192,0.062745101749897);
#327=COLOUR_RGB('',0.7294117808342,0.76862746477127,0.7843137383461);
#328=ADVANCED_FACE('',(#155,#156),#189,.T.);
#329=ADVANCED_FACE('',(#157,#158),#32,.T.);
#330=ADVANCED_FACE('',(#159,#160),#25,.F.);
#331=ADVANCED_FACE('',(#161,#162),#190,.F.);
#332=ADVANCED_FACE('',(#163),#26,.F.);
#333=ADVANCED_FACE('',(#164,#165),#27,.F.);
#334=ADVANCED_FACE('',(#166,#167),#191,.F.);
#335=ADVANCED_FACE('',(#168,#169),#28,.F.);
#336=ADVANCED_FACE('',(#170,#171),#23,.T.);
#337=ADVANCED_FACE('',(#172,#173),#33,.T.);
#338=ADVANCED_FACE('',(#174,#175),#22,.F.);
#339=ADVANCED_FACE('',(#176,#177),#34,.T.);
#340=ADVANCED_FACE('',(#178,#179),#29,.F.);
#341=ADVANCED_FACE('',(#180,#181),#35,.T.);
#342=ADVANCED_FACE('',(#182,#183),#24,.F.);
#343=ADVANCED_FACE('',(#184),#21,.F.);
#344=ADVANCED_FACE('',(#185),#30,.F.);
#345=ADVANCED_FACE('',(#186),#31,.F.);
#346=ADVANCED_FACE('',(#187,#188),#192,.F.);
#347=CLOSED_SHELL('',(#328,#329,#330,#331,#332,#333,#334,#335,#336,#337,
#338,#339,#340,#341,#342,#343));
#348=CLOSED_SHELL('',(#344,#345,#346));
#349=BREP_WITH_VOIDS('098D040ZSG',#347,(#20));
#350=SHAPE_DEFINITION_REPRESENTATION(#523,#351);
#351=SHAPE_REPRESENTATION('098D040ZSG',(#352),#518);
#352=AXIS2_PLACEMENT_3D('',#463,#389,#390);
#353=AXIS2_PLACEMENT_3D('',#464,#391,#392);
#354=AXIS2_PLACEMENT_3D('',#465,#393,#394);
#355=AXIS2_PLACEMENT_3D('',#467,#395,#396);
#356=AXIS2_PLACEMENT_3D('',#469,#397,#398);
#357=AXIS2_PLACEMENT_3D('',#470,#399,#400);
#358=AXIS2_PLACEMENT_3D('',#472,#401,#402);
#359=AXIS2_PLACEMENT_3D('',#473,#403,#404);
#360=AXIS2_PLACEMENT_3D('',#475,#405,#406);
#361=AXIS2_PLACEMENT_3D('',#476,#407,#408);
#362=AXIS2_PLACEMENT_3D('',#478,#409,#410);
#363=AXIS2_PLACEMENT_3D('',#479,#411,#412);
#364=AXIS2_PLACEMENT_3D('',#480,#413,#414);
#365=AXIS2_PLACEMENT_3D('',#482,#415,#416);
#366=AXIS2_PLACEMENT_3D('',#483,#417,#418);
#367=AXIS2_PLACEMENT_3D('',#485,#419,#420);
#368=AXIS2_PLACEMENT_3D('',#486,#421,#422);
#369=AXIS2_PLACEMENT_3D('',#488,#423,#424);
#370=AXIS2_PLACEMENT_3D('',#489,#425,#426);
#371=AXIS2_PLACEMENT_3D('',#491,#427,#428);
#372=AXIS2_PLACEMENT_3D('',#492,#429,#430);
#373=AXIS2_PLACEMENT_3D('',#494,#431,#432);
#374=AXIS2_PLACEMENT_3D('',#495,#433,#434);
#375=AXIS2_PLACEMENT_3D('',#497,#435,#436);
#376=AXIS2_PLACEMENT_3D('',#498,#437,#438);
#377=AXIS2_PLACEMENT_3D('',#500,#439,#440);
#378=AXIS2_PLACEMENT_3D('',#501,#441,#442);
#379=AXIS2_PLACEMENT_3D('',#503,#443,#444);
#380=AXIS2_PLACEMENT_3D('',#504,#445,#446);
#381=AXIS2_PLACEMENT_3D('',#506,#447,#448);
#382=AXIS2_PLACEMENT_3D('',#507,#449,#450);
#383=AXIS2_PLACEMENT_3D('',#509,#451,#452);
#384=AXIS2_PLACEMENT_3D('',#510,#453,#454);
#385=AXIS2_PLACEMENT_3D('',#511,#455,#456);
#386=AXIS2_PLACEMENT_3D('',#513,#457,#458);
#387=AXIS2_PLACEMENT_3D('',#514,#459,#460);
#388=AXIS2_PLACEMENT_3D('',#516,#461,#462);
#389=DIRECTION('',(0.,0.,1.));
#390=DIRECTION('',(1.,0.,0.));
#391=DIRECTION('',(0.,-1.,0.));
#392=DIRECTION('',(0.,0.,-1.));
#393=DIRECTION('',(0.,-1.,0.));
#394=DIRECTION('',(0.,0.,-1.));
#395=DIRECTION('',(0.,-1.,0.));
#396=DIRECTION('',(0.,0.,-1.));
#397=DIRECTION('',(0.,-1.,0.));
#398=DIRECTION('',(0.,0.,-1.));
#399=DIRECTION('',(0.,-1.,0.));
#400=DIRECTION('',(0.,0.,-1.));
#401=DIRECTION('',(0.,1.,0.));
#402=DIRECTION('',(0.,0.,1.));
#403=DIRECTION('',(0.,-1.,0.));
#404=DIRECTION('',(0.,0.,-1.));
#405=DIRECTION('',(0.,-1.,0.));
#406=DIRECTION('',(0.,0.,-1.));
#407=DIRECTION('',(0.,-1.,0.));
#408=DIRECTION('',(0.,0.,-1.));
#409=DIRECTION('',(0.,1.,0.));
#410=DIRECTION('',(0.,0.,1.));
#411=DIRECTION('',(0.,1.,0.));
#412=DIRECTION('',(0.,0.,1.));
#413=DIRECTION('',(0.,-1.,0.));
#414=DIRECTION('',(0.,0.,-1.));
#415=DIRECTION('',(0.,-1.,0.));
#416=DIRECTION('',(0.,0.,-1.));
#417=DIRECTION('',(0.,-1.,0.));
#418=DIRECTION('',(0.,0.,-1.));
#419=DIRECTION('',(0.,1.,0.));
#420=DIRECTION('',(0.,0.,1.));
#421=DIRECTION('',(0.,-1.,0.));
#422=DIRECTION('',(0.,0.,-1.));
#423=DIRECTION('',(0.,-1.,0.));
#424=DIRECTION('',(0.,0.,-1.));
#425=DIRECTION('',(0.,-1.,0.));
#426=DIRECTION('',(0.,0.,-1.));
#427=DIRECTION('',(0.,-1.,0.));
#428=DIRECTION('',(0.,0.,-1.));
#429=DIRECTION('',(0.,-1.,0.));
#430=DIRECTION('',(0.,0.,-1.));
#431=DIRECTION('',(0.,-1.,0.));
#432=DIRECTION('',(0.,0.,-1.));
#433=DIRECTION('',(0.,-1.,0.));
#434=DIRECTION('',(0.,0.,-1.));
#435=DIRECTION('',(0.,-1.,0.));
#436=DIRECTION('',(0.,0.,-1.));
#437=DIRECTION('',(0.,-1.,0.));
#438=DIRECTION('',(0.,0.,-1.));
#439=DIRECTION('',(0.,-1.,0.));
#440=DIRECTION('',(0.,0.,-1.));
#441=DIRECTION('',(0.,-1.,0.));
#442=DIRECTION('',(0.,0.,-1.));
#443=DIRECTION('',(0.,-1.,0.));
#444=DIRECTION('',(0.,0.,-1.));
#445=DIRECTION('',(0.,-1.,0.));
#446=DIRECTION('',(0.,0.,-1.));
#447=DIRECTION('',(0.,-1.,0.));
#448=DIRECTION('',(0.,0.,-1.));
#449=DIRECTION('',(0.,-1.,0.));
#450=DIRECTION('',(0.,0.,-1.));
#451=DIRECTION('',(0.,-1.,0.));
#452=DIRECTION('',(-1.,0.,0.));
#453=DIRECTION('',(0.,1.,0.));
#454=DIRECTION('',(0.,0.,1.));
#455=DIRECTION('',(0.,-1.,0.));
#456=DIRECTION('',(0.,0.,-1.));
#457=DIRECTION('',(0.,-1.,0.));
#458=DIRECTION('',(0.,0.,-1.));
#459=DIRECTION('',(0.,-1.,0.));
#460=DIRECTION('',(0.,0.,-1.));
#461=DIRECTION('',(0.,-1.,0.));
#462=DIRECTION('',(0.,0.,-1.));
#463=CARTESIAN_POINT('',(0.,0.,0.));
#464=CARTESIAN_POINT('',(0.,-2.,0.));
#465=CARTESIAN_POINT('',(0.,0.,0.));
#466=CARTESIAN_POINT('',(0.,0.,-15.));
#467=CARTESIAN_POINT('',(0.,5.,0.));
#468=CARTESIAN_POINT('',(0.,5.,-15.));
#469=CARTESIAN_POINT('',(0.,-1.84314369322536E-15,0.));
#470=CARTESIAN_POINT('',(0.,-2.,0.));
#471=CARTESIAN_POINT('',(0.,-2.,-13.));
#472=CARTESIAN_POINT('',(13.,-2.,0.));
#473=CARTESIAN_POINT('',(0.,-2.,0.));
#474=CARTESIAN_POINT('',(0.,-2.,-7.5));
#475=CARTESIAN_POINT('',(0.,-2.,0.));
#476=CARTESIAN_POINT('',(0.,-1.6,0.));
#477=CARTESIAN_POINT('',(0.,-1.6,-7.5));
#478=CARTESIAN_POINT('',(7.5,-1.6,0.));
#479=CARTESIAN_POINT('',(16.,5.,0.));
#480=CARTESIAN_POINT('',(0.,5.,0.));
#481=CARTESIAN_POINT('',(0.,5.,-16.));
#482=CARTESIAN_POINT('',(0.,0.,0.));
#483=CARTESIAN_POINT('',(0.,0.,0.));
#484=CARTESIAN_POINT('',(0.,0.,-16.));
#485=CARTESIAN_POINT('',(19.5,0.,0.));
#486=CARTESIAN_POINT('',(0.,0.,0.));
#487=CARTESIAN_POINT('',(0.,0.,-19.5));
#488=CARTESIAN_POINT('',(0.,6.30066421662857,0.));
#489=CARTESIAN_POINT('',(0.,6.30066421662857,0.));
#490=CARTESIAN_POINT('',(0.,6.30066421662857,-18.8608713058075));
#491=CARTESIAN_POINT('',(0.,5.99790298279024,0.));
#492=CARTESIAN_POINT('',(0.,7.48093412012783,0.));
#493=CARTESIAN_POINT('',(0.,7.48093412012783,-18.4839873783667));
#494=CARTESIAN_POINT('',(0.,-37.0099999999966,0.));
#495=CARTESIAN_POINT('',(0.,16.7934482758621,0.));
#496=CARTESIAN_POINT('',(0.,16.7934482758621,-12.396995458069));
#497=CARTESIAN_POINT('',(0.,15.,0.));
#498=CARTESIAN_POINT('',(0.,18.,0.));
#499=CARTESIAN_POINT('',(0.,18.,-9.99209560946675));
#500=CARTESIAN_POINT('',(7.5,18.,0.));
#501=CARTESIAN_POINT('',(0.,18.,0.));
#502=CARTESIAN_POINT('',(0.,18.,-7.5));
#503=CARTESIAN_POINT('',(0.,17.5,0.));
#504=CARTESIAN_POINT('',(0.,17.5,0.));
#505=CARTESIAN_POINT('',(0.,17.5,-7.));
#506=CARTESIAN_POINT('',(0.,15.1,0.));
#507=CARTESIAN_POINT('',(0.,15.1,0.));
#508=CARTESIAN_POINT('',(0.,15.1,-7.6));
#509=CARTESIAN_POINT('',(-1.30104260698261E-15,15.1,0.));
#510=CARTESIAN_POINT('',(7.5,1.,0.));
#511=CARTESIAN_POINT('',(0.,1.,0.));
#512=CARTESIAN_POINT('',(0.,1.,-7.5));
#513=CARTESIAN_POINT('',(0.,0.5,0.));
#514=CARTESIAN_POINT('',(0.,0.5,0.));
#515=CARTESIAN_POINT('',(0.,0.5,-7.5));
#516=CARTESIAN_POINT('',(0.,-2.,0.));
#517=MECHANICAL_DESIGN_GEOMETRIC_PRESENTATION_REPRESENTATION('',(#193,#194,
#195,#196,#197,#198,#199,#200,#201,#202,#203,#204,#205,#206,#207,#208,#209,
#210,#211),#518);
#518=(
GEOMETRIC_REPRESENTATION_CONTEXT(3)
GLOBAL_UNCERTAINTY_ASSIGNED_CONTEXT((#519))
GLOBAL_UNIT_ASSIGNED_CONTEXT((#522,#521,#520))
REPRESENTATION_CONTEXT('098D040ZSG','TOP_LEVEL_ASSEMBLY_PART')
);
#519=UNCERTAINTY_MEASURE_WITH_UNIT(LENGTH_MEASURE(0.005),#522,
'DISTANCE_ACCURACY_VALUE','Maximum Tolerance applied to model');
#520=(
NAMED_UNIT(*)
SI_UNIT($,.STERADIAN.)
SOLID_ANGLE_UNIT()
);
#521=(
NAMED_UNIT(*)
PLANE_ANGLE_UNIT()
SI_UNIT($,.RADIAN.)
);
#522=(
LENGTH_UNIT()
NAMED_UNIT(*)
SI_UNIT(.MILLI.,.METRE.)
);
#523=PRODUCT_DEFINITION_SHAPE('','',#524);
#524=PRODUCT_DEFINITION('','',#526,#525);
#525=PRODUCT_DEFINITION_CONTEXT('',#532,'design');
#526=PRODUCT_DEFINITION_FORMATION_WITH_SPECIFIED_SOURCE('','',#528,
 .NOT_KNOWN.);
#527=PRODUCT_RELATED_PRODUCT_CATEGORY('','',(#528));
#528=PRODUCT('098D040ZSG','098D040ZSG','098D040ZSG',(#530));
#529=PRODUCT_CATEGORY('','');
#530=PRODUCT_CONTEXT('',#532,'mechanical');
#531=APPLICATION_PROTOCOL_DEFINITION('international standard',
'automotive_design',2010,#532);
#532=APPLICATION_CONTEXT(
'core data for automotive mechanical design processes');
ENDSEC;
END-ISO-10303-21;
