ISO-10303-21;
HEADER;
/* Generated by software containing ST-Developer
 * from STEP Tools, Inc. (www.steptools.com) 
 */
/* OPTION: using custom renumber hook */

FILE_DESCRIPTION(
/* description */ ('STEP AP214'),
/* implementation_level */ '2;1');

FILE_NAME(
/* name */ '098D080ZSG',
/* time_stamp */ '2022-07-14T16:37:15+02:00',
/* author */ ('License CC BY-ND 4.0'),
/* organization */ ('CADENAS'),
/* preprocessor_version */ 'ST-DEVELOPER v18.102',
/* originating_system */ 'PARTsolutions',
/* authorisation */ '  ');

FILE_SCHEMA (('AUTOMOTIVE_DESIGN {1 0 10303 214 3 1 1}'));
ENDSEC;

DATA;
#10=PROPERTY_DEFINITION_REPRESENTATION(#14,#12);
#11=PROPERTY_DEFINITION_REPRESENTATION(#15,#13);
#12=REPRESENTATION('',(#16),#505);
#13=REPRESENTATION('',(#17),#505);
#14=PROPERTY_DEFINITION('pmi validation property','',#510);
#15=PROPERTY_DEFINITION('pmi validation property','',#510);
#16=VALUE_REPRESENTATION_ITEM('number of annotations',COUNT_MEASURE(0.));
#17=VALUE_REPRESENTATION_ITEM('number of views',COUNT_MEASURE(0.));
#18=SHAPE_REPRESENTATION_RELATIONSHIP('','',#342,#19);
#19=ADVANCED_BREP_SHAPE_REPRESENTATION('',(#340),#505);
#20=ORIENTED_CLOSED_SHELL('',*,#339,.F.);
#21=SPHERICAL_SURFACE('',#370,7.6);
#22=DEGENERATE_TOROIDAL_SURFACE('',#362,6.89999999999997,49.8800000000001,
 .T.);
#23=TOROIDAL_SURFACE('',#360,35.1448657541858,4.);
#24=CONICAL_SURFACE('',#358,39.1325350891183,0.0785398163397452);
#25=CONICAL_SURFACE('',#366,7.,0.785398163397441);
#26=CONICAL_SURFACE('',#368,7.6,0.244978663126864);
#27=PLANE('',#347);
#28=PLANE('',#351);
#29=PLANE('',#352);
#30=PLANE('',#356);
#31=PLANE('',#364);
#32=PLANE('',#371);
#33=PLANE('',#378);
#34=ORIENTED_EDGE('',*,*,#68,.F.);
#35=ORIENTED_EDGE('',*,*,#69,.T.);
#36=ORIENTED_EDGE('',*,*,#70,.F.);
#37=ORIENTED_EDGE('',*,*,#68,.T.);
#38=ORIENTED_EDGE('',*,*,#71,.F.);
#39=ORIENTED_EDGE('',*,*,#70,.T.);
#40=ORIENTED_EDGE('',*,*,#71,.T.);
#41=ORIENTED_EDGE('',*,*,#69,.F.);
#42=ORIENTED_EDGE('',*,*,#72,.T.);
#43=ORIENTED_EDGE('',*,*,#72,.F.);
#44=ORIENTED_EDGE('',*,*,#73,.T.);
#45=ORIENTED_EDGE('',*,*,#73,.F.);
#46=ORIENTED_EDGE('',*,*,#74,.T.);
#47=ORIENTED_EDGE('',*,*,#74,.F.);
#48=ORIENTED_EDGE('',*,*,#75,.T.);
#49=ORIENTED_EDGE('',*,*,#76,.T.);
#50=ORIENTED_EDGE('',*,*,#75,.F.);
#51=ORIENTED_EDGE('',*,*,#77,.T.);
#52=ORIENTED_EDGE('',*,*,#76,.F.);
#53=ORIENTED_EDGE('',*,*,#77,.F.);
#54=ORIENTED_EDGE('',*,*,#78,.T.);
#55=ORIENTED_EDGE('',*,*,#78,.F.);
#56=ORIENTED_EDGE('',*,*,#79,.T.);
#57=ORIENTED_EDGE('',*,*,#79,.F.);
#58=ORIENTED_EDGE('',*,*,#80,.T.);
#59=ORIENTED_EDGE('',*,*,#80,.F.);
#60=ORIENTED_EDGE('',*,*,#81,.F.);
#61=ORIENTED_EDGE('',*,*,#82,.T.);
#62=ORIENTED_EDGE('',*,*,#83,.F.);
#63=ORIENTED_EDGE('',*,*,#81,.T.);
#64=ORIENTED_EDGE('',*,*,#82,.F.);
#65=ORIENTED_EDGE('',*,*,#84,.T.);
#66=ORIENTED_EDGE('',*,*,#84,.F.);
#67=ORIENTED_EDGE('',*,*,#83,.T.);
#68=EDGE_CURVE('',#85,#85,#102,.T.);
#69=EDGE_CURVE('',#86,#86,#103,.T.);
#70=EDGE_CURVE('',#87,#87,#104,.T.);
#71=EDGE_CURVE('',#88,#88,#105,.T.);
#72=EDGE_CURVE('',#89,#89,#106,.T.);
#73=EDGE_CURVE('',#90,#90,#107,.T.);
#74=EDGE_CURVE('',#91,#91,#108,.T.);
#75=EDGE_CURVE('',#92,#92,#109,.T.);
#76=EDGE_CURVE('',#93,#93,#110,.T.);
#77=EDGE_CURVE('',#94,#94,#111,.T.);
#78=EDGE_CURVE('',#95,#95,#112,.T.);
#79=EDGE_CURVE('',#96,#96,#113,.T.);
#80=EDGE_CURVE('',#97,#97,#114,.T.);
#81=EDGE_CURVE('',#98,#98,#115,.T.);
#82=EDGE_CURVE('',#99,#99,#116,.T.);
#83=EDGE_CURVE('',#100,#100,#117,.T.);
#84=EDGE_CURVE('',#101,#101,#118,.T.);
#85=VERTEX_POINT('',#454);
#86=VERTEX_POINT('',#456);
#87=VERTEX_POINT('',#459);
#88=VERTEX_POINT('',#462);
#89=VERTEX_POINT('',#466);
#90=VERTEX_POINT('',#469);
#91=VERTEX_POINT('',#472);
#92=VERTEX_POINT('',#475);
#93=VERTEX_POINT('',#478);
#94=VERTEX_POINT('',#481);
#95=VERTEX_POINT('',#484);
#96=VERTEX_POINT('',#487);
#97=VERTEX_POINT('',#490);
#98=VERTEX_POINT('',#494);
#99=VERTEX_POINT('',#496);
#100=VERTEX_POINT('',#499);
#101=VERTEX_POINT('',#502);
#102=CIRCLE('',#345,34.);
#103=CIRCLE('',#346,34.);
#104=CIRCLE('',#348,20.);
#105=CIRCLE('',#350,20.);
#106=CIRCLE('',#353,34.5);
#107=CIRCLE('',#355,34.5);
#108=CIRCLE('',#357,39.5);
#109=CIRCLE('',#359,39.1325350891183);
#110=CIRCLE('',#361,37.6073649480992);
#111=CIRCLE('',#363,9.72389801515582);
#112=CIRCLE('',#365,7.49999999999999);
#113=CIRCLE('',#367,7.);
#114=CIRCLE('',#369,7.6);
#115=CIRCLE('',#372,7.4);
#116=CIRCLE('',#373,7.75);
#117=CIRCLE('',#375,7.4);
#118=CIRCLE('',#377,7.75);
#119=EDGE_LOOP('',(#34));
#120=EDGE_LOOP('',(#35));
#121=EDGE_LOOP('',(#36));
#122=EDGE_LOOP('',(#37));
#123=EDGE_LOOP('',(#38));
#124=EDGE_LOOP('',(#39));
#125=EDGE_LOOP('',(#40));
#126=EDGE_LOOP('',(#41));
#127=EDGE_LOOP('',(#42));
#128=EDGE_LOOP('',(#43));
#129=EDGE_LOOP('',(#44));
#130=EDGE_LOOP('',(#45));
#131=EDGE_LOOP('',(#46));
#132=EDGE_LOOP('',(#47));
#133=EDGE_LOOP('',(#48));
#134=EDGE_LOOP('',(#49));
#135=EDGE_LOOP('',(#50));
#136=EDGE_LOOP('',(#51));
#137=EDGE_LOOP('',(#52));
#138=EDGE_LOOP('',(#53));
#139=EDGE_LOOP('',(#54));
#140=EDGE_LOOP('',(#55));
#141=EDGE_LOOP('',(#56));
#142=EDGE_LOOP('',(#57));
#143=EDGE_LOOP('',(#58));
#144=EDGE_LOOP('',(#59));
#145=EDGE_LOOP('',(#60));
#146=EDGE_LOOP('',(#61));
#147=EDGE_LOOP('',(#62));
#148=EDGE_LOOP('',(#63));
#149=EDGE_LOOP('',(#64));
#150=EDGE_LOOP('',(#65));
#151=EDGE_LOOP('',(#66));
#152=EDGE_LOOP('',(#67));
#153=FACE_BOUND('',#119,.T.);
#154=FACE_BOUND('',#120,.T.);
#155=FACE_BOUND('',#121,.T.);
#156=FACE_BOUND('',#122,.T.);
#157=FACE_BOUND('',#123,.T.);
#158=FACE_BOUND('',#124,.T.);
#159=FACE_BOUND('',#125,.T.);
#160=FACE_BOUND('',#126,.T.);
#161=FACE_BOUND('',#127,.T.);
#162=FACE_BOUND('',#128,.T.);
#163=FACE_BOUND('',#129,.T.);
#164=FACE_BOUND('',#130,.T.);
#165=FACE_BOUND('',#131,.T.);
#166=FACE_BOUND('',#132,.T.);
#167=FACE_BOUND('',#133,.T.);
#168=FACE_BOUND('',#134,.T.);
#169=FACE_BOUND('',#135,.T.);
#170=FACE_BOUND('',#136,.T.);
#171=FACE_BOUND('',#137,.T.);
#172=FACE_BOUND('',#138,.T.);
#173=FACE_BOUND('',#139,.T.);
#174=FACE_BOUND('',#140,.T.);
#175=FACE_BOUND('',#141,.T.);
#176=FACE_BOUND('',#142,.T.);
#177=FACE_BOUND('',#143,.T.);
#178=FACE_BOUND('',#144,.T.);
#179=FACE_BOUND('',#145,.T.);
#180=FACE_BOUND('',#146,.T.);
#181=FACE_BOUND('',#147,.T.);
#182=FACE_BOUND('',#148,.T.);
#183=FACE_BOUND('',#149,.T.);
#184=FACE_BOUND('',#150,.T.);
#185=FACE_BOUND('',#151,.T.);
#186=FACE_BOUND('',#152,.T.);
#187=CYLINDRICAL_SURFACE('',#344,34.);
#188=CYLINDRICAL_SURFACE('',#349,20.);
#189=CYLINDRICAL_SURFACE('',#354,34.5);
#190=CYLINDRICAL_SURFACE('',#374,7.4);
#191=CYLINDRICAL_SURFACE('',#376,7.75);
#192=STYLED_ITEM('',(#210),#320);
#193=STYLED_ITEM('',(#211),#321);
#194=STYLED_ITEM('',(#212),#322);
#195=STYLED_ITEM('',(#213),#323);
#196=STYLED_ITEM('',(#214),#324);
#197=STYLED_ITEM('',(#215),#325);
#198=STYLED_ITEM('',(#216),#326);
#199=STYLED_ITEM('',(#217),#327);
#200=STYLED_ITEM('',(#218),#328);
#201=STYLED_ITEM('',(#219),#329);
#202=STYLED_ITEM('',(#220),#330);
#203=STYLED_ITEM('',(#221),#331);
#204=STYLED_ITEM('',(#222),#332);
#205=STYLED_ITEM('',(#223),#333);
#206=STYLED_ITEM('',(#224),#334);
#207=STYLED_ITEM('',(#225),#335);
#208=STYLED_ITEM('',(#226),#336);
#209=STYLED_ITEM('',(#227),#337);
#210=PRESENTATION_STYLE_ASSIGNMENT((#228));
#211=PRESENTATION_STYLE_ASSIGNMENT((#229));
#212=PRESENTATION_STYLE_ASSIGNMENT((#230));
#213=PRESENTATION_STYLE_ASSIGNMENT((#231));
#214=PRESENTATION_STYLE_ASSIGNMENT((#232));
#215=PRESENTATION_STYLE_ASSIGNMENT((#233));
#216=PRESENTATION_STYLE_ASSIGNMENT((#234));
#217=PRESENTATION_STYLE_ASSIGNMENT((#235));
#218=PRESENTATION_STYLE_ASSIGNMENT((#236));
#219=PRESENTATION_STYLE_ASSIGNMENT((#237));
#220=PRESENTATION_STYLE_ASSIGNMENT((#238));
#221=PRESENTATION_STYLE_ASSIGNMENT((#239));
#222=PRESENTATION_STYLE_ASSIGNMENT((#240));
#223=PRESENTATION_STYLE_ASSIGNMENT((#241));
#224=PRESENTATION_STYLE_ASSIGNMENT((#242));
#225=PRESENTATION_STYLE_ASSIGNMENT((#243));
#226=PRESENTATION_STYLE_ASSIGNMENT((#244));
#227=PRESENTATION_STYLE_ASSIGNMENT((#245));
#228=SURFACE_STYLE_USAGE(.BOTH.,#246);
#229=SURFACE_STYLE_USAGE(.BOTH.,#247);
#230=SURFACE_STYLE_USAGE(.BOTH.,#248);
#231=SURFACE_STYLE_USAGE(.BOTH.,#249);
#232=SURFACE_STYLE_USAGE(.BOTH.,#250);
#233=SURFACE_STYLE_USAGE(.BOTH.,#251);
#234=SURFACE_STYLE_USAGE(.BOTH.,#252);
#235=SURFACE_STYLE_USAGE(.BOTH.,#253);
#236=SURFACE_STYLE_USAGE(.BOTH.,#254);
#237=SURFACE_STYLE_USAGE(.BOTH.,#255);
#238=SURFACE_STYLE_USAGE(.BOTH.,#256);
#239=SURFACE_STYLE_USAGE(.BOTH.,#257);
#240=SURFACE_STYLE_USAGE(.BOTH.,#258);
#241=SURFACE_STYLE_USAGE(.BOTH.,#259);
#242=SURFACE_STYLE_USAGE(.BOTH.,#260);
#243=SURFACE_STYLE_USAGE(.BOTH.,#261);
#244=SURFACE_STYLE_USAGE(.BOTH.,#262);
#245=SURFACE_STYLE_USAGE(.BOTH.,#263);
#246=SURFACE_SIDE_STYLE('',(#264));
#247=SURFACE_SIDE_STYLE('',(#265));
#248=SURFACE_SIDE_STYLE('',(#266));
#249=SURFACE_SIDE_STYLE('',(#267));
#250=SURFACE_SIDE_STYLE('',(#268));
#251=SURFACE_SIDE_STYLE('',(#269));
#252=SURFACE_SIDE_STYLE('',(#270));
#253=SURFACE_SIDE_STYLE('',(#271));
#254=SURFACE_SIDE_STYLE('',(#272));
#255=SURFACE_SIDE_STYLE('',(#273));
#256=SURFACE_SIDE_STYLE('',(#274));
#257=SURFACE_SIDE_STYLE('',(#275));
#258=SURFACE_SIDE_STYLE('',(#276));
#259=SURFACE_SIDE_STYLE('',(#277));
#260=SURFACE_SIDE_STYLE('',(#278));
#261=SURFACE_SIDE_STYLE('',(#279));
#262=SURFACE_SIDE_STYLE('',(#280));
#263=SURFACE_SIDE_STYLE('',(#281));
#264=SURFACE_STYLE_FILL_AREA(#282);
#265=SURFACE_STYLE_FILL_AREA(#283);
#266=SURFACE_STYLE_FILL_AREA(#284);
#267=SURFACE_STYLE_FILL_AREA(#285);
#268=SURFACE_STYLE_FILL_AREA(#286);
#269=SURFACE_STYLE_FILL_AREA(#287);
#270=SURFACE_STYLE_FILL_AREA(#288);
#271=SURFACE_STYLE_FILL_AREA(#289);
#272=SURFACE_STYLE_FILL_AREA(#290);
#273=SURFACE_STYLE_FILL_AREA(#291);
#274=SURFACE_STYLE_FILL_AREA(#292);
#275=SURFACE_STYLE_FILL_AREA(#293);
#276=SURFACE_STYLE_FILL_AREA(#294);
#277=SURFACE_STYLE_FILL_AREA(#295);
#278=SURFACE_STYLE_FILL_AREA(#296);
#279=SURFACE_STYLE_FILL_AREA(#297);
#280=SURFACE_STYLE_FILL_AREA(#298);
#281=SURFACE_STYLE_FILL_AREA(#299);
#282=FILL_AREA_STYLE('',(#300));
#283=FILL_AREA_STYLE('',(#301));
#284=FILL_AREA_STYLE('',(#302));
#285=FILL_AREA_STYLE('',(#303));
#286=FILL_AREA_STYLE('',(#304));
#287=FILL_AREA_STYLE('',(#305));
#288=FILL_AREA_STYLE('',(#306));
#289=FILL_AREA_STYLE('',(#307));
#290=FILL_AREA_STYLE('',(#308));
#291=FILL_AREA_STYLE('',(#309));
#292=FILL_AREA_STYLE('',(#310));
#293=FILL_AREA_STYLE('',(#311));
#294=FILL_AREA_STYLE('',(#312));
#295=FILL_AREA_STYLE('',(#313));
#296=FILL_AREA_STYLE('',(#314));
#297=FILL_AREA_STYLE('',(#315));
#298=FILL_AREA_STYLE('',(#316));
#299=FILL_AREA_STYLE('',(#317));
#300=FILL_AREA_STYLE_COLOUR('',#318);
#301=FILL_AREA_STYLE_COLOUR('',#318);
#302=FILL_AREA_STYLE_COLOUR('',#318);
#303=FILL_AREA_STYLE_COLOUR('',#318);
#304=FILL_AREA_STYLE_COLOUR('',#319);
#305=FILL_AREA_STYLE_COLOUR('',#319);
#306=FILL_AREA_STYLE_COLOUR('',#319);
#307=FILL_AREA_STYLE_COLOUR('',#319);
#308=FILL_AREA_STYLE_COLOUR('',#319);
#309=FILL_AREA_STYLE_COLOUR('',#319);
#310=FILL_AREA_STYLE_COLOUR('',#319);
#311=FILL_AREA_STYLE_COLOUR('',#319);
#312=FILL_AREA_STYLE_COLOUR('',#319);
#313=FILL_AREA_STYLE_COLOUR('',#319);
#314=FILL_AREA_STYLE_COLOUR('',#319);
#315=FILL_AREA_STYLE_COLOUR('',#319);
#316=FILL_AREA_STYLE_COLOUR('',#318);
#317=FILL_AREA_STYLE_COLOUR('',#318);
#318=COLOUR_RGB('',0.054901961237192,0.054901961237192,0.062745101749897);
#319=COLOUR_RGB('',0.729411780834198,0.768627464771271,0.7843137383461);
#320=ADVANCED_FACE('',(#153,#154),#187,.T.);
#321=ADVANCED_FACE('',(#155,#156),#27,.F.);
#322=ADVANCED_FACE('',(#157,#158),#188,.F.);
#323=ADVANCED_FACE('',(#159),#28,.F.);
#324=ADVANCED_FACE('',(#160,#161),#29,.F.);
#325=ADVANCED_FACE('',(#162,#163),#189,.F.);
#326=ADVANCED_FACE('',(#164,#165),#30,.F.);
#327=ADVANCED_FACE('',(#166,#167),#24,.T.);
#328=ADVANCED_FACE('',(#168,#169),#23,.T.);
#329=ADVANCED_FACE('',(#170,#171),#22,.T.);
#330=ADVANCED_FACE('',(#172,#173),#31,.F.);
#331=ADVANCED_FACE('',(#174,#175),#25,.F.);
#332=ADVANCED_FACE('',(#176,#177),#26,.F.);
#333=ADVANCED_FACE('',(#178),#21,.F.);
#334=ADVANCED_FACE('',(#179,#180),#32,.F.);
#335=ADVANCED_FACE('',(#181,#182),#190,.T.);
#336=ADVANCED_FACE('',(#183,#184),#191,.F.);
#337=ADVANCED_FACE('',(#185,#186),#33,.F.);
#338=CLOSED_SHELL('',(#320,#321,#322,#323,#324,#325,#326,#327,#328,#329,
#330,#331,#332,#333));
#339=CLOSED_SHELL('',(#334,#335,#336,#337));
#340=BREP_WITH_VOIDS('098D080ZSG',#338,(#20));
#341=SHAPE_DEFINITION_REPRESENTATION(#510,#342);
#342=SHAPE_REPRESENTATION('098D080ZSG',(#343),#505);
#343=AXIS2_PLACEMENT_3D('',#451,#379,#380);
#344=AXIS2_PLACEMENT_3D('',#452,#381,#382);
#345=AXIS2_PLACEMENT_3D('',#453,#383,#384);
#346=AXIS2_PLACEMENT_3D('',#455,#385,#386);
#347=AXIS2_PLACEMENT_3D('',#457,#387,#388);
#348=AXIS2_PLACEMENT_3D('',#458,#389,#390);
#349=AXIS2_PLACEMENT_3D('',#460,#391,#392);
#350=AXIS2_PLACEMENT_3D('',#461,#393,#394);
#351=AXIS2_PLACEMENT_3D('',#463,#395,#396);
#352=AXIS2_PLACEMENT_3D('',#464,#397,#398);
#353=AXIS2_PLACEMENT_3D('',#465,#399,#400);
#354=AXIS2_PLACEMENT_3D('',#467,#401,#402);
#355=AXIS2_PLACEMENT_3D('',#468,#403,#404);
#356=AXIS2_PLACEMENT_3D('',#470,#405,#406);
#357=AXIS2_PLACEMENT_3D('',#471,#407,#408);
#358=AXIS2_PLACEMENT_3D('',#473,#409,#410);
#359=AXIS2_PLACEMENT_3D('',#474,#411,#412);
#360=AXIS2_PLACEMENT_3D('',#476,#413,#414);
#361=AXIS2_PLACEMENT_3D('',#477,#415,#416);
#362=AXIS2_PLACEMENT_3D('',#479,#417,#418);
#363=AXIS2_PLACEMENT_3D('',#480,#419,#420);
#364=AXIS2_PLACEMENT_3D('',#482,#421,#422);
#365=AXIS2_PLACEMENT_3D('',#483,#423,#424);
#366=AXIS2_PLACEMENT_3D('',#485,#425,#426);
#367=AXIS2_PLACEMENT_3D('',#486,#427,#428);
#368=AXIS2_PLACEMENT_3D('',#488,#429,#430);
#369=AXIS2_PLACEMENT_3D('',#489,#431,#432);
#370=AXIS2_PLACEMENT_3D('',#491,#433,#434);
#371=AXIS2_PLACEMENT_3D('',#492,#435,#436);
#372=AXIS2_PLACEMENT_3D('',#493,#437,#438);
#373=AXIS2_PLACEMENT_3D('',#495,#439,#440);
#374=AXIS2_PLACEMENT_3D('',#497,#441,#442);
#375=AXIS2_PLACEMENT_3D('',#498,#443,#444);
#376=AXIS2_PLACEMENT_3D('',#500,#445,#446);
#377=AXIS2_PLACEMENT_3D('',#501,#447,#448);
#378=AXIS2_PLACEMENT_3D('',#503,#449,#450);
#379=DIRECTION('',(0.,0.,1.));
#380=DIRECTION('',(1.,0.,0.));
#381=DIRECTION('',(0.,-1.,0.));
#382=DIRECTION('',(0.,0.,-1.));
#383=DIRECTION('',(0.,-1.,0.));
#384=DIRECTION('',(0.,0.,-1.));
#385=DIRECTION('',(0.,-1.,0.));
#386=DIRECTION('',(0.,0.,-1.));
#387=DIRECTION('',(0.,1.,0.));
#388=DIRECTION('',(0.,0.,1.));
#389=DIRECTION('',(0.,-1.,0.));
#390=DIRECTION('',(0.,0.,-1.));
#391=DIRECTION('',(0.,-1.,0.));
#392=DIRECTION('',(0.,0.,-1.));
#393=DIRECTION('',(0.,-1.,0.));
#394=DIRECTION('',(0.,0.,-1.));
#395=DIRECTION('',(0.,1.,0.));
#396=DIRECTION('',(0.,0.,1.));
#397=DIRECTION('',(0.,1.,0.));
#398=DIRECTION('',(0.,0.,1.));
#399=DIRECTION('',(0.,-1.,0.));
#400=DIRECTION('',(0.,0.,-1.));
#401=DIRECTION('',(0.,-1.,0.));
#402=DIRECTION('',(0.,0.,-1.));
#403=DIRECTION('',(0.,-1.,0.));
#404=DIRECTION('',(0.,0.,-1.));
#405=DIRECTION('',(0.,1.,0.));
#406=DIRECTION('',(0.,0.,1.));
#407=DIRECTION('',(0.,-1.,0.));
#408=DIRECTION('',(0.,0.,-1.));
#409=DIRECTION('',(0.,-1.,0.));
#410=DIRECTION('',(0.,0.,-1.));
#411=DIRECTION('',(0.,-1.,0.));
#412=DIRECTION('',(0.,0.,-1.));
#413=DIRECTION('',(0.,-1.,0.));
#414=DIRECTION('',(0.,0.,-1.));
#415=DIRECTION('',(0.,-1.,0.));
#416=DIRECTION('',(0.,0.,-1.));
#417=DIRECTION('',(0.,-1.,0.));
#418=DIRECTION('',(0.,0.,-1.));
#419=DIRECTION('',(0.,-1.,0.));
#420=DIRECTION('',(0.,0.,-1.));
#421=DIRECTION('',(0.,-1.,0.));
#422=DIRECTION('',(0.,0.,-1.));
#423=DIRECTION('',(0.,-1.,0.));
#424=DIRECTION('',(0.,0.,-1.));
#425=DIRECTION('',(0.,1.,0.));
#426=DIRECTION('',(0.,0.,1.));
#427=DIRECTION('',(0.,-1.,0.));
#428=DIRECTION('',(0.,0.,-1.));
#429=DIRECTION('',(0.,-1.,0.));
#430=DIRECTION('',(0.,0.,-1.));
#431=DIRECTION('',(0.,-1.,0.));
#432=DIRECTION('',(0.,0.,-1.));
#433=DIRECTION('',(0.,-1.,0.));
#434=DIRECTION('',(-1.,0.,0.));
#435=DIRECTION('',(0.,1.,0.));
#436=DIRECTION('',(0.,0.,1.));
#437=DIRECTION('',(0.,-1.,0.));
#438=DIRECTION('',(0.,0.,-1.));
#439=DIRECTION('',(0.,-1.,0.));
#440=DIRECTION('',(0.,0.,-1.));
#441=DIRECTION('',(0.,-1.,0.));
#442=DIRECTION('',(0.,0.,-1.));
#443=DIRECTION('',(0.,-1.,0.));
#444=DIRECTION('',(0.,0.,-1.));
#445=DIRECTION('',(0.,-1.,0.));
#446=DIRECTION('',(0.,0.,-1.));
#447=DIRECTION('',(0.,-1.,0.));
#448=DIRECTION('',(0.,0.,-1.));
#449=DIRECTION('',(0.,-1.,0.));
#450=DIRECTION('',(0.,0.,-1.));
#451=CARTESIAN_POINT('',(0.,0.,0.));
#452=CARTESIAN_POINT('',(0.,-2.,0.));
#453=CARTESIAN_POINT('',(0.,-2.,0.));
#454=CARTESIAN_POINT('',(0.,-2.,-34.));
#455=CARTESIAN_POINT('',(0.,5.,0.));
#456=CARTESIAN_POINT('',(0.,5.,-34.));
#457=CARTESIAN_POINT('',(34.,-2.,0.));
#458=CARTESIAN_POINT('',(0.,-2.,0.));
#459=CARTESIAN_POINT('',(0.,-2.,-20.));
#460=CARTESIAN_POINT('',(0.,-2.,0.));
#461=CARTESIAN_POINT('',(0.,-1.6,0.));
#462=CARTESIAN_POINT('',(0.,-1.6,-20.));
#463=CARTESIAN_POINT('',(20.,-1.6,0.));
#464=CARTESIAN_POINT('',(34.5,5.,0.));
#465=CARTESIAN_POINT('',(0.,5.,0.));
#466=CARTESIAN_POINT('',(0.,5.,-34.5));
#467=CARTESIAN_POINT('',(0.,0.,0.));
#468=CARTESIAN_POINT('',(0.,0.,0.));
#469=CARTESIAN_POINT('',(0.,0.,-34.5));
#470=CARTESIAN_POINT('',(39.5,0.,0.));
#471=CARTESIAN_POINT('',(0.,0.,0.));
#472=CARTESIAN_POINT('',(0.,0.,-39.5));
#473=CARTESIAN_POINT('',(0.,4.66908439102245,0.));
#474=CARTESIAN_POINT('',(0.,4.66908439102245,0.));
#475=CARTESIAN_POINT('',(0.,4.66908439102245,-39.1325350891183));
#476=CARTESIAN_POINT('',(0.,4.35524800811109,0.));
#477=CARTESIAN_POINT('',(0.,7.50740563741457,0.));
#478=CARTESIAN_POINT('',(0.,7.50740563741457,-37.6073649480992));
#479=CARTESIAN_POINT('',(0.,-31.8,0.));
#480=CARTESIAN_POINT('',(0.,18.,0.));
#481=CARTESIAN_POINT('',(0.,18.,-9.72389801515582));
#482=CARTESIAN_POINT('',(7.49999999999999,18.,0.));
#483=CARTESIAN_POINT('',(0.,18.,0.));
#484=CARTESIAN_POINT('',(0.,18.,-7.49999999999999));
#485=CARTESIAN_POINT('',(0.,17.5,0.));
#486=CARTESIAN_POINT('',(0.,17.5,0.));
#487=CARTESIAN_POINT('',(0.,17.5,-7.));
#488=CARTESIAN_POINT('',(0.,15.1,0.));
#489=CARTESIAN_POINT('',(0.,15.1,0.));
#490=CARTESIAN_POINT('',(0.,15.1,-7.6));
#491=CARTESIAN_POINT('',(-1.30104260698261E-15,15.1,0.));
#492=CARTESIAN_POINT('',(34.5,5.,0.));
#493=CARTESIAN_POINT('',(0.,5.,0.));
#494=CARTESIAN_POINT('',(0.,5.,-7.4));
#495=CARTESIAN_POINT('',(0.,5.,0.));
#496=CARTESIAN_POINT('',(0.,5.,-7.75));
#497=CARTESIAN_POINT('',(0.,0.,0.));
#498=CARTESIAN_POINT('',(0.,0.5,0.));
#499=CARTESIAN_POINT('',(0.,0.5,-7.4));
#500=CARTESIAN_POINT('',(0.,-2.,0.));
#501=CARTESIAN_POINT('',(0.,0.5,0.));
#502=CARTESIAN_POINT('',(0.,0.5,-7.75));
#503=CARTESIAN_POINT('',(0.,0.5,0.));
#504=MECHANICAL_DESIGN_GEOMETRIC_PRESENTATION_REPRESENTATION('',(#192,#193,
#194,#195,#196,#197,#198,#199,#200,#201,#202,#203,#204,#205,#206,#207,#208,
#209),#505);
#505=(
GEOMETRIC_REPRESENTATION_CONTEXT(3)
GLOBAL_UNCERTAINTY_ASSIGNED_CONTEXT((#506))
GLOBAL_UNIT_ASSIGNED_CONTEXT((#509,#508,#507))
REPRESENTATION_CONTEXT('098D080ZSG','TOP_LEVEL_ASSEMBLY_PART')
);
#506=UNCERTAINTY_MEASURE_WITH_UNIT(LENGTH_MEASURE(0.005),#509,
'DISTANCE_ACCURACY_VALUE','Maximum Tolerance applied to model');
#507=(
NAMED_UNIT(*)
SI_UNIT($,.STERADIAN.)
SOLID_ANGLE_UNIT()
);
#508=(
NAMED_UNIT(*)
PLANE_ANGLE_UNIT()
SI_UNIT($,.RADIAN.)
);
#509=(
LENGTH_UNIT()
NAMED_UNIT(*)
SI_UNIT(.MILLI.,.METRE.)
);
#510=PRODUCT_DEFINITION_SHAPE('','',#511);
#511=PRODUCT_DEFINITION('','',#513,#512);
#512=PRODUCT_DEFINITION_CONTEXT('',#519,'design');
#513=PRODUCT_DEFINITION_FORMATION_WITH_SPECIFIED_SOURCE('','',#515,
 .NOT_KNOWN.);
#514=PRODUCT_RELATED_PRODUCT_CATEGORY('','',(#515));
#515=PRODUCT('098D080ZSG','098D080ZSG','098D080ZSG',(#517));
#516=PRODUCT_CATEGORY('','');
#517=PRODUCT_CONTEXT('',#519,'mechanical');
#518=APPLICATION_PROTOCOL_DEFINITION('international standard',
'automotive_design',2010,#519);
#519=APPLICATION_CONTEXT(
'core data for automotive mechanical design processes');
ENDSEC;
END-ISO-10303-21;
