ISO-10303-21;
HEADER;
/* Generated by software containing ST-Developer
 * from STEP Tools, Inc. (www.steptools.com) 
 */
/* OPTION: using custom renumber hook */

FILE_DESCRIPTION(
/* description */ ('STEP AP214'),
/* implementation_level */ '2;1');

FILE_NAME(
/* name */ '098D100ZSG',
/* time_stamp */ '2022-07-14T16:37:06+02:00',
/* author */ ('License CC BY-ND 4.0'),
/* organization */ ('CADENAS'),
/* preprocessor_version */ 'ST-DEVELOPER v18.102',
/* originating_system */ 'PARTsolutions',
/* authorisation */ '  ');

FILE_SCHEMA (('AUTOMOTIVE_DESIGN {1 0 10303 214 3 1 1}'));
ENDSEC;

DATA;
#10=PROPERTY_DEFINITION_REPRESENTATION(#14,#12);
#11=PROPERTY_DEFINITION_REPRESENTATION(#15,#13);
#12=REPRESENTATION('',(#16),#533);
#13=REPRESENTATION('',(#17),#533);
#14=PROPERTY_DEFINITION('pmi validation property','',#538);
#15=PROPERTY_DEFINITION('pmi validation property','',#538);
#16=VALUE_REPRESENTATION_ITEM('number of annotations',COUNT_MEASURE(0.));
#17=VALUE_REPRESENTATION_ITEM('number of views',COUNT_MEASURE(0.));
#18=SHAPE_REPRESENTATION_RELATIONSHIP('','',#361,#19);
#19=ADVANCED_BREP_SHAPE_REPRESENTATION('',(#359),#533);
#20=ORIENTED_CLOSED_SHELL('',*,#358,.F.);
#21=SPHERICAL_SURFACE('',#391,7.6);
#22=DEGENERATE_TOROIDAL_SURFACE('',#383,12.7000000000002,79.9999999999992,
 .T.);
#23=DEGENERATE_TOROIDAL_SURFACE('',#385,8.29999999999977,70.0000000000022,
 .T.);
#24=CONICAL_SURFACE('',#379,48.9433303805581,0.0872664625997148);
#25=CONICAL_SURFACE('',#387,7.,0.785398163397448);
#26=CONICAL_SURFACE('',#389,7.6,0.244978663126864);
#27=PLANE('',#368);
#28=PLANE('',#372);
#29=PLANE('',#373);
#30=PLANE('',#377);
#31=PLANE('',#392);
#32=PLANE('',#399);
#33=TOROIDAL_SURFACE('',#366,41.5,2.00000000000001);
#34=TOROIDAL_SURFACE('',#381,44.9585515881911,4.);
#35=ORIENTED_EDGE('',*,*,#71,.F.);
#36=ORIENTED_EDGE('',*,*,#72,.T.);
#37=ORIENTED_EDGE('',*,*,#71,.T.);
#38=ORIENTED_EDGE('',*,*,#73,.F.);
#39=ORIENTED_EDGE('',*,*,#74,.F.);
#40=ORIENTED_EDGE('',*,*,#73,.T.);
#41=ORIENTED_EDGE('',*,*,#75,.F.);
#42=ORIENTED_EDGE('',*,*,#74,.T.);
#43=ORIENTED_EDGE('',*,*,#75,.T.);
#44=ORIENTED_EDGE('',*,*,#72,.F.);
#45=ORIENTED_EDGE('',*,*,#76,.T.);
#46=ORIENTED_EDGE('',*,*,#76,.F.);
#47=ORIENTED_EDGE('',*,*,#77,.T.);
#48=ORIENTED_EDGE('',*,*,#77,.F.);
#49=ORIENTED_EDGE('',*,*,#78,.T.);
#50=ORIENTED_EDGE('',*,*,#78,.F.);
#51=ORIENTED_EDGE('',*,*,#79,.T.);
#52=ORIENTED_EDGE('',*,*,#80,.T.);
#53=ORIENTED_EDGE('',*,*,#79,.F.);
#54=ORIENTED_EDGE('',*,*,#81,.T.);
#55=ORIENTED_EDGE('',*,*,#80,.F.);
#56=ORIENTED_EDGE('',*,*,#82,.T.);
#57=ORIENTED_EDGE('',*,*,#81,.F.);
#58=ORIENTED_EDGE('',*,*,#82,.F.);
#59=ORIENTED_EDGE('',*,*,#83,.T.);
#60=ORIENTED_EDGE('',*,*,#83,.F.);
#61=ORIENTED_EDGE('',*,*,#84,.T.);
#62=ORIENTED_EDGE('',*,*,#84,.F.);
#63=ORIENTED_EDGE('',*,*,#85,.F.);
#64=ORIENTED_EDGE('',*,*,#86,.T.);
#65=ORIENTED_EDGE('',*,*,#87,.F.);
#66=ORIENTED_EDGE('',*,*,#85,.T.);
#67=ORIENTED_EDGE('',*,*,#86,.F.);
#68=ORIENTED_EDGE('',*,*,#88,.T.);
#69=ORIENTED_EDGE('',*,*,#88,.F.);
#70=ORIENTED_EDGE('',*,*,#87,.T.);
#71=EDGE_CURVE('',#89,#89,#107,.T.);
#72=EDGE_CURVE('',#90,#90,#108,.T.);
#73=EDGE_CURVE('',#91,#91,#109,.T.);
#74=EDGE_CURVE('',#92,#92,#110,.T.);
#75=EDGE_CURVE('',#93,#93,#111,.T.);
#76=EDGE_CURVE('',#94,#94,#112,.T.);
#77=EDGE_CURVE('',#95,#95,#113,.T.);
#78=EDGE_CURVE('',#96,#96,#114,.T.);
#79=EDGE_CURVE('',#97,#97,#115,.T.);
#80=EDGE_CURVE('',#98,#98,#116,.T.);
#81=EDGE_CURVE('',#99,#99,#117,.T.);
#82=EDGE_CURVE('',#100,#100,#118,.T.);
#83=EDGE_CURVE('',#101,#101,#119,.T.);
#84=EDGE_CURVE('',#102,#102,#120,.T.);
#85=EDGE_CURVE('',#103,#103,#121,.T.);
#86=EDGE_CURVE('',#104,#104,#122,.T.);
#87=EDGE_CURVE('',#105,#105,#123,.T.);
#88=EDGE_CURVE('',#106,#106,#124,.T.);
#89=VERTEX_POINT('',#479);
#90=VERTEX_POINT('',#481);
#91=VERTEX_POINT('',#484);
#92=VERTEX_POINT('',#487);
#93=VERTEX_POINT('',#490);
#94=VERTEX_POINT('',#494);
#95=VERTEX_POINT('',#497);
#96=VERTEX_POINT('',#500);
#97=VERTEX_POINT('',#503);
#98=VERTEX_POINT('',#506);
#99=VERTEX_POINT('',#509);
#100=VERTEX_POINT('',#512);
#101=VERTEX_POINT('',#515);
#102=VERTEX_POINT('',#518);
#103=VERTEX_POINT('',#522);
#104=VERTEX_POINT('',#524);
#105=VERTEX_POINT('',#527);
#106=VERTEX_POINT('',#530);
#107=CIRCLE('',#364,43.5);
#108=CIRCLE('',#365,43.5);
#109=CIRCLE('',#367,41.5);
#110=CIRCLE('',#369,27.5);
#111=CIRCLE('',#371,27.5);
#112=CIRCLE('',#374,44.);
#113=CIRCLE('',#376,44.);
#114=CIRCLE('',#378,49.5);
#115=CIRCLE('',#380,48.9433303805581);
#116=CIRCLE('',#382,46.6563700928328);
#117=CIRCLE('',#384,21.8624245401962);
#118=CIRCLE('',#386,7.49537541348555);
#119=CIRCLE('',#388,7.);
#120=CIRCLE('',#390,7.6);
#121=CIRCLE('',#393,7.4);
#122=CIRCLE('',#394,7.5);
#123=CIRCLE('',#396,7.4);
#124=CIRCLE('',#398,7.5);
#125=EDGE_LOOP('',(#35));
#126=EDGE_LOOP('',(#36));
#127=EDGE_LOOP('',(#37));
#128=EDGE_LOOP('',(#38));
#129=EDGE_LOOP('',(#39));
#130=EDGE_LOOP('',(#40));
#131=EDGE_LOOP('',(#41));
#132=EDGE_LOOP('',(#42));
#133=EDGE_LOOP('',(#43));
#134=EDGE_LOOP('',(#44));
#135=EDGE_LOOP('',(#45));
#136=EDGE_LOOP('',(#46));
#137=EDGE_LOOP('',(#47));
#138=EDGE_LOOP('',(#48));
#139=EDGE_LOOP('',(#49));
#140=EDGE_LOOP('',(#50));
#141=EDGE_LOOP('',(#51));
#142=EDGE_LOOP('',(#52));
#143=EDGE_LOOP('',(#53));
#144=EDGE_LOOP('',(#54));
#145=EDGE_LOOP('',(#55));
#146=EDGE_LOOP('',(#56));
#147=EDGE_LOOP('',(#57));
#148=EDGE_LOOP('',(#58));
#149=EDGE_LOOP('',(#59));
#150=EDGE_LOOP('',(#60));
#151=EDGE_LOOP('',(#61));
#152=EDGE_LOOP('',(#62));
#153=EDGE_LOOP('',(#63));
#154=EDGE_LOOP('',(#64));
#155=EDGE_LOOP('',(#65));
#156=EDGE_LOOP('',(#66));
#157=EDGE_LOOP('',(#67));
#158=EDGE_LOOP('',(#68));
#159=EDGE_LOOP('',(#69));
#160=EDGE_LOOP('',(#70));
#161=FACE_BOUND('',#125,.T.);
#162=FACE_BOUND('',#126,.T.);
#163=FACE_BOUND('',#127,.T.);
#164=FACE_BOUND('',#128,.T.);
#165=FACE_BOUND('',#129,.T.);
#166=FACE_BOUND('',#130,.T.);
#167=FACE_BOUND('',#131,.T.);
#168=FACE_BOUND('',#132,.T.);
#169=FACE_BOUND('',#133,.T.);
#170=FACE_BOUND('',#134,.T.);
#171=FACE_BOUND('',#135,.T.);
#172=FACE_BOUND('',#136,.T.);
#173=FACE_BOUND('',#137,.T.);
#174=FACE_BOUND('',#138,.T.);
#175=FACE_BOUND('',#139,.T.);
#176=FACE_BOUND('',#140,.T.);
#177=FACE_BOUND('',#141,.T.);
#178=FACE_BOUND('',#142,.T.);
#179=FACE_BOUND('',#143,.T.);
#180=FACE_BOUND('',#144,.T.);
#181=FACE_BOUND('',#145,.T.);
#182=FACE_BOUND('',#146,.T.);
#183=FACE_BOUND('',#147,.T.);
#184=FACE_BOUND('',#148,.T.);
#185=FACE_BOUND('',#149,.T.);
#186=FACE_BOUND('',#150,.T.);
#187=FACE_BOUND('',#151,.T.);
#188=FACE_BOUND('',#152,.T.);
#189=FACE_BOUND('',#153,.T.);
#190=FACE_BOUND('',#154,.T.);
#191=FACE_BOUND('',#155,.T.);
#192=FACE_BOUND('',#156,.T.);
#193=FACE_BOUND('',#157,.T.);
#194=FACE_BOUND('',#158,.T.);
#195=FACE_BOUND('',#159,.T.);
#196=FACE_BOUND('',#160,.T.);
#197=CYLINDRICAL_SURFACE('',#363,43.5);
#198=CYLINDRICAL_SURFACE('',#370,27.5);
#199=CYLINDRICAL_SURFACE('',#375,44.);
#200=CYLINDRICAL_SURFACE('',#395,7.4);
#201=CYLINDRICAL_SURFACE('',#397,7.5);
#202=STYLED_ITEM('',(#221),#338);
#203=STYLED_ITEM('',(#222),#339);
#204=STYLED_ITEM('',(#223),#340);
#205=STYLED_ITEM('',(#224),#341);
#206=STYLED_ITEM('',(#225),#342);
#207=STYLED_ITEM('',(#226),#343);
#208=STYLED_ITEM('',(#227),#344);
#209=STYLED_ITEM('',(#228),#345);
#210=STYLED_ITEM('',(#229),#346);
#211=STYLED_ITEM('',(#230),#347);
#212=STYLED_ITEM('',(#231),#348);
#213=STYLED_ITEM('',(#232),#349);
#214=STYLED_ITEM('',(#233),#350);
#215=STYLED_ITEM('',(#234),#351);
#216=STYLED_ITEM('',(#235),#352);
#217=STYLED_ITEM('',(#236),#353);
#218=STYLED_ITEM('',(#237),#354);
#219=STYLED_ITEM('',(#238),#355);
#220=STYLED_ITEM('',(#239),#356);
#221=PRESENTATION_STYLE_ASSIGNMENT((#240));
#222=PRESENTATION_STYLE_ASSIGNMENT((#241));
#223=PRESENTATION_STYLE_ASSIGNMENT((#242));
#224=PRESENTATION_STYLE_ASSIGNMENT((#243));
#225=PRESENTATION_STYLE_ASSIGNMENT((#244));
#226=PRESENTATION_STYLE_ASSIGNMENT((#245));
#227=PRESENTATION_STYLE_ASSIGNMENT((#246));
#228=PRESENTATION_STYLE_ASSIGNMENT((#247));
#229=PRESENTATION_STYLE_ASSIGNMENT((#248));
#230=PRESENTATION_STYLE_ASSIGNMENT((#249));
#231=PRESENTATION_STYLE_ASSIGNMENT((#250));
#232=PRESENTATION_STYLE_ASSIGNMENT((#251));
#233=PRESENTATION_STYLE_ASSIGNMENT((#252));
#234=PRESENTATION_STYLE_ASSIGNMENT((#253));
#235=PRESENTATION_STYLE_ASSIGNMENT((#254));
#236=PRESENTATION_STYLE_ASSIGNMENT((#255));
#237=PRESENTATION_STYLE_ASSIGNMENT((#256));
#238=PRESENTATION_STYLE_ASSIGNMENT((#257));
#239=PRESENTATION_STYLE_ASSIGNMENT((#258));
#240=SURFACE_STYLE_USAGE(.BOTH.,#259);
#241=SURFACE_STYLE_USAGE(.BOTH.,#260);
#242=SURFACE_STYLE_USAGE(.BOTH.,#261);
#243=SURFACE_STYLE_USAGE(.BOTH.,#262);
#244=SURFACE_STYLE_USAGE(.BOTH.,#263);
#245=SURFACE_STYLE_USAGE(.BOTH.,#264);
#246=SURFACE_STYLE_USAGE(.BOTH.,#265);
#247=SURFACE_STYLE_USAGE(.BOTH.,#266);
#248=SURFACE_STYLE_USAGE(.BOTH.,#267);
#249=SURFACE_STYLE_USAGE(.BOTH.,#268);
#250=SURFACE_STYLE_USAGE(.BOTH.,#269);
#251=SURFACE_STYLE_USAGE(.BOTH.,#270);
#252=SURFACE_STYLE_USAGE(.BOTH.,#271);
#253=SURFACE_STYLE_USAGE(.BOTH.,#272);
#254=SURFACE_STYLE_USAGE(.BOTH.,#273);
#255=SURFACE_STYLE_USAGE(.BOTH.,#274);
#256=SURFACE_STYLE_USAGE(.BOTH.,#275);
#257=SURFACE_STYLE_USAGE(.BOTH.,#276);
#258=SURFACE_STYLE_USAGE(.BOTH.,#277);
#259=SURFACE_SIDE_STYLE('',(#278));
#260=SURFACE_SIDE_STYLE('',(#279));
#261=SURFACE_SIDE_STYLE('',(#280));
#262=SURFACE_SIDE_STYLE('',(#281));
#263=SURFACE_SIDE_STYLE('',(#282));
#264=SURFACE_SIDE_STYLE('',(#283));
#265=SURFACE_SIDE_STYLE('',(#284));
#266=SURFACE_SIDE_STYLE('',(#285));
#267=SURFACE_SIDE_STYLE('',(#286));
#268=SURFACE_SIDE_STYLE('',(#287));
#269=SURFACE_SIDE_STYLE('',(#288));
#270=SURFACE_SIDE_STYLE('',(#289));
#271=SURFACE_SIDE_STYLE('',(#290));
#272=SURFACE_SIDE_STYLE('',(#291));
#273=SURFACE_SIDE_STYLE('',(#292));
#274=SURFACE_SIDE_STYLE('',(#293));
#275=SURFACE_SIDE_STYLE('',(#294));
#276=SURFACE_SIDE_STYLE('',(#295));
#277=SURFACE_SIDE_STYLE('',(#296));
#278=SURFACE_STYLE_FILL_AREA(#297);
#279=SURFACE_STYLE_FILL_AREA(#298);
#280=SURFACE_STYLE_FILL_AREA(#299);
#281=SURFACE_STYLE_FILL_AREA(#300);
#282=SURFACE_STYLE_FILL_AREA(#301);
#283=SURFACE_STYLE_FILL_AREA(#302);
#284=SURFACE_STYLE_FILL_AREA(#303);
#285=SURFACE_STYLE_FILL_AREA(#304);
#286=SURFACE_STYLE_FILL_AREA(#305);
#287=SURFACE_STYLE_FILL_AREA(#306);
#288=SURFACE_STYLE_FILL_AREA(#307);
#289=SURFACE_STYLE_FILL_AREA(#308);
#290=SURFACE_STYLE_FILL_AREA(#309);
#291=SURFACE_STYLE_FILL_AREA(#310);
#292=SURFACE_STYLE_FILL_AREA(#311);
#293=SURFACE_STYLE_FILL_AREA(#312);
#294=SURFACE_STYLE_FILL_AREA(#313);
#295=SURFACE_STYLE_FILL_AREA(#314);
#296=SURFACE_STYLE_FILL_AREA(#315);
#297=FILL_AREA_STYLE('',(#316));
#298=FILL_AREA_STYLE('',(#317));
#299=FILL_AREA_STYLE('',(#318));
#300=FILL_AREA_STYLE('',(#319));
#301=FILL_AREA_STYLE('',(#320));
#302=FILL_AREA_STYLE('',(#321));
#303=FILL_AREA_STYLE('',(#322));
#304=FILL_AREA_STYLE('',(#323));
#305=FILL_AREA_STYLE('',(#324));
#306=FILL_AREA_STYLE('',(#325));
#307=FILL_AREA_STYLE('',(#326));
#308=FILL_AREA_STYLE('',(#327));
#309=FILL_AREA_STYLE('',(#328));
#310=FILL_AREA_STYLE('',(#329));
#311=FILL_AREA_STYLE('',(#330));
#312=FILL_AREA_STYLE('',(#331));
#313=FILL_AREA_STYLE('',(#332));
#314=FILL_AREA_STYLE('',(#333));
#315=FILL_AREA_STYLE('',(#334));
#316=FILL_AREA_STYLE_COLOUR('',#335);
#317=FILL_AREA_STYLE_COLOUR('',#335);
#318=FILL_AREA_STYLE_COLOUR('',#335);
#319=FILL_AREA_STYLE_COLOUR('',#335);
#320=FILL_AREA_STYLE_COLOUR('',#335);
#321=FILL_AREA_STYLE_COLOUR('',#336);
#322=FILL_AREA_STYLE_COLOUR('',#336);
#323=FILL_AREA_STYLE_COLOUR('',#336);
#324=FILL_AREA_STYLE_COLOUR('',#336);
#325=FILL_AREA_STYLE_COLOUR('',#336);
#326=FILL_AREA_STYLE_COLOUR('',#336);
#327=FILL_AREA_STYLE_COLOUR('',#337);
#328=FILL_AREA_STYLE_COLOUR('',#337);
#329=FILL_AREA_STYLE_COLOUR('',#337);
#330=FILL_AREA_STYLE_COLOUR('',#337);
#331=FILL_AREA_STYLE_COLOUR('',#336);
#332=FILL_AREA_STYLE_COLOUR('',#336);
#333=FILL_AREA_STYLE_COLOUR('',#335);
#334=FILL_AREA_STYLE_COLOUR('',#335);
#335=COLOUR_RGB('',0.054901961237192,0.054901961237192,0.062745101749897);
#336=COLOUR_RGB('',0.7294117808342,0.76862746477127,0.7843137383461);
#337=COLOUR_RGB('',0.729411780834198,0.768627464771271,0.7843137383461);
#338=ADVANCED_FACE('',(#161,#162),#197,.T.);
#339=ADVANCED_FACE('',(#163,#164),#33,.T.);
#340=ADVANCED_FACE('',(#165,#166),#27,.F.);
#341=ADVANCED_FACE('',(#167,#168),#198,.F.);
#342=ADVANCED_FACE('',(#169),#28,.F.);
#343=ADVANCED_FACE('',(#170,#171),#29,.F.);
#344=ADVANCED_FACE('',(#172,#173),#199,.F.);
#345=ADVANCED_FACE('',(#174,#175),#30,.F.);
#346=ADVANCED_FACE('',(#176,#177),#24,.T.);
#347=ADVANCED_FACE('',(#178,#179),#34,.T.);
#348=ADVANCED_FACE('',(#180,#181),#22,.T.);
#349=ADVANCED_FACE('',(#182,#183),#23,.T.);
#350=ADVANCED_FACE('',(#184,#185),#25,.F.);
#351=ADVANCED_FACE('',(#186,#187),#26,.F.);
#352=ADVANCED_FACE('',(#188),#21,.F.);
#353=ADVANCED_FACE('',(#189,#190),#31,.F.);
#354=ADVANCED_FACE('',(#191,#192),#200,.T.);
#355=ADVANCED_FACE('',(#193,#194),#201,.F.);
#356=ADVANCED_FACE('',(#195,#196),#32,.F.);
#357=CLOSED_SHELL('',(#338,#339,#340,#341,#342,#343,#344,#345,#346,#347,
#348,#349,#350,#351,#352));
#358=CLOSED_SHELL('',(#353,#354,#355,#356));
#359=BREP_WITH_VOIDS('098D100ZSG',#357,(#20));
#360=SHAPE_DEFINITION_REPRESENTATION(#538,#361);
#361=SHAPE_REPRESENTATION('098D100ZSG',(#362),#533);
#362=AXIS2_PLACEMENT_3D('',#476,#400,#401);
#363=AXIS2_PLACEMENT_3D('',#477,#402,#403);
#364=AXIS2_PLACEMENT_3D('',#478,#404,#405);
#365=AXIS2_PLACEMENT_3D('',#480,#406,#407);
#366=AXIS2_PLACEMENT_3D('',#482,#408,#409);
#367=AXIS2_PLACEMENT_3D('',#483,#410,#411);
#368=AXIS2_PLACEMENT_3D('',#485,#412,#413);
#369=AXIS2_PLACEMENT_3D('',#486,#414,#415);
#370=AXIS2_PLACEMENT_3D('',#488,#416,#417);
#371=AXIS2_PLACEMENT_3D('',#489,#418,#419);
#372=AXIS2_PLACEMENT_3D('',#491,#420,#421);
#373=AXIS2_PLACEMENT_3D('',#492,#422,#423);
#374=AXIS2_PLACEMENT_3D('',#493,#424,#425);
#375=AXIS2_PLACEMENT_3D('',#495,#426,#427);
#376=AXIS2_PLACEMENT_3D('',#496,#428,#429);
#377=AXIS2_PLACEMENT_3D('',#498,#430,#431);
#378=AXIS2_PLACEMENT_3D('',#499,#432,#433);
#379=AXIS2_PLACEMENT_3D('',#501,#434,#435);
#380=AXIS2_PLACEMENT_3D('',#502,#436,#437);
#381=AXIS2_PLACEMENT_3D('',#504,#438,#439);
#382=AXIS2_PLACEMENT_3D('',#505,#440,#441);
#383=AXIS2_PLACEMENT_3D('',#507,#442,#443);
#384=AXIS2_PLACEMENT_3D('',#508,#444,#445);
#385=AXIS2_PLACEMENT_3D('',#510,#446,#447);
#386=AXIS2_PLACEMENT_3D('',#511,#448,#449);
#387=AXIS2_PLACEMENT_3D('',#513,#450,#451);
#388=AXIS2_PLACEMENT_3D('',#514,#452,#453);
#389=AXIS2_PLACEMENT_3D('',#516,#454,#455);
#390=AXIS2_PLACEMENT_3D('',#517,#456,#457);
#391=AXIS2_PLACEMENT_3D('',#519,#458,#459);
#392=AXIS2_PLACEMENT_3D('',#520,#460,#461);
#393=AXIS2_PLACEMENT_3D('',#521,#462,#463);
#394=AXIS2_PLACEMENT_3D('',#523,#464,#465);
#395=AXIS2_PLACEMENT_3D('',#525,#466,#467);
#396=AXIS2_PLACEMENT_3D('',#526,#468,#469);
#397=AXIS2_PLACEMENT_3D('',#528,#470,#471);
#398=AXIS2_PLACEMENT_3D('',#529,#472,#473);
#399=AXIS2_PLACEMENT_3D('',#531,#474,#475);
#400=DIRECTION('',(0.,0.,1.));
#401=DIRECTION('',(1.,0.,0.));
#402=DIRECTION('',(0.,-1.,0.));
#403=DIRECTION('',(0.,0.,-1.));
#404=DIRECTION('',(0.,-1.,0.));
#405=DIRECTION('',(0.,0.,-1.));
#406=DIRECTION('',(0.,-1.,0.));
#407=DIRECTION('',(0.,0.,-1.));
#408=DIRECTION('',(0.,-1.,0.));
#409=DIRECTION('',(0.,0.,-1.));
#410=DIRECTION('',(0.,-1.,0.));
#411=DIRECTION('',(0.,0.,-1.));
#412=DIRECTION('',(0.,1.,0.));
#413=DIRECTION('',(0.,0.,1.));
#414=DIRECTION('',(0.,-1.,0.));
#415=DIRECTION('',(0.,0.,-1.));
#416=DIRECTION('',(0.,-1.,0.));
#417=DIRECTION('',(0.,0.,-1.));
#418=DIRECTION('',(0.,-1.,0.));
#419=DIRECTION('',(0.,0.,-1.));
#420=DIRECTION('',(0.,1.,0.));
#421=DIRECTION('',(0.,0.,1.));
#422=DIRECTION('',(0.,1.,0.));
#423=DIRECTION('',(0.,0.,1.));
#424=DIRECTION('',(0.,-1.,0.));
#425=DIRECTION('',(0.,0.,-1.));
#426=DIRECTION('',(0.,-1.,0.));
#427=DIRECTION('',(0.,0.,-1.));
#428=DIRECTION('',(0.,-1.,0.));
#429=DIRECTION('',(0.,0.,-1.));
#430=DIRECTION('',(0.,1.,0.));
#431=DIRECTION('',(0.,0.,1.));
#432=DIRECTION('',(0.,-1.,0.));
#433=DIRECTION('',(0.,0.,-1.));
#434=DIRECTION('',(0.,-1.,0.));
#435=DIRECTION('',(0.,0.,-1.));
#436=DIRECTION('',(0.,-1.,0.));
#437=DIRECTION('',(0.,0.,-1.));
#438=DIRECTION('',(0.,-1.,0.));
#439=DIRECTION('',(0.,0.,-1.));
#440=DIRECTION('',(0.,-1.,0.));
#441=DIRECTION('',(0.,0.,-1.));
#442=DIRECTION('',(0.,-1.,0.));
#443=DIRECTION('',(0.,0.,-1.));
#444=DIRECTION('',(0.,-1.,0.));
#445=DIRECTION('',(0.,0.,-1.));
#446=DIRECTION('',(0.,-1.,0.));
#447=DIRECTION('',(0.,0.,-1.));
#448=DIRECTION('',(0.,-1.,0.));
#449=DIRECTION('',(0.,0.,-1.));
#450=DIRECTION('',(0.,1.,0.));
#451=DIRECTION('',(0.,0.,1.));
#452=DIRECTION('',(0.,-1.,0.));
#453=DIRECTION('',(0.,0.,-1.));
#454=DIRECTION('',(0.,-1.,0.));
#455=DIRECTION('',(0.,0.,-1.));
#456=DIRECTION('',(0.,-1.,0.));
#457=DIRECTION('',(0.,0.,-1.));
#458=DIRECTION('',(0.,-1.,0.));
#459=DIRECTION('',(-1.,0.,0.));
#460=DIRECTION('',(0.,1.,0.));
#461=DIRECTION('',(0.,0.,1.));
#462=DIRECTION('',(0.,-1.,0.));
#463=DIRECTION('',(0.,0.,-1.));
#464=DIRECTION('',(0.,-1.,0.));
#465=DIRECTION('',(0.,0.,-1.));
#466=DIRECTION('',(0.,-1.,0.));
#467=DIRECTION('',(0.,0.,-1.));
#468=DIRECTION('',(0.,-1.,0.));
#469=DIRECTION('',(0.,0.,-1.));
#470=DIRECTION('',(0.,-1.,0.));
#471=DIRECTION('',(0.,0.,-1.));
#472=DIRECTION('',(0.,-1.,0.));
#473=DIRECTION('',(0.,0.,-1.));
#474=DIRECTION('',(0.,-1.,0.));
#475=DIRECTION('',(0.,0.,-1.));
#476=CARTESIAN_POINT('',(0.,0.,0.));
#477=CARTESIAN_POINT('',(0.,-2.,0.));
#478=CARTESIAN_POINT('',(0.,0.,0.));
#479=CARTESIAN_POINT('',(0.,0.,-43.5));
#480=CARTESIAN_POINT('',(0.,5.,0.));
#481=CARTESIAN_POINT('',(0.,5.,-43.5));
#482=CARTESIAN_POINT('',(0.,1.00830802041152E-14,0.));
#483=CARTESIAN_POINT('',(0.,-2.,0.));
#484=CARTESIAN_POINT('',(0.,-2.,-41.5));
#485=CARTESIAN_POINT('',(41.5,-2.,0.));
#486=CARTESIAN_POINT('',(0.,-2.,0.));
#487=CARTESIAN_POINT('',(0.,-2.,-27.5));
#488=CARTESIAN_POINT('',(0.,-2.,0.));
#489=CARTESIAN_POINT('',(0.,-1.6,0.));
#490=CARTESIAN_POINT('',(0.,-1.6,-27.5));
#491=CARTESIAN_POINT('',(27.5,-1.6,0.));
#492=CARTESIAN_POINT('',(44.,5.,0.));
#493=CARTESIAN_POINT('',(0.,5.,0.));
#494=CARTESIAN_POINT('',(0.,5.,-44.));
#495=CARTESIAN_POINT('',(0.,0.5,0.));
#496=CARTESIAN_POINT('',(0.,0.,0.));
#497=CARTESIAN_POINT('',(0.,0.,-44.));
#498=CARTESIAN_POINT('',(49.5,4.33680868994202E-16,0.));
#499=CARTESIAN_POINT('',(0.,8.67361737988404E-16,0.));
#500=CARTESIAN_POINT('',(0.,8.67361737988404E-16,-49.5));
#501=CARTESIAN_POINT('',(0.,6.36276286557926,0.));
#502=CARTESIAN_POINT('',(0.,6.36276286557926,0.));
#503=CARTESIAN_POINT('',(0.,6.36276286557926,-48.9433303805581));
#504=CARTESIAN_POINT('',(0.,6.01413989458862,0.));
#505=CARTESIAN_POINT('',(0.,9.63593673114591,0.));
#506=CARTESIAN_POINT('',(0.,9.63593673114591,-46.6563700928328));
#507=CARTESIAN_POINT('',(0.,-62.7999999999992,0.));
#508=CARTESIAN_POINT('',(0.,16.6735803682281,0.));
#509=CARTESIAN_POINT('',(0.,16.6735803682281,-21.8624245401962));
#510=CARTESIAN_POINT('',(0.,-52.0000000000022,0.));
#511=CARTESIAN_POINT('',(0.,17.9953754134855,0.));
#512=CARTESIAN_POINT('',(0.,17.9953754134855,-7.49537541348555));
#513=CARTESIAN_POINT('',(0.,17.5,0.));
#514=CARTESIAN_POINT('',(0.,17.5,0.));
#515=CARTESIAN_POINT('',(0.,17.5,-7.));
#516=CARTESIAN_POINT('',(0.,15.1,0.));
#517=CARTESIAN_POINT('',(0.,15.1,0.));
#518=CARTESIAN_POINT('',(0.,15.1,-7.6));
#519=CARTESIAN_POINT('',(-1.30104260698261E-15,15.1,0.));
#520=CARTESIAN_POINT('',(44.,5.,0.));
#521=CARTESIAN_POINT('',(0.,5.,0.));
#522=CARTESIAN_POINT('',(0.,5.,-7.4));
#523=CARTESIAN_POINT('',(0.,5.,0.));
#524=CARTESIAN_POINT('',(0.,5.,-7.5));
#525=CARTESIAN_POINT('',(0.,0.5,0.));
#526=CARTESIAN_POINT('',(0.,0.5,0.));
#527=CARTESIAN_POINT('',(0.,0.5,-7.4));
#528=CARTESIAN_POINT('',(0.,-2.,0.));
#529=CARTESIAN_POINT('',(0.,0.5,0.));
#530=CARTESIAN_POINT('',(0.,0.5,-7.5));
#531=CARTESIAN_POINT('',(0.,0.5,0.));
#532=MECHANICAL_DESIGN_GEOMETRIC_PRESENTATION_REPRESENTATION('',(#202,#203,
#204,#205,#206,#207,#208,#209,#210,#211,#212,#213,#214,#215,#216,#217,#218,
#219,#220),#533);
#533=(
GEOMETRIC_REPRESENTATION_CONTEXT(3)
GLOBAL_UNCERTAINTY_ASSIGNED_CONTEXT((#534))
GLOBAL_UNIT_ASSIGNED_CONTEXT((#537,#536,#535))
REPRESENTATION_CONTEXT('098D100ZSG','TOP_LEVEL_ASSEMBLY_PART')
);
#534=UNCERTAINTY_MEASURE_WITH_UNIT(LENGTH_MEASURE(0.005),#537,
'DISTANCE_ACCURACY_VALUE','Maximum Tolerance applied to model');
#535=(
NAMED_UNIT(*)
SI_UNIT($,.STERADIAN.)
SOLID_ANGLE_UNIT()
);
#536=(
NAMED_UNIT(*)
PLANE_ANGLE_UNIT()
SI_UNIT($,.RADIAN.)
);
#537=(
LENGTH_UNIT()
NAMED_UNIT(*)
SI_UNIT(.MILLI.,.METRE.)
);
#538=PRODUCT_DEFINITION_SHAPE('','',#539);
#539=PRODUCT_DEFINITION('','',#541,#540);
#540=PRODUCT_DEFINITION_CONTEXT('',#547,'design');
#541=PRODUCT_DEFINITION_FORMATION_WITH_SPECIFIED_SOURCE('','',#543,
 .NOT_KNOWN.);
#542=PRODUCT_RELATED_PRODUCT_CATEGORY('','',(#543));
#543=PRODUCT('098D100ZSG','098D100ZSG','098D100ZSG',(#545));
#544=PRODUCT_CATEGORY('','');
#545=PRODUCT_CONTEXT('',#547,'mechanical');
#546=APPLICATION_PROTOCOL_DEFINITION('international standard',
'automotive_design',2010,#547);
#547=APPLICATION_CONTEXT(
'core data for automotive mechanical design processes');
ENDSEC;
END-ISO-10303-21;
