ISO-10303-21;
HEADER;
/* Generated by software containing ST-Developer
 * from STEP Tools, Inc. (www.steptools.com) 
 */

FILE_DESCRIPTION(
/* description */ ('STEP AP214'),
/* implementation_level */ '2;1');

FILE_NAME(
/* name */ '1011882.stp',
/* time_stamp */ '2024-06-13T10:24:56+02:00',
/* author */ ('Bo'),
/* organization */ ('CADENAS'),
/* preprocessor_version */ 'ST-DEVELOPER v20',
/* originating_system */ 'Autodesk Inventor 2025',
/* authorisation */ '  ');

FILE_SCHEMA (('AUTOMOTIVE_DESIGN { 1 0 10303 214 3 1 1 }'));
ENDSEC;

DATA;
#10=MECHANICAL_DESIGN_GEOMETRIC_PRESENTATION_REPRESENTATION('',(#274,#275,
#276,#277,#278,#279,#280,#281,#282,#283,#284,#285,#286,#287,#288,#289,#290,
#291,#292,#293,#294,#295),#584);
#11=SHAPE_REPRESENTATION_RELATIONSHIP('SRR','None',#591,#12);
#12=ADVANCED_BREP_SHAPE_REPRESENTATION('',(#13),#583);
#13=MANIFOLD_SOLID_BREP('Solid1',#317);
#14=CYLINDRICAL_SURFACE('',#360,10.5);
#15=CYLINDRICAL_SURFACE('',#370,4.);
#16=CYLINDRICAL_SURFACE('',#374,4.25);
#17=CYLINDRICAL_SURFACE('',#378,10.);
#18=CYLINDRICAL_SURFACE('',#385,5.);
#19=FACE_BOUND('',#86,.T.);
#20=FACE_BOUND('',#91,.T.);
#21=FACE_BOUND('',#98,.T.);
#22=FACE_BOUND('',#101,.T.);
#23=FACE_BOUND('',#105,.T.);
#24=PLANE('',#349);
#25=PLANE('',#358);
#26=PLANE('',#372);
#27=PLANE('',#376);
#28=PLANE('',#383);
#29=PLANE('',#387);
#30=TOROIDAL_SURFACE('',#346,7.50000000000001,0.500000000000005);
#31=TOROIDAL_SURFACE('',#351,8.99383565779554,2.99999999999999);
#32=TOROIDAL_SURFACE('',#380,8.,2.);
#33=LINE('',#508,#44);
#34=LINE('',#523,#45);
#35=LINE('',#527,#46);
#36=LINE('',#534,#47);
#37=LINE('',#538,#48);
#38=LINE('',#544,#49);
#39=LINE('',#547,#50);
#40=LINE('',#554,#51);
#41=LINE('',#561,#52);
#42=LINE('',#568,#53);
#43=LINE('',#579,#54);
#44=VECTOR('',#402,7.6);
#45=VECTOR('',#423,11.9253917449817);
#46=VECTOR('',#428,14.02);
#47=VECTOR('',#437,10.5);
#48=VECTOR('',#442,10.5);
#49=VECTOR('',#449,9.57);
#50=VECTOR('',#452,7.9);
#51=VECTOR('',#461,4.);
#52=VECTOR('',#470,4.25);
#53=VECTOR('',#479,10.);
#54=VECTOR('',#494,5.);
#55=CONICAL_SURFACE('',#344,7.6,0.244978663126864);
#56=CONICAL_SURFACE('',#354,11.9253917449817,0.214018319657895);
#57=CONICAL_SURFACE('',#356,14.02,0.0798299857122375);
#58=CONICAL_SURFACE('',#362,10.5,0.263306549569161);
#59=CONICAL_SURFACE('',#364,9.57,1.2526428791858);
#60=CONICAL_SURFACE('',#367,7.9,0.772740611563396);
#61=FACE_OUTER_BOUND('',#82,.T.);
#62=FACE_OUTER_BOUND('',#83,.T.);
#63=FACE_OUTER_BOUND('',#84,.T.);
#64=FACE_OUTER_BOUND('',#85,.T.);
#65=FACE_OUTER_BOUND('',#87,.T.);
#66=FACE_OUTER_BOUND('',#88,.T.);
#67=FACE_OUTER_BOUND('',#89,.T.);
#68=FACE_OUTER_BOUND('',#90,.T.);
#69=FACE_OUTER_BOUND('',#92,.T.);
#70=FACE_OUTER_BOUND('',#93,.T.);
#71=FACE_OUTER_BOUND('',#94,.T.);
#72=FACE_OUTER_BOUND('',#95,.T.);
#73=FACE_OUTER_BOUND('',#96,.T.);
#74=FACE_OUTER_BOUND('',#97,.T.);
#75=FACE_OUTER_BOUND('',#99,.T.);
#76=FACE_OUTER_BOUND('',#100,.T.);
#77=FACE_OUTER_BOUND('',#102,.T.);
#78=FACE_OUTER_BOUND('',#103,.T.);
#79=FACE_OUTER_BOUND('',#104,.T.);
#80=FACE_OUTER_BOUND('',#106,.T.);
#81=FACE_OUTER_BOUND('',#107,.T.);
#82=EDGE_LOOP('',(#197,#198,#199,#200));
#83=EDGE_LOOP('',(#201,#202,#203,#204,#205));
#84=EDGE_LOOP('',(#206,#207,#208,#209));
#85=EDGE_LOOP('',(#210));
#86=EDGE_LOOP('',(#211));
#87=EDGE_LOOP('',(#212,#213,#214,#215));
#88=EDGE_LOOP('',(#216,#217,#218,#219));
#89=EDGE_LOOP('',(#220,#221,#222,#223));
#90=EDGE_LOOP('',(#224));
#91=EDGE_LOOP('',(#225));
#92=EDGE_LOOP('',(#226,#227,#228,#229));
#93=EDGE_LOOP('',(#230,#231,#232,#233));
#94=EDGE_LOOP('',(#234,#235,#236,#237,#238));
#95=EDGE_LOOP('',(#239,#240,#241,#242,#243,#244));
#96=EDGE_LOOP('',(#245,#246,#247,#248,#249));
#97=EDGE_LOOP('',(#250));
#98=EDGE_LOOP('',(#251));
#99=EDGE_LOOP('',(#252,#253,#254,#255));
#100=EDGE_LOOP('',(#256));
#101=EDGE_LOOP('',(#257));
#102=EDGE_LOOP('',(#258,#259,#260,#261));
#103=EDGE_LOOP('',(#262,#263,#264,#265));
#104=EDGE_LOOP('',(#266));
#105=EDGE_LOOP('',(#267));
#106=EDGE_LOOP('',(#268,#269,#270,#271));
#107=EDGE_LOOP('',(#272));
#108=CIRCLE('',#341,7.6);
#109=CIRCLE('',#342,7.6);
#110=CIRCLE('',#343,7.6);
#111=CIRCLE('',#345,7.);
#112=CIRCLE('',#347,7.5);
#113=CIRCLE('',#348,0.500000000000005);
#114=CIRCLE('',#350,8.99383565779554);
#115=CIRCLE('',#352,11.9253917449817);
#116=CIRCLE('',#353,2.99999999999999);
#117=CIRCLE('',#355,14.02);
#118=CIRCLE('',#357,14.5);
#119=CIRCLE('',#359,10.5);
#120=CIRCLE('',#361,10.5);
#121=CIRCLE('',#363,9.57);
#122=CIRCLE('',#365,7.9);
#123=CIRCLE('',#366,7.9);
#124=CIRCLE('',#368,4.);
#125=CIRCLE('',#369,4.);
#126=CIRCLE('',#371,4.);
#127=CIRCLE('',#373,4.25);
#128=CIRCLE('',#375,4.25);
#129=CIRCLE('',#377,10.);
#130=CIRCLE('',#379,10.);
#131=CIRCLE('',#381,8.);
#132=CIRCLE('',#382,2.);
#133=CIRCLE('',#384,5.);
#134=CIRCLE('',#386,5.);
#135=VERTEX_POINT('',#499);
#136=VERTEX_POINT('',#500);
#137=VERTEX_POINT('',#503);
#138=VERTEX_POINT('',#506);
#139=VERTEX_POINT('',#510);
#140=VERTEX_POINT('',#514);
#141=VERTEX_POINT('',#517);
#142=VERTEX_POINT('',#521);
#143=VERTEX_POINT('',#525);
#144=VERTEX_POINT('',#529);
#145=VERTEX_POINT('',#532);
#146=VERTEX_POINT('',#536);
#147=VERTEX_POINT('',#540);
#148=VERTEX_POINT('',#541);
#149=VERTEX_POINT('',#546);
#150=VERTEX_POINT('',#548);
#151=VERTEX_POINT('',#552);
#152=VERTEX_POINT('',#556);
#153=VERTEX_POINT('',#559);
#154=VERTEX_POINT('',#563);
#155=VERTEX_POINT('',#566);
#156=VERTEX_POINT('',#570);
#157=VERTEX_POINT('',#574);
#158=VERTEX_POINT('',#577);
#159=EDGE_CURVE('',#135,#136,#108,.T.);
#160=EDGE_CURVE('',#136,#135,#109,.T.);
#161=EDGE_CURVE('',#136,#137,#110,.T.);
#162=EDGE_CURVE('',#138,#138,#111,.T.);
#163=EDGE_CURVE('',#138,#135,#33,.T.);
#164=EDGE_CURVE('',#139,#139,#112,.T.);
#165=EDGE_CURVE('',#139,#138,#113,.T.);
#166=EDGE_CURVE('',#140,#140,#114,.T.);
#167=EDGE_CURVE('',#141,#141,#115,.T.);
#168=EDGE_CURVE('',#141,#140,#116,.T.);
#169=EDGE_CURVE('',#142,#142,#117,.T.);
#170=EDGE_CURVE('',#142,#141,#34,.T.);
#171=EDGE_CURVE('',#143,#143,#118,.T.);
#172=EDGE_CURVE('',#143,#142,#35,.T.);
#173=EDGE_CURVE('',#144,#144,#119,.T.);
#174=EDGE_CURVE('',#145,#145,#120,.T.);
#175=EDGE_CURVE('',#145,#144,#36,.T.);
#176=EDGE_CURVE('',#146,#146,#121,.T.);
#177=EDGE_CURVE('',#146,#145,#37,.T.);
#178=EDGE_CURVE('',#147,#148,#122,.T.);
#179=EDGE_CURVE('',#148,#147,#123,.T.);
#180=EDGE_CURVE('',#148,#146,#38,.T.);
#181=EDGE_CURVE('',#147,#149,#39,.T.);
#182=EDGE_CURVE('',#150,#149,#124,.T.);
#183=EDGE_CURVE('',#149,#150,#125,.T.);
#184=EDGE_CURVE('',#151,#151,#126,.T.);
#185=EDGE_CURVE('',#151,#150,#40,.T.);
#186=EDGE_CURVE('',#152,#152,#127,.T.);
#187=EDGE_CURVE('',#153,#153,#128,.T.);
#188=EDGE_CURVE('',#153,#152,#41,.T.);
#189=EDGE_CURVE('',#154,#154,#129,.T.);
#190=EDGE_CURVE('',#155,#155,#130,.T.);
#191=EDGE_CURVE('',#155,#154,#42,.T.);
#192=EDGE_CURVE('',#156,#156,#131,.T.);
#193=EDGE_CURVE('',#156,#155,#132,.T.);
#194=EDGE_CURVE('',#157,#157,#133,.T.);
#195=EDGE_CURVE('',#158,#158,#134,.T.);
#196=EDGE_CURVE('',#158,#157,#43,.T.);
#197=ORIENTED_EDGE('',*,*,#159,.F.);
#198=ORIENTED_EDGE('',*,*,#160,.F.);
#199=ORIENTED_EDGE('',*,*,#161,.T.);
#200=ORIENTED_EDGE('',*,*,#161,.F.);
#201=ORIENTED_EDGE('',*,*,#162,.F.);
#202=ORIENTED_EDGE('',*,*,#163,.T.);
#203=ORIENTED_EDGE('',*,*,#159,.T.);
#204=ORIENTED_EDGE('',*,*,#160,.T.);
#205=ORIENTED_EDGE('',*,*,#163,.F.);
#206=ORIENTED_EDGE('',*,*,#164,.F.);
#207=ORIENTED_EDGE('',*,*,#165,.T.);
#208=ORIENTED_EDGE('',*,*,#162,.T.);
#209=ORIENTED_EDGE('',*,*,#165,.F.);
#210=ORIENTED_EDGE('',*,*,#166,.F.);
#211=ORIENTED_EDGE('',*,*,#164,.T.);
#212=ORIENTED_EDGE('',*,*,#167,.F.);
#213=ORIENTED_EDGE('',*,*,#168,.T.);
#214=ORIENTED_EDGE('',*,*,#166,.T.);
#215=ORIENTED_EDGE('',*,*,#168,.F.);
#216=ORIENTED_EDGE('',*,*,#169,.F.);
#217=ORIENTED_EDGE('',*,*,#170,.T.);
#218=ORIENTED_EDGE('',*,*,#167,.T.);
#219=ORIENTED_EDGE('',*,*,#170,.F.);
#220=ORIENTED_EDGE('',*,*,#171,.F.);
#221=ORIENTED_EDGE('',*,*,#172,.T.);
#222=ORIENTED_EDGE('',*,*,#169,.T.);
#223=ORIENTED_EDGE('',*,*,#172,.F.);
#224=ORIENTED_EDGE('',*,*,#171,.T.);
#225=ORIENTED_EDGE('',*,*,#173,.F.);
#226=ORIENTED_EDGE('',*,*,#174,.F.);
#227=ORIENTED_EDGE('',*,*,#175,.T.);
#228=ORIENTED_EDGE('',*,*,#173,.T.);
#229=ORIENTED_EDGE('',*,*,#175,.F.);
#230=ORIENTED_EDGE('',*,*,#176,.F.);
#231=ORIENTED_EDGE('',*,*,#177,.T.);
#232=ORIENTED_EDGE('',*,*,#174,.T.);
#233=ORIENTED_EDGE('',*,*,#177,.F.);
#234=ORIENTED_EDGE('',*,*,#178,.F.);
#235=ORIENTED_EDGE('',*,*,#179,.F.);
#236=ORIENTED_EDGE('',*,*,#180,.T.);
#237=ORIENTED_EDGE('',*,*,#176,.T.);
#238=ORIENTED_EDGE('',*,*,#180,.F.);
#239=ORIENTED_EDGE('',*,*,#178,.T.);
#240=ORIENTED_EDGE('',*,*,#179,.T.);
#241=ORIENTED_EDGE('',*,*,#181,.T.);
#242=ORIENTED_EDGE('',*,*,#182,.F.);
#243=ORIENTED_EDGE('',*,*,#183,.F.);
#244=ORIENTED_EDGE('',*,*,#181,.F.);
#245=ORIENTED_EDGE('',*,*,#184,.F.);
#246=ORIENTED_EDGE('',*,*,#185,.T.);
#247=ORIENTED_EDGE('',*,*,#182,.T.);
#248=ORIENTED_EDGE('',*,*,#183,.T.);
#249=ORIENTED_EDGE('',*,*,#185,.F.);
#250=ORIENTED_EDGE('',*,*,#186,.F.);
#251=ORIENTED_EDGE('',*,*,#184,.T.);
#252=ORIENTED_EDGE('',*,*,#187,.F.);
#253=ORIENTED_EDGE('',*,*,#188,.T.);
#254=ORIENTED_EDGE('',*,*,#186,.T.);
#255=ORIENTED_EDGE('',*,*,#188,.F.);
#256=ORIENTED_EDGE('',*,*,#189,.F.);
#257=ORIENTED_EDGE('',*,*,#187,.T.);
#258=ORIENTED_EDGE('',*,*,#190,.F.);
#259=ORIENTED_EDGE('',*,*,#191,.T.);
#260=ORIENTED_EDGE('',*,*,#189,.T.);
#261=ORIENTED_EDGE('',*,*,#191,.F.);
#262=ORIENTED_EDGE('',*,*,#192,.F.);
#263=ORIENTED_EDGE('',*,*,#193,.T.);
#264=ORIENTED_EDGE('',*,*,#190,.T.);
#265=ORIENTED_EDGE('',*,*,#193,.F.);
#266=ORIENTED_EDGE('',*,*,#192,.T.);
#267=ORIENTED_EDGE('',*,*,#194,.F.);
#268=ORIENTED_EDGE('',*,*,#195,.F.);
#269=ORIENTED_EDGE('',*,*,#196,.T.);
#270=ORIENTED_EDGE('',*,*,#194,.T.);
#271=ORIENTED_EDGE('',*,*,#196,.F.);
#272=ORIENTED_EDGE('',*,*,#195,.T.);
#273=SPHERICAL_SURFACE('',#340,7.6);
#274=STYLED_ITEM('',(#601),#296);
#275=STYLED_ITEM('',(#601),#297);
#276=STYLED_ITEM('',(#601),#298);
#277=STYLED_ITEM('',(#601),#299);
#278=STYLED_ITEM('',(#601),#300);
#279=STYLED_ITEM('',(#601),#301);
#280=STYLED_ITEM('',(#601),#302);
#281=STYLED_ITEM('',(#601),#303);
#282=STYLED_ITEM('',(#601),#304);
#283=STYLED_ITEM('',(#601),#305);
#284=STYLED_ITEM('',(#601),#306);
#285=STYLED_ITEM('',(#601),#307);
#286=STYLED_ITEM('',(#601),#308);
#287=STYLED_ITEM('',(#602),#309);
#288=STYLED_ITEM('',(#602),#310);
#289=STYLED_ITEM('',(#601),#311);
#290=STYLED_ITEM('',(#601),#312);
#291=STYLED_ITEM('',(#601),#313);
#292=STYLED_ITEM('',(#601),#314);
#293=STYLED_ITEM('',(#601),#315);
#294=STYLED_ITEM('',(#601),#316);
#295=STYLED_ITEM('',(#600),#13);
#296=ADVANCED_FACE('',(#61),#273,.F.);
#297=ADVANCED_FACE('',(#62),#55,.F.);
#298=ADVANCED_FACE('',(#63),#30,.T.);
#299=ADVANCED_FACE('',(#64,#19),#24,.F.);
#300=ADVANCED_FACE('',(#65),#31,.T.);
#301=ADVANCED_FACE('',(#66),#56,.T.);
#302=ADVANCED_FACE('',(#67),#57,.T.);
#303=ADVANCED_FACE('',(#68,#20),#25,.F.);
#304=ADVANCED_FACE('',(#69),#14,.F.);
#305=ADVANCED_FACE('',(#70),#58,.F.);
#306=ADVANCED_FACE('',(#71),#59,.F.);
#307=ADVANCED_FACE('',(#72),#60,.T.);
#308=ADVANCED_FACE('',(#73),#15,.T.);
#309=ADVANCED_FACE('',(#74,#21),#26,.F.);
#310=ADVANCED_FACE('',(#75),#16,.F.);
#311=ADVANCED_FACE('',(#76,#22),#27,.F.);
#312=ADVANCED_FACE('',(#77),#17,.T.);
#313=ADVANCED_FACE('',(#78),#32,.T.);
#314=ADVANCED_FACE('',(#79,#23),#28,.F.);
#315=ADVANCED_FACE('',(#80),#18,.F.);
#316=ADVANCED_FACE('',(#81),#29,.F.);
#317=CLOSED_SHELL('',(#296,#297,#298,#299,#300,#301,#302,#303,#304,#305,
#306,#307,#308,#309,#310,#311,#312,#313,#314,#315,#316));
#318=DERIVED_UNIT_ELEMENT(#321,1.);
#319=DERIVED_UNIT_ELEMENT(#586,-3.);
#320=DIMENSIONAL_EXPONENTS(0.,1.,0.,0.,0.,0.,0.);
#321=(
CONVERSION_BASED_UNIT('gram',#323)
MASS_UNIT()
NAMED_UNIT(#320)
);
#322=(
MASS_UNIT()
NAMED_UNIT(*)
SI_UNIT(.KILO.,.GRAM.)
);
#323=MASS_MEASURE_WITH_UNIT(MASS_MEASURE(0.001),#322);
#324=DERIVED_UNIT((#318,#319));
#325=MEASURE_REPRESENTATION_ITEM('density measure',
POSITIVE_RATIO_MEASURE(1.),#324);
#326=PROPERTY_DEFINITION_REPRESENTATION(#331,#328);
#327=PROPERTY_DEFINITION_REPRESENTATION(#332,#329);
#328=REPRESENTATION('material name',(#330),#583);
#329=REPRESENTATION('density',(#325),#583);
#330=DESCRIPTIVE_REPRESENTATION_ITEM('Generic','Generic');
#331=PROPERTY_DEFINITION('material property','material name',#593);
#332=PROPERTY_DEFINITION('material property','density of part',#593);
#333=DATE_TIME_ROLE('creation_date');
#334=APPLIED_DATE_AND_TIME_ASSIGNMENT(#335,#333,(#593));
#335=DATE_AND_TIME(#336,#337);
#336=CALENDAR_DATE(2022,14,7);
#337=LOCAL_TIME(16,35,19.,#338);
#338=COORDINATED_UNIVERSAL_TIME_OFFSET(0,0,.BEHIND.);
#339=AXIS2_PLACEMENT_3D('',#497,#388,#389);
#340=AXIS2_PLACEMENT_3D('',#498,#390,#391);
#341=AXIS2_PLACEMENT_3D('',#501,#392,#393);
#342=AXIS2_PLACEMENT_3D('',#502,#394,#395);
#343=AXIS2_PLACEMENT_3D('',#504,#396,#397);
#344=AXIS2_PLACEMENT_3D('',#505,#398,#399);
#345=AXIS2_PLACEMENT_3D('',#507,#400,#401);
#346=AXIS2_PLACEMENT_3D('',#509,#403,#404);
#347=AXIS2_PLACEMENT_3D('',#511,#405,#406);
#348=AXIS2_PLACEMENT_3D('',#512,#407,#408);
#349=AXIS2_PLACEMENT_3D('',#513,#409,#410);
#350=AXIS2_PLACEMENT_3D('',#515,#411,#412);
#351=AXIS2_PLACEMENT_3D('',#516,#413,#414);
#352=AXIS2_PLACEMENT_3D('',#518,#415,#416);
#353=AXIS2_PLACEMENT_3D('',#519,#417,#418);
#354=AXIS2_PLACEMENT_3D('',#520,#419,#420);
#355=AXIS2_PLACEMENT_3D('',#522,#421,#422);
#356=AXIS2_PLACEMENT_3D('',#524,#424,#425);
#357=AXIS2_PLACEMENT_3D('',#526,#426,#427);
#358=AXIS2_PLACEMENT_3D('',#528,#429,#430);
#359=AXIS2_PLACEMENT_3D('',#530,#431,#432);
#360=AXIS2_PLACEMENT_3D('',#531,#433,#434);
#361=AXIS2_PLACEMENT_3D('',#533,#435,#436);
#362=AXIS2_PLACEMENT_3D('',#535,#438,#439);
#363=AXIS2_PLACEMENT_3D('',#537,#440,#441);
#364=AXIS2_PLACEMENT_3D('',#539,#443,#444);
#365=AXIS2_PLACEMENT_3D('',#542,#445,#446);
#366=AXIS2_PLACEMENT_3D('',#543,#447,#448);
#367=AXIS2_PLACEMENT_3D('',#545,#450,#451);
#368=AXIS2_PLACEMENT_3D('',#549,#453,#454);
#369=AXIS2_PLACEMENT_3D('',#550,#455,#456);
#370=AXIS2_PLACEMENT_3D('',#551,#457,#458);
#371=AXIS2_PLACEMENT_3D('',#553,#459,#460);
#372=AXIS2_PLACEMENT_3D('',#555,#462,#463);
#373=AXIS2_PLACEMENT_3D('',#557,#464,#465);
#374=AXIS2_PLACEMENT_3D('',#558,#466,#467);
#375=AXIS2_PLACEMENT_3D('',#560,#468,#469);
#376=AXIS2_PLACEMENT_3D('',#562,#471,#472);
#377=AXIS2_PLACEMENT_3D('',#564,#473,#474);
#378=AXIS2_PLACEMENT_3D('',#565,#475,#476);
#379=AXIS2_PLACEMENT_3D('',#567,#477,#478);
#380=AXIS2_PLACEMENT_3D('',#569,#480,#481);
#381=AXIS2_PLACEMENT_3D('',#571,#482,#483);
#382=AXIS2_PLACEMENT_3D('',#572,#484,#485);
#383=AXIS2_PLACEMENT_3D('',#573,#486,#487);
#384=AXIS2_PLACEMENT_3D('',#575,#488,#489);
#385=AXIS2_PLACEMENT_3D('',#576,#490,#491);
#386=AXIS2_PLACEMENT_3D('',#578,#492,#493);
#387=AXIS2_PLACEMENT_3D('',#580,#495,#496);
#388=DIRECTION('axis',(0.,0.,1.));
#389=DIRECTION('refdir',(1.,0.,0.));
#390=DIRECTION('center_axis',(-6.12323399573677E-17,-1.,0.));
#391=DIRECTION('ref_axis',(-1.,0.,0.));
#392=DIRECTION('center_axis',(0.,-1.,0.));
#393=DIRECTION('ref_axis',(0.,0.,-1.));
#394=DIRECTION('center_axis',(0.,-1.,0.));
#395=DIRECTION('ref_axis',(0.,0.,-1.));
#396=DIRECTION('center_axis',(1.22464679914735E-16,0.,-1.));
#397=DIRECTION('ref_axis',(1.,0.,1.22464679914735E-16));
#398=DIRECTION('center_axis',(0.,-1.,0.));
#399=DIRECTION('ref_axis',(0.,0.,-1.));
#400=DIRECTION('center_axis',(0.,-1.,0.));
#401=DIRECTION('ref_axis',(0.,0.,-1.));
#402=DIRECTION('',(-2.97020476879948E-17,-0.970142500145332,0.242535625036333));
#403=DIRECTION('center_axis',(0.,-1.,0.));
#404=DIRECTION('ref_axis',(0.,0.,-1.));
#405=DIRECTION('center_axis',(0.,-1.,0.));
#406=DIRECTION('ref_axis',(0.,0.,-1.));
#407=DIRECTION('center_axis',(-1.,0.,-1.22464679914735E-16));
#408=DIRECTION('ref_axis',(-1.22464679914735E-16,0.,1.));
#409=DIRECTION('center_axis',(0.,-1.,0.));
#410=DIRECTION('ref_axis',(0.,0.,-1.));
#411=DIRECTION('center_axis',(0.,-1.,0.));
#412=DIRECTION('ref_axis',(0.,0.,-1.));
#413=DIRECTION('center_axis',(0.,-1.,0.));
#414=DIRECTION('ref_axis',(0.,0.,-1.));
#415=DIRECTION('center_axis',(0.,-1.,0.));
#416=DIRECTION('ref_axis',(0.,0.,-1.));
#417=DIRECTION('center_axis',(-1.,0.,-1.22464679914735E-16));
#418=DIRECTION('ref_axis',(-1.22464679914735E-16,0.,1.));
#419=DIRECTION('center_axis',(0.,-1.,0.));
#420=DIRECTION('ref_axis',(0.,0.,-1.));
#421=DIRECTION('center_axis',(0.,-1.,0.));
#422=DIRECTION('ref_axis',(0.,0.,-1.));
#423=DIRECTION('',(2.60100587027795E-17,0.977185362395397,-0.212388247132877));
#424=DIRECTION('center_axis',(0.,-1.,0.));
#425=DIRECTION('ref_axis',(0.,0.,-1.));
#426=DIRECTION('center_axis',(0.,-1.,0.));
#427=DIRECTION('ref_axis',(0.,0.,-1.));
#428=DIRECTION('',(9.76597312160356E-18,0.996815278536125,-0.0797452222828902));
#429=DIRECTION('center_axis',(0.,1.,0.));
#430=DIRECTION('ref_axis',(0.,0.,1.));
#431=DIRECTION('center_axis',(0.,-1.,0.));
#432=DIRECTION('ref_axis',(0.,0.,-1.));
#433=DIRECTION('center_axis',(0.,-1.,0.));
#434=DIRECTION('ref_axis',(0.,0.,-1.));
#435=DIRECTION('center_axis',(0.,-1.,0.));
#436=DIRECTION('ref_axis',(0.,0.,-1.));
#437=DIRECTION('',(0.,-1.,0.));
#438=DIRECTION('center_axis',(0.,-1.,0.));
#439=DIRECTION('ref_axis',(0.,0.,-1.));
#440=DIRECTION('center_axis',(0.,-1.,0.));
#441=DIRECTION('ref_axis',(0.,0.,-1.));
#442=DIRECTION('',(-3.18744403216503E-17,-0.965534647198893,0.260274557071006));
#443=DIRECTION('center_axis',(0.,-1.,0.));
#444=DIRECTION('ref_axis',(0.,0.,-1.));
#445=DIRECTION('center_axis',(0.,-1.,0.));
#446=DIRECTION('ref_axis',(0.,0.,-1.));
#447=DIRECTION('center_axis',(0.,-1.,0.));
#448=DIRECTION('ref_axis',(0.,0.,-1.));
#449=DIRECTION('',(-1.16318748689592E-16,-0.312813212384024,0.94981466305695));
#450=DIRECTION('center_axis',(0.,1.,0.));
#451=DIRECTION('ref_axis',(0.,0.,1.));
#452=DIRECTION('',(8.54926097195372E-17,-0.716000139620041,0.69810013612954));
#453=DIRECTION('center_axis',(0.,-1.,0.));
#454=DIRECTION('ref_axis',(0.,0.,-1.));
#455=DIRECTION('center_axis',(0.,-1.,0.));
#456=DIRECTION('ref_axis',(0.,0.,-1.));
#457=DIRECTION('center_axis',(0.,-1.,0.));
#458=DIRECTION('ref_axis',(0.,0.,-1.));
#459=DIRECTION('center_axis',(0.,-1.,0.));
#460=DIRECTION('ref_axis',(0.,0.,-1.));
#461=DIRECTION('',(0.,1.,0.));
#462=DIRECTION('center_axis',(0.,-1.,0.));
#463=DIRECTION('ref_axis',(0.,0.,-1.));
#464=DIRECTION('center_axis',(0.,-1.,0.));
#465=DIRECTION('ref_axis',(0.,0.,-1.));
#466=DIRECTION('center_axis',(0.,-1.,0.));
#467=DIRECTION('ref_axis',(0.,0.,-1.));
#468=DIRECTION('center_axis',(0.,-1.,0.));
#469=DIRECTION('ref_axis',(0.,0.,-1.));
#470=DIRECTION('',(0.,-1.,0.));
#471=DIRECTION('center_axis',(0.,-1.,0.));
#472=DIRECTION('ref_axis',(0.,0.,-1.));
#473=DIRECTION('center_axis',(0.,-1.,0.));
#474=DIRECTION('ref_axis',(0.,0.,-1.));
#475=DIRECTION('center_axis',(0.,-1.,0.));
#476=DIRECTION('ref_axis',(0.,0.,-1.));
#477=DIRECTION('center_axis',(0.,-1.,0.));
#478=DIRECTION('ref_axis',(0.,0.,-1.));
#479=DIRECTION('',(0.,1.,0.));
#480=DIRECTION('center_axis',(0.,-1.,0.));
#481=DIRECTION('ref_axis',(0.,0.,-1.));
#482=DIRECTION('center_axis',(0.,-1.,0.));
#483=DIRECTION('ref_axis',(0.,0.,-1.));
#484=DIRECTION('center_axis',(-1.,0.,-1.22464679914735E-16));
#485=DIRECTION('ref_axis',(-1.22464679914735E-16,0.,1.));
#486=DIRECTION('center_axis',(0.,1.,0.));
#487=DIRECTION('ref_axis',(0.,0.,1.));
#488=DIRECTION('center_axis',(0.,-1.,0.));
#489=DIRECTION('ref_axis',(0.,0.,-1.));
#490=DIRECTION('center_axis',(0.,-1.,0.));
#491=DIRECTION('ref_axis',(0.,0.,-1.));
#492=DIRECTION('center_axis',(0.,-1.,0.));
#493=DIRECTION('ref_axis',(0.,0.,-1.));
#494=DIRECTION('',(0.,-1.,0.));
#495=DIRECTION('center_axis',(0.,1.,0.));
#496=DIRECTION('ref_axis',(0.,0.,1.));
#497=CARTESIAN_POINT('',(0.,0.,0.));
#498=CARTESIAN_POINT('Origin',(-1.30104260698261E-15,15.1,0.));
#499=CARTESIAN_POINT('',(-9.30731567351989E-16,15.1,7.6));
#500=CARTESIAN_POINT('',(7.6,15.1,9.30731567351989E-16));
#501=CARTESIAN_POINT('Origin',(0.,15.1,0.));
#502=CARTESIAN_POINT('Origin',(0.,15.1,0.));
#503=CARTESIAN_POINT('',(-8.35676823306616E-16,7.5,5.69908717411506E-32));
#504=CARTESIAN_POINT('Origin',(-1.30104260698261E-15,15.1,0.));
#505=CARTESIAN_POINT('Origin',(0.,15.1,0.));
#506=CARTESIAN_POINT('',(-8.57252759403147E-16,17.5,7.));
#507=CARTESIAN_POINT('Origin',(0.,17.5,0.));
#508=CARTESIAN_POINT('',(-9.30731567351989E-16,15.1,7.6));
#509=CARTESIAN_POINT('Origin',(0.,17.5,0.));
#510=CARTESIAN_POINT('',(-9.18485099360515E-16,18.,7.5));
#511=CARTESIAN_POINT('Origin',(0.,18.,0.));
#512=CARTESIAN_POINT('Origin',(-9.18485099360516E-16,17.5,7.50000000000001));
#513=CARTESIAN_POINT('Origin',(7.5,18.,0.));
#514=CARTESIAN_POINT('',(-1.10142720503766E-15,18.,8.99383565779554));
#515=CARTESIAN_POINT('Origin',(0.,18.,0.));
#516=CARTESIAN_POINT('Origin',(0.,15.,0.));
#517=CARTESIAN_POINT('',(-1.46043928290701E-15,15.6371647413986,11.9253917449817));
#518=CARTESIAN_POINT('Origin',(0.,15.6371647413986,0.));
#519=CARTESIAN_POINT('Origin',(-1.10142720503766E-15,15.,8.99383565779554));
#520=CARTESIAN_POINT('Origin',(0.,15.6371647413986,0.));
#521=CARTESIAN_POINT('',(-1.71695481240459E-15,5.99999999999999,14.02));
#522=CARTESIAN_POINT('Origin',(0.,6.,0.));
#523=CARTESIAN_POINT('',(-1.46043928290701E-15,15.6371647413986,11.9253917449817));
#524=CARTESIAN_POINT('Origin',(0.,6.,0.));
#525=CARTESIAN_POINT('',(-1.77573785876366E-15,-1.11022302462516E-15,14.5));
#526=CARTESIAN_POINT('Origin',(0.,0.,0.));
#527=CARTESIAN_POINT('',(-1.71695481240459E-15,6.,14.02));
#528=CARTESIAN_POINT('Origin',(14.5,0.,0.));
#529=CARTESIAN_POINT('',(-1.28587913910472E-15,0.,10.5));
#530=CARTESIAN_POINT('Origin',(0.,0.,0.));
#531=CARTESIAN_POINT('Origin',(0.,0.,0.));
#532=CARTESIAN_POINT('',(-1.28587913910472E-15,5.,10.5));
#533=CARTESIAN_POINT('Origin',(0.,5.,0.));
#534=CARTESIAN_POINT('',(-1.28587913910472E-15,0.,10.5));
#535=CARTESIAN_POINT('Origin',(0.,5.,0.));
#536=CARTESIAN_POINT('',(-1.17198698678402E-15,8.45,9.57));
#537=CARTESIAN_POINT('Origin',(0.,8.45,0.));
#538=CARTESIAN_POINT('',(-1.28587913910472E-15,5.,10.5));
#539=CARTESIAN_POINT('Origin',(0.,8.45,0.));
#540=CARTESIAN_POINT('',(0.,9.,-7.9));
#541=CARTESIAN_POINT('',(-9.67470971326409E-16,9.,7.9));
#542=CARTESIAN_POINT('Origin',(0.,9.,0.));
#543=CARTESIAN_POINT('Origin',(0.,9.,0.));
#544=CARTESIAN_POINT('',(-1.17198698678402E-15,8.45,9.57));
#545=CARTESIAN_POINT('Origin',(0.,9.,0.));
#546=CARTESIAN_POINT('',(0.,5.,-4.));
#547=CARTESIAN_POINT('',(-9.67470971326409E-16,9.,-7.9));
#548=CARTESIAN_POINT('',(-4.89858719658941E-16,5.,4.));
#549=CARTESIAN_POINT('Origin',(0.,5.,0.));
#550=CARTESIAN_POINT('Origin',(0.,5.,0.));
#551=CARTESIAN_POINT('Origin',(0.,0.,0.));
#552=CARTESIAN_POINT('',(-4.89858719658941E-16,0.5,4.));
#553=CARTESIAN_POINT('Origin',(0.,0.5,0.));
#554=CARTESIAN_POINT('',(-4.89858719658941E-16,0.,4.));
#555=CARTESIAN_POINT('Origin',(0.,0.5,0.));
#556=CARTESIAN_POINT('',(-5.20474889637625E-16,0.5,4.25));
#557=CARTESIAN_POINT('Origin',(0.,0.5,0.));
#558=CARTESIAN_POINT('Origin',(0.,-2.,0.));
#559=CARTESIAN_POINT('',(-5.20474889637625E-16,5.,4.25));
#560=CARTESIAN_POINT('Origin',(0.,5.,0.));
#561=CARTESIAN_POINT('',(-5.20474889637625E-16,-2.,4.25));
#562=CARTESIAN_POINT('Origin',(4.25,5.,0.));
#563=CARTESIAN_POINT('',(-1.22464679914735E-15,5.,10.));
#564=CARTESIAN_POINT('Origin',(0.,5.,0.));
#565=CARTESIAN_POINT('Origin',(0.,-2.,0.));
#566=CARTESIAN_POINT('',(-1.22464679914735E-15,0.,10.));
#567=CARTESIAN_POINT('Origin',(0.,0.,0.));
#568=CARTESIAN_POINT('',(-1.22464679914735E-15,-2.,10.));
#569=CARTESIAN_POINT('Origin',(0.,1.84314369322536E-15,0.));
#570=CARTESIAN_POINT('',(-9.79717439317883E-16,-2.,8.));
#571=CARTESIAN_POINT('Origin',(0.,-2.,0.));
#572=CARTESIAN_POINT('Origin',(-9.79717439317883E-16,1.84314369322536E-15,
8.));
#573=CARTESIAN_POINT('Origin',(8.,-2.,0.));
#574=CARTESIAN_POINT('',(-6.12323399573677E-16,-2.,5.));
#575=CARTESIAN_POINT('Origin',(0.,-2.,0.));
#576=CARTESIAN_POINT('Origin',(0.,-2.,0.));
#577=CARTESIAN_POINT('',(-6.12323399573677E-16,-1.6,5.));
#578=CARTESIAN_POINT('Origin',(0.,-1.6,0.));
#579=CARTESIAN_POINT('',(-6.12323399573677E-16,-2.,5.));
#580=CARTESIAN_POINT('Origin',(5.,-1.6,0.));
#581=UNCERTAINTY_MEASURE_WITH_UNIT(LENGTH_MEASURE(0.01),#585,
'DISTANCE_ACCURACY_VALUE',
'Maximum model space distance between geometric entities at asserted c
onnectivities');
#582=UNCERTAINTY_MEASURE_WITH_UNIT(LENGTH_MEASURE(0.01),#585,
'DISTANCE_ACCURACY_VALUE',
'Maximum model space distance between geometric entities at asserted c
onnectivities');
#583=(
GEOMETRIC_REPRESENTATION_CONTEXT(3)
GLOBAL_UNCERTAINTY_ASSIGNED_CONTEXT((#581))
GLOBAL_UNIT_ASSIGNED_CONTEXT((#585,#587,#588))
REPRESENTATION_CONTEXT('','3D')
);
#584=(
GEOMETRIC_REPRESENTATION_CONTEXT(3)
GLOBAL_UNCERTAINTY_ASSIGNED_CONTEXT((#582))
GLOBAL_UNIT_ASSIGNED_CONTEXT((#585,#587,#588))
REPRESENTATION_CONTEXT('','3D')
);
#585=(
LENGTH_UNIT()
NAMED_UNIT(*)
SI_UNIT(.MILLI.,.METRE.)
);
#586=(
LENGTH_UNIT()
NAMED_UNIT(*)
SI_UNIT(.CENTI.,.METRE.)
);
#587=(
NAMED_UNIT(*)
PLANE_ANGLE_UNIT()
SI_UNIT($,.RADIAN.)
);
#588=(
NAMED_UNIT(*)
SI_UNIT($,.STERADIAN.)
SOLID_ANGLE_UNIT()
);
#589=SHAPE_DEFINITION_REPRESENTATION(#590,#591);
#590=PRODUCT_DEFINITION_SHAPE('',$,#593);
#591=SHAPE_REPRESENTATION('',(#339),#583);
#592=PRODUCT_DEFINITION_CONTEXT('part definition',#597,'design');
#593=PRODUCT_DEFINITION('1011882','1011882',#594,#592);
#594=PRODUCT_DEFINITION_FORMATION('',$,#599);
#595=PRODUCT_RELATED_PRODUCT_CATEGORY('1011882','1011882',(#599));
#596=APPLICATION_PROTOCOL_DEFINITION('international standard',
'automotive_design',2009,#597);
#597=APPLICATION_CONTEXT(
'Core Data for Automotive Mechanical Design Process');
#598=PRODUCT_CONTEXT('part definition',#597,'mechanical');
#599=PRODUCT('1011882','1011882','STEP AP214',(#598));
#600=PRESENTATION_STYLE_ASSIGNMENT((#603));
#601=PRESENTATION_STYLE_ASSIGNMENT((#604));
#602=PRESENTATION_STYLE_ASSIGNMENT((#605));
#603=SURFACE_STYLE_USAGE(.BOTH.,#612);
#604=SURFACE_STYLE_USAGE(.BOTH.,#613);
#605=SURFACE_STYLE_USAGE(.BOTH.,#614);
#606=SURFACE_STYLE_RENDERING_WITH_PROPERTIES($,#624,(#609));
#607=SURFACE_STYLE_RENDERING_WITH_PROPERTIES($,#625,(#610));
#608=SURFACE_STYLE_RENDERING_WITH_PROPERTIES($,#626,(#611));
#609=SURFACE_STYLE_TRANSPARENT(0.);
#610=SURFACE_STYLE_TRANSPARENT(0.);
#611=SURFACE_STYLE_TRANSPARENT(0.);
#612=SURFACE_SIDE_STYLE('',(#615,#606));
#613=SURFACE_SIDE_STYLE('',(#616,#607));
#614=SURFACE_SIDE_STYLE('',(#617,#608));
#615=SURFACE_STYLE_FILL_AREA(#618);
#616=SURFACE_STYLE_FILL_AREA(#619);
#617=SURFACE_STYLE_FILL_AREA(#620);
#618=FILL_AREA_STYLE('',(#621));
#619=FILL_AREA_STYLE('',(#622));
#620=FILL_AREA_STYLE('',(#623));
#621=FILL_AREA_STYLE_COLOUR('',#624);
#622=FILL_AREA_STYLE_COLOUR('',#625);
#623=FILL_AREA_STYLE_COLOUR('',#626);
#624=COLOUR_RGB('',0.749019607843137,0.749019607843137,0.749019607843137);
#625=COLOUR_RGB('',0.0549019607843137,0.0549019607843137,0.0627450980392157);
#626=COLOUR_RGB('',0.690196078431373,0.690196078431373,0.690196078431373);
ENDSEC;
END-ISO-10303-21;
