ISO-10303-21;
HEADER;
/* Generated by software containing ST-Developer
 * from STEP Tools, Inc. (www.steptools.com) 
 */

FILE_DESCRIPTION(
/* description */ ('STEP AP214'),
/* implementation_level */ '2;1');

FILE_NAME(
/* name */ '1011885.stp',
/* time_stamp */ '2024-06-13T10:26:39+02:00',
/* author */ ('Bo'),
/* organization */ ('CADENAS'),
/* preprocessor_version */ 'ST-DEVELOPER v20',
/* originating_system */ 'Autodesk Inventor 2025',
/* authorisation */ '  ');

FILE_SCHEMA (('AUTOMOTIVE_DESIGN { 1 0 10303 214 3 1 1 }'));
ENDSEC;

DATA;
#10=MECHANICAL_DESIGN_GEOMETRIC_PRESENTATION_REPRESENTATION('',(#13),#448);
#11=SHAPE_REPRESENTATION_RELATIONSHIP('SRR','None',#455,#12);
#12=ADVANCED_BREP_SHAPE_REPRESENTATION('',(#14),#447);
#13=STYLED_ITEM('',(#465),#14);
#14=MANIFOLD_SOLID_BREP('Solid1',#217);
#15=(
BOUNDED_SURFACE()
B_SPLINE_SURFACE(2,2,((#399,#400,#401,#402,#403,#404,#405,#406,#407),(#408,
#409,#410,#411,#412,#413,#414,#415,#416),(#417,#418,#419,#420,#421,#422,
#423,#424,#425)),.UNSPECIFIED.,.F.,.T.,.F.)
B_SPLINE_SURFACE_WITH_KNOTS((3,3),(3,2,2,2,3),(-1.15139608397304,-0.812202570956582),
(-3.14159265358979,-1.5707963267949,0.,1.5707963267949,3.14159265358979),
 .UNSPECIFIED.)
GEOMETRIC_REPRESENTATION_ITEM()
RATIONAL_B_SPLINE_SURFACE(((1.,0.707106781186548,1.,0.707106781186548,1.,
0.707106781186548,1.,0.707106781186548,1.),(0.985652908458228,0.696961855467057,
0.985652908458228,0.696961855467057,0.985652908458228,0.696961855467057,
0.985652908458228,0.696961855467057,0.985652908458228),(1.,0.707106781186548,
1.,0.707106781186548,1.,0.707106781186548,1.,0.707106781186548,1.)))
REPRESENTATION_ITEM('')
SURFACE()
);
#16=CONICAL_SURFACE('',#255,7.6,0.244978663126864);
#17=CONICAL_SURFACE('',#270,29.1101527223409,0.078539816339745);
#18=SPHERICAL_SURFACE('',#251,7.6);
#19=FACE_BOUND('',#51,.T.);
#20=FACE_BOUND('',#58,.T.);
#21=FACE_BOUND('',#64,.T.);
#22=FACE_BOUND('',#67,.T.);
#23=PLANE('',#246);
#24=PLANE('',#250);
#25=PLANE('',#260);
#26=PLANE('',#272);
#27=PLANE('',#276);
#28=TOROIDAL_SURFACE('',#243,23.,2.);
#29=TOROIDAL_SURFACE('',#257,7.50000000000001,0.500000000000005);
#30=TOROIDAL_SURFACE('',#262,11.4945736648905,4.99999999999998);
#31=TOROIDAL_SURFACE('',#267,24.1255660536752,5.00000000000005);
#32=FACE_OUTER_BOUND('',#48,.T.);
#33=FACE_OUTER_BOUND('',#49,.T.);
#34=FACE_OUTER_BOUND('',#50,.T.);
#35=FACE_OUTER_BOUND('',#52,.T.);
#36=FACE_OUTER_BOUND('',#53,.T.);
#37=FACE_OUTER_BOUND('',#54,.T.);
#38=FACE_OUTER_BOUND('',#55,.T.);
#39=FACE_OUTER_BOUND('',#56,.T.);
#40=FACE_OUTER_BOUND('',#57,.T.);
#41=FACE_OUTER_BOUND('',#59,.T.);
#42=FACE_OUTER_BOUND('',#60,.T.);
#43=FACE_OUTER_BOUND('',#61,.T.);
#44=FACE_OUTER_BOUND('',#62,.T.);
#45=FACE_OUTER_BOUND('',#63,.T.);
#46=FACE_OUTER_BOUND('',#65,.T.);
#47=FACE_OUTER_BOUND('',#66,.T.);
#48=EDGE_LOOP('',(#144,#145,#146,#147));
#49=EDGE_LOOP('',(#148,#149,#150,#151));
#50=EDGE_LOOP('',(#152));
#51=EDGE_LOOP('',(#153));
#52=EDGE_LOOP('',(#154,#155,#156,#157));
#53=EDGE_LOOP('',(#158));
#54=EDGE_LOOP('',(#159,#160,#161,#162));
#55=EDGE_LOOP('',(#163,#164,#165,#166,#167));
#56=EDGE_LOOP('',(#168,#169,#170,#171));
#57=EDGE_LOOP('',(#172));
#58=EDGE_LOOP('',(#173));
#59=EDGE_LOOP('',(#174,#175,#176,#177));
#60=EDGE_LOOP('',(#178,#179,#180,#181));
#61=EDGE_LOOP('',(#182,#183,#184,#185));
#62=EDGE_LOOP('',(#186,#187,#188,#189));
#63=EDGE_LOOP('',(#190));
#64=EDGE_LOOP('',(#191));
#65=EDGE_LOOP('',(#192,#193,#194,#195));
#66=EDGE_LOOP('',(#196));
#67=EDGE_LOOP('',(#197));
#68=LINE('',#363,#73);
#69=LINE('',#375,#74);
#70=LINE('',#387,#75);
#71=LINE('',#436,#76);
#72=LINE('',#443,#77);
#73=VECTOR('',#283,25.);
#74=VECTOR('',#300,7.5);
#75=VECTOR('',#315,7.6);
#76=VECTOR('',#346,29.1101527223409);
#77=VECTOR('',#355,25.5);
#78=CIRCLE('',#241,25.);
#79=CIRCLE('',#242,25.);
#80=CIRCLE('',#244,23.);
#81=CIRCLE('',#245,2.);
#82=CIRCLE('',#247,7.5);
#83=CIRCLE('',#249,7.5);
#84=CIRCLE('',#252,7.6);
#85=CIRCLE('',#253,7.6);
#86=CIRCLE('',#254,7.6);
#87=CIRCLE('',#256,7.);
#88=CIRCLE('',#258,7.5);
#89=CIRCLE('',#259,0.500000000000005);
#90=CIRCLE('',#261,11.4945736648905);
#91=CIRCLE('',#263,13.5306374054339);
#92=CIRCLE('',#264,4.99999999999998);
#93=CIRCLE('',#265,27.5650733929725);
#94=CIRCLE('',#266,50.0000000000006);
#95=CIRCLE('',#268,29.1101527223409);
#96=CIRCLE('',#269,5.00000000000005);
#97=CIRCLE('',#271,29.5);
#98=CIRCLE('',#273,25.5);
#99=CIRCLE('',#275,25.5);
#100=VERTEX_POINT('',#360);
#101=VERTEX_POINT('',#362);
#102=VERTEX_POINT('',#366);
#103=VERTEX_POINT('',#370);
#104=VERTEX_POINT('',#373);
#105=VERTEX_POINT('',#378);
#106=VERTEX_POINT('',#379);
#107=VERTEX_POINT('',#382);
#108=VERTEX_POINT('',#385);
#109=VERTEX_POINT('',#389);
#110=VERTEX_POINT('',#393);
#111=VERTEX_POINT('',#396);
#112=VERTEX_POINT('',#426);
#113=VERTEX_POINT('',#430);
#114=VERTEX_POINT('',#434);
#115=VERTEX_POINT('',#438);
#116=VERTEX_POINT('',#441);
#117=EDGE_CURVE('',#100,#100,#78,.T.);
#118=EDGE_CURVE('',#100,#101,#68,.T.);
#119=EDGE_CURVE('',#101,#101,#79,.T.);
#120=EDGE_CURVE('',#102,#102,#80,.T.);
#121=EDGE_CURVE('',#102,#100,#81,.T.);
#122=EDGE_CURVE('',#103,#103,#82,.T.);
#123=EDGE_CURVE('',#104,#104,#83,.T.);
#124=EDGE_CURVE('',#104,#103,#69,.T.);
#125=EDGE_CURVE('',#105,#106,#84,.T.);
#126=EDGE_CURVE('',#106,#105,#85,.T.);
#127=EDGE_CURVE('',#106,#107,#86,.T.);
#128=EDGE_CURVE('',#108,#108,#87,.T.);
#129=EDGE_CURVE('',#108,#105,#70,.T.);
#130=EDGE_CURVE('',#109,#109,#88,.T.);
#131=EDGE_CURVE('',#109,#108,#89,.T.);
#132=EDGE_CURVE('',#110,#110,#90,.T.);
#133=EDGE_CURVE('',#111,#111,#91,.T.);
#134=EDGE_CURVE('',#111,#110,#92,.T.);
#135=EDGE_CURVE('',#112,#112,#93,.T.);
#136=EDGE_CURVE('',#112,#111,#94,.T.);
#137=EDGE_CURVE('',#113,#113,#95,.T.);
#138=EDGE_CURVE('',#113,#112,#96,.T.);
#139=EDGE_CURVE('',#114,#114,#97,.T.);
#140=EDGE_CURVE('',#114,#113,#71,.T.);
#141=EDGE_CURVE('',#115,#115,#98,.T.);
#142=EDGE_CURVE('',#116,#116,#99,.T.);
#143=EDGE_CURVE('',#116,#115,#72,.T.);
#144=ORIENTED_EDGE('',*,*,#117,.F.);
#145=ORIENTED_EDGE('',*,*,#118,.T.);
#146=ORIENTED_EDGE('',*,*,#119,.T.);
#147=ORIENTED_EDGE('',*,*,#118,.F.);
#148=ORIENTED_EDGE('',*,*,#120,.F.);
#149=ORIENTED_EDGE('',*,*,#121,.T.);
#150=ORIENTED_EDGE('',*,*,#117,.T.);
#151=ORIENTED_EDGE('',*,*,#121,.F.);
#152=ORIENTED_EDGE('',*,*,#120,.T.);
#153=ORIENTED_EDGE('',*,*,#122,.F.);
#154=ORIENTED_EDGE('',*,*,#123,.F.);
#155=ORIENTED_EDGE('',*,*,#124,.T.);
#156=ORIENTED_EDGE('',*,*,#122,.T.);
#157=ORIENTED_EDGE('',*,*,#124,.F.);
#158=ORIENTED_EDGE('',*,*,#123,.T.);
#159=ORIENTED_EDGE('',*,*,#125,.F.);
#160=ORIENTED_EDGE('',*,*,#126,.F.);
#161=ORIENTED_EDGE('',*,*,#127,.T.);
#162=ORIENTED_EDGE('',*,*,#127,.F.);
#163=ORIENTED_EDGE('',*,*,#128,.F.);
#164=ORIENTED_EDGE('',*,*,#129,.T.);
#165=ORIENTED_EDGE('',*,*,#125,.T.);
#166=ORIENTED_EDGE('',*,*,#126,.T.);
#167=ORIENTED_EDGE('',*,*,#129,.F.);
#168=ORIENTED_EDGE('',*,*,#130,.F.);
#169=ORIENTED_EDGE('',*,*,#131,.T.);
#170=ORIENTED_EDGE('',*,*,#128,.T.);
#171=ORIENTED_EDGE('',*,*,#131,.F.);
#172=ORIENTED_EDGE('',*,*,#132,.F.);
#173=ORIENTED_EDGE('',*,*,#130,.T.);
#174=ORIENTED_EDGE('',*,*,#133,.F.);
#175=ORIENTED_EDGE('',*,*,#134,.T.);
#176=ORIENTED_EDGE('',*,*,#132,.T.);
#177=ORIENTED_EDGE('',*,*,#134,.F.);
#178=ORIENTED_EDGE('',*,*,#135,.F.);
#179=ORIENTED_EDGE('',*,*,#136,.T.);
#180=ORIENTED_EDGE('',*,*,#133,.T.);
#181=ORIENTED_EDGE('',*,*,#136,.F.);
#182=ORIENTED_EDGE('',*,*,#137,.F.);
#183=ORIENTED_EDGE('',*,*,#138,.T.);
#184=ORIENTED_EDGE('',*,*,#135,.T.);
#185=ORIENTED_EDGE('',*,*,#138,.F.);
#186=ORIENTED_EDGE('',*,*,#139,.F.);
#187=ORIENTED_EDGE('',*,*,#140,.T.);
#188=ORIENTED_EDGE('',*,*,#137,.T.);
#189=ORIENTED_EDGE('',*,*,#140,.F.);
#190=ORIENTED_EDGE('',*,*,#139,.T.);
#191=ORIENTED_EDGE('',*,*,#141,.F.);
#192=ORIENTED_EDGE('',*,*,#142,.F.);
#193=ORIENTED_EDGE('',*,*,#143,.T.);
#194=ORIENTED_EDGE('',*,*,#141,.T.);
#195=ORIENTED_EDGE('',*,*,#143,.F.);
#196=ORIENTED_EDGE('',*,*,#142,.T.);
#197=ORIENTED_EDGE('',*,*,#119,.F.);
#198=CYLINDRICAL_SURFACE('',#240,25.);
#199=CYLINDRICAL_SURFACE('',#248,7.5);
#200=CYLINDRICAL_SURFACE('',#274,25.5);
#201=ADVANCED_FACE('',(#32),#198,.T.);
#202=ADVANCED_FACE('',(#33),#28,.T.);
#203=ADVANCED_FACE('',(#34,#19),#23,.F.);
#204=ADVANCED_FACE('',(#35),#199,.F.);
#205=ADVANCED_FACE('',(#36),#24,.F.);
#206=ADVANCED_FACE('',(#37),#18,.F.);
#207=ADVANCED_FACE('',(#38),#16,.F.);
#208=ADVANCED_FACE('',(#39),#29,.T.);
#209=ADVANCED_FACE('',(#40,#20),#25,.F.);
#210=ADVANCED_FACE('',(#41),#30,.T.);
#211=ADVANCED_FACE('',(#42),#15,.F.);
#212=ADVANCED_FACE('',(#43),#31,.T.);
#213=ADVANCED_FACE('',(#44),#17,.T.);
#214=ADVANCED_FACE('',(#45,#21),#26,.F.);
#215=ADVANCED_FACE('',(#46),#200,.F.);
#216=ADVANCED_FACE('',(#47,#22),#27,.F.);
#217=CLOSED_SHELL('',(#201,#202,#203,#204,#205,#206,#207,#208,#209,#210,
#211,#212,#213,#214,#215,#216));
#218=DERIVED_UNIT_ELEMENT(#221,1.);
#219=DERIVED_UNIT_ELEMENT(#450,-3.);
#220=DIMENSIONAL_EXPONENTS(0.,1.,0.,0.,0.,0.,0.);
#221=(
CONVERSION_BASED_UNIT('gram',#223)
MASS_UNIT()
NAMED_UNIT(#220)
);
#222=(
MASS_UNIT()
NAMED_UNIT(*)
SI_UNIT(.KILO.,.GRAM.)
);
#223=MASS_MEASURE_WITH_UNIT(MASS_MEASURE(0.001),#222);
#224=DERIVED_UNIT((#218,#219));
#225=MEASURE_REPRESENTATION_ITEM('density measure',
POSITIVE_RATIO_MEASURE(1.),#224);
#226=PROPERTY_DEFINITION_REPRESENTATION(#231,#228);
#227=PROPERTY_DEFINITION_REPRESENTATION(#232,#229);
#228=REPRESENTATION('material name',(#230),#447);
#229=REPRESENTATION('density',(#225),#447);
#230=DESCRIPTIVE_REPRESENTATION_ITEM('Generic','Generic');
#231=PROPERTY_DEFINITION('material property','material name',#457);
#232=PROPERTY_DEFINITION('material property','density of part',#457);
#233=DATE_TIME_ROLE('creation_date');
#234=APPLIED_DATE_AND_TIME_ASSIGNMENT(#235,#233,(#457));
#235=DATE_AND_TIME(#236,#237);
#236=CALENDAR_DATE(2022,14,7);
#237=LOCAL_TIME(16,35,44.,#238);
#238=COORDINATED_UNIVERSAL_TIME_OFFSET(0,0,.BEHIND.);
#239=AXIS2_PLACEMENT_3D('',#358,#277,#278);
#240=AXIS2_PLACEMENT_3D('',#359,#279,#280);
#241=AXIS2_PLACEMENT_3D('',#361,#281,#282);
#242=AXIS2_PLACEMENT_3D('',#364,#284,#285);
#243=AXIS2_PLACEMENT_3D('',#365,#286,#287);
#244=AXIS2_PLACEMENT_3D('',#367,#288,#289);
#245=AXIS2_PLACEMENT_3D('',#368,#290,#291);
#246=AXIS2_PLACEMENT_3D('',#369,#292,#293);
#247=AXIS2_PLACEMENT_3D('',#371,#294,#295);
#248=AXIS2_PLACEMENT_3D('',#372,#296,#297);
#249=AXIS2_PLACEMENT_3D('',#374,#298,#299);
#250=AXIS2_PLACEMENT_3D('',#376,#301,#302);
#251=AXIS2_PLACEMENT_3D('',#377,#303,#304);
#252=AXIS2_PLACEMENT_3D('',#380,#305,#306);
#253=AXIS2_PLACEMENT_3D('',#381,#307,#308);
#254=AXIS2_PLACEMENT_3D('',#383,#309,#310);
#255=AXIS2_PLACEMENT_3D('',#384,#311,#312);
#256=AXIS2_PLACEMENT_3D('',#386,#313,#314);
#257=AXIS2_PLACEMENT_3D('',#388,#316,#317);
#258=AXIS2_PLACEMENT_3D('',#390,#318,#319);
#259=AXIS2_PLACEMENT_3D('',#391,#320,#321);
#260=AXIS2_PLACEMENT_3D('',#392,#322,#323);
#261=AXIS2_PLACEMENT_3D('',#394,#324,#325);
#262=AXIS2_PLACEMENT_3D('',#395,#326,#327);
#263=AXIS2_PLACEMENT_3D('',#397,#328,#329);
#264=AXIS2_PLACEMENT_3D('',#398,#330,#331);
#265=AXIS2_PLACEMENT_3D('',#427,#332,#333);
#266=AXIS2_PLACEMENT_3D('',#428,#334,#335);
#267=AXIS2_PLACEMENT_3D('',#429,#336,#337);
#268=AXIS2_PLACEMENT_3D('',#431,#338,#339);
#269=AXIS2_PLACEMENT_3D('',#432,#340,#341);
#270=AXIS2_PLACEMENT_3D('',#433,#342,#343);
#271=AXIS2_PLACEMENT_3D('',#435,#344,#345);
#272=AXIS2_PLACEMENT_3D('',#437,#347,#348);
#273=AXIS2_PLACEMENT_3D('',#439,#349,#350);
#274=AXIS2_PLACEMENT_3D('',#440,#351,#352);
#275=AXIS2_PLACEMENT_3D('',#442,#353,#354);
#276=AXIS2_PLACEMENT_3D('',#444,#356,#357);
#277=DIRECTION('axis',(0.,0.,1.));
#278=DIRECTION('refdir',(1.,0.,0.));
#279=DIRECTION('center_axis',(0.,-1.,0.));
#280=DIRECTION('ref_axis',(0.,0.,-1.));
#281=DIRECTION('center_axis',(0.,-1.,0.));
#282=DIRECTION('ref_axis',(0.,0.,-1.));
#283=DIRECTION('',(0.,1.,0.));
#284=DIRECTION('center_axis',(0.,-1.,0.));
#285=DIRECTION('ref_axis',(0.,0.,-1.));
#286=DIRECTION('center_axis',(0.,-1.,0.));
#287=DIRECTION('ref_axis',(0.,0.,-1.));
#288=DIRECTION('center_axis',(0.,-1.,0.));
#289=DIRECTION('ref_axis',(0.,0.,-1.));
#290=DIRECTION('center_axis',(-1.,0.,-1.22464679914735E-16));
#291=DIRECTION('ref_axis',(-1.22464679914735E-16,0.,1.));
#292=DIRECTION('center_axis',(0.,1.,0.));
#293=DIRECTION('ref_axis',(0.,0.,1.));
#294=DIRECTION('center_axis',(0.,-1.,0.));
#295=DIRECTION('ref_axis',(0.,0.,-1.));
#296=DIRECTION('center_axis',(0.,-1.,0.));
#297=DIRECTION('ref_axis',(0.,0.,-1.));
#298=DIRECTION('center_axis',(0.,-1.,0.));
#299=DIRECTION('ref_axis',(0.,0.,-1.));
#300=DIRECTION('',(0.,-1.,0.));
#301=DIRECTION('center_axis',(0.,1.,0.));
#302=DIRECTION('ref_axis',(0.,0.,1.));
#303=DIRECTION('center_axis',(-6.12323399573677E-17,-1.,0.));
#304=DIRECTION('ref_axis',(-1.,0.,0.));
#305=DIRECTION('center_axis',(0.,-1.,0.));
#306=DIRECTION('ref_axis',(0.,0.,-1.));
#307=DIRECTION('center_axis',(0.,-1.,0.));
#308=DIRECTION('ref_axis',(0.,0.,-1.));
#309=DIRECTION('center_axis',(1.22464679914735E-16,0.,-1.));
#310=DIRECTION('ref_axis',(1.,0.,1.22464679914735E-16));
#311=DIRECTION('center_axis',(0.,-1.,0.));
#312=DIRECTION('ref_axis',(0.,0.,-1.));
#313=DIRECTION('center_axis',(0.,-1.,0.));
#314=DIRECTION('ref_axis',(0.,0.,-1.));
#315=DIRECTION('',(-2.97020476879948E-17,-0.970142500145332,0.242535625036333));
#316=DIRECTION('center_axis',(0.,-1.,0.));
#317=DIRECTION('ref_axis',(0.,0.,-1.));
#318=DIRECTION('center_axis',(0.,-1.,0.));
#319=DIRECTION('ref_axis',(0.,0.,-1.));
#320=DIRECTION('center_axis',(-1.,0.,-1.22464679914735E-16));
#321=DIRECTION('ref_axis',(-1.22464679914735E-16,0.,1.));
#322=DIRECTION('center_axis',(0.,-1.,0.));
#323=DIRECTION('ref_axis',(0.,0.,-1.));
#324=DIRECTION('center_axis',(0.,-1.,0.));
#325=DIRECTION('ref_axis',(0.,0.,-1.));
#326=DIRECTION('center_axis',(0.,-1.,0.));
#327=DIRECTION('ref_axis',(0.,0.,-1.));
#328=DIRECTION('center_axis',(0.,-1.,0.));
#329=DIRECTION('ref_axis',(0.,0.,-1.));
#330=DIRECTION('center_axis',(-1.,0.,-1.22464679914735E-16));
#331=DIRECTION('ref_axis',(-1.22464679914735E-16,0.,1.));
#332=DIRECTION('center_axis',(0.,-1.,0.));
#333=DIRECTION('ref_axis',(0.,0.,-1.));
#334=DIRECTION('center_axis',(-1.,0.,-1.22464679914735E-16));
#335=DIRECTION('ref_axis',(-1.22464679914735E-16,0.,1.));
#336=DIRECTION('center_axis',(0.,-1.,0.));
#337=DIRECTION('ref_axis',(0.,0.,-1.));
#338=DIRECTION('center_axis',(0.,-1.,0.));
#339=DIRECTION('ref_axis',(0.,0.,-1.));
#340=DIRECTION('center_axis',(-1.,0.,-1.22464679914735E-16));
#341=DIRECTION('ref_axis',(-1.22464679914735E-16,0.,1.));
#342=DIRECTION('center_axis',(0.,-1.,0.));
#343=DIRECTION('ref_axis',(0.,0.,-1.));
#344=DIRECTION('center_axis',(0.,-1.,0.));
#345=DIRECTION('ref_axis',(0.,0.,-1.));
#346=DIRECTION('',(9.60846804471013E-18,0.996917333733128,-0.0784590957278451));
#347=DIRECTION('center_axis',(0.,1.,0.));
#348=DIRECTION('ref_axis',(0.,0.,1.));
#349=DIRECTION('center_axis',(0.,-1.,0.));
#350=DIRECTION('ref_axis',(0.,0.,-1.));
#351=DIRECTION('center_axis',(0.,-1.,0.));
#352=DIRECTION('ref_axis',(0.,0.,-1.));
#353=DIRECTION('center_axis',(0.,-1.,0.));
#354=DIRECTION('ref_axis',(0.,0.,-1.));
#355=DIRECTION('',(0.,-1.,0.));
#356=DIRECTION('center_axis',(0.,1.,0.));
#357=DIRECTION('ref_axis',(0.,0.,1.));
#358=CARTESIAN_POINT('',(0.,0.,0.));
#359=CARTESIAN_POINT('Origin',(0.,-2.,0.));
#360=CARTESIAN_POINT('',(-3.06161699786838E-15,0.,25.));
#361=CARTESIAN_POINT('Origin',(0.,0.,0.));
#362=CARTESIAN_POINT('',(-3.06161699786838E-15,5.,25.));
#363=CARTESIAN_POINT('',(-3.06161699786838E-15,-2.,25.));
#364=CARTESIAN_POINT('Origin',(0.,5.,0.));
#365=CARTESIAN_POINT('Origin',(0.,-1.73472347597681E-15,0.));
#366=CARTESIAN_POINT('',(-2.81668763803891E-15,-2.,23.));
#367=CARTESIAN_POINT('Origin',(0.,-2.,0.));
#368=CARTESIAN_POINT('Origin',(-2.81668763803891E-15,-1.73472347597681E-15,
23.));
#369=CARTESIAN_POINT('Origin',(23.,-2.,0.));
#370=CARTESIAN_POINT('',(-9.18485099360515E-16,-2.,7.5));
#371=CARTESIAN_POINT('Origin',(0.,-2.,0.));
#372=CARTESIAN_POINT('Origin',(0.,-2.,0.));
#373=CARTESIAN_POINT('',(-9.18485099360515E-16,-1.6,7.5));
#374=CARTESIAN_POINT('Origin',(0.,-1.6,0.));
#375=CARTESIAN_POINT('',(-9.18485099360515E-16,-2.,7.5));
#376=CARTESIAN_POINT('Origin',(7.5,-1.6,0.));
#377=CARTESIAN_POINT('Origin',(-1.30104260698261E-15,15.1,0.));
#378=CARTESIAN_POINT('',(-9.30731567351989E-16,15.1,7.6));
#379=CARTESIAN_POINT('',(7.6,15.1,9.30731567351989E-16));
#380=CARTESIAN_POINT('Origin',(0.,15.1,0.));
#381=CARTESIAN_POINT('Origin',(0.,15.1,0.));
#382=CARTESIAN_POINT('',(-8.35676823306616E-16,7.5,5.69908717411506E-32));
#383=CARTESIAN_POINT('Origin',(-1.30104260698261E-15,15.1,0.));
#384=CARTESIAN_POINT('Origin',(0.,15.1,0.));
#385=CARTESIAN_POINT('',(-8.57252759403147E-16,17.5,7.));
#386=CARTESIAN_POINT('Origin',(0.,17.5,0.));
#387=CARTESIAN_POINT('',(-9.30731567351989E-16,15.1,7.6));
#388=CARTESIAN_POINT('Origin',(0.,17.5,0.));
#389=CARTESIAN_POINT('',(-9.18485099360515E-16,18.,7.5));
#390=CARTESIAN_POINT('Origin',(0.,18.,0.));
#391=CARTESIAN_POINT('Origin',(-9.18485099360516E-16,17.5,7.50000000000001));
#392=CARTESIAN_POINT('Origin',(7.5,18.,0.));
#393=CARTESIAN_POINT('',(-1.40767928462716E-15,18.,11.4945736648905));
#394=CARTESIAN_POINT('Origin',(0.,18.,0.));
#395=CARTESIAN_POINT('Origin',(0.,13.,0.));
#396=CARTESIAN_POINT('',(-1.65702517889881E-15,17.5666666666667,13.5306374054339));
#397=CARTESIAN_POINT('Origin',(0.,17.5666666666667,0.));
#398=CARTESIAN_POINT('Origin',(-1.40767928462716E-15,13.,11.4945736648905));
#399=CARTESIAN_POINT('Ctrl Pts',(0.,17.5666666666667,13.5306374054339));
#400=CARTESIAN_POINT('Ctrl Pts',(-13.5306374054339,17.5666666666667,13.5306374054339));
#401=CARTESIAN_POINT('Ctrl Pts',(-13.5306374054339,17.5666666666667,0.));
#402=CARTESIAN_POINT('Ctrl Pts',(-13.5306374054339,17.5666666666667,-13.5306374054339));
#403=CARTESIAN_POINT('Ctrl Pts',(0.,17.5666666666667,-13.5306374054339));
#404=CARTESIAN_POINT('Ctrl Pts',(13.5306374054339,17.5666666666667,-13.5306374054339));
#405=CARTESIAN_POINT('Ctrl Pts',(13.5306374054339,17.5666666666667,0.));
#406=CARTESIAN_POINT('Ctrl Pts',(13.5306374054339,17.5666666666667,13.5306374054339));
#407=CARTESIAN_POINT('Ctrl Pts',(0.,17.5666666666667,13.5306374054339));
#408=CARTESIAN_POINT('Ctrl Pts',(0.,14.0800759873223,21.3506761982388));
#409=CARTESIAN_POINT('Ctrl Pts',(-21.3506761982388,14.0800759873223,21.3506761982388));
#410=CARTESIAN_POINT('Ctrl Pts',(-21.3506761982388,14.0800759873223,0.));
#411=CARTESIAN_POINT('Ctrl Pts',(-21.3506761982388,14.0800759873223,-21.3506761982388));
#412=CARTESIAN_POINT('Ctrl Pts',(0.,14.0800759873223,-21.3506761982388));
#413=CARTESIAN_POINT('Ctrl Pts',(21.3506761982388,14.0800759873223,-21.3506761982388));
#414=CARTESIAN_POINT('Ctrl Pts',(21.3506761982388,14.0800759873223,0.));
#415=CARTESIAN_POINT('Ctrl Pts',(21.3506761982388,14.0800759873223,21.3506761982388));
#416=CARTESIAN_POINT('Ctrl Pts',(0.,14.0800759873223,21.3506761982388));
#417=CARTESIAN_POINT('Ctrl Pts',(0.,8.1902042745978,27.5650733929725));
#418=CARTESIAN_POINT('Ctrl Pts',(-27.5650733929725,8.1902042745978,27.5650733929725));
#419=CARTESIAN_POINT('Ctrl Pts',(-27.5650733929725,8.1902042745978,0.));
#420=CARTESIAN_POINT('Ctrl Pts',(-27.5650733929725,8.1902042745978,-27.5650733929725));
#421=CARTESIAN_POINT('Ctrl Pts',(0.,8.1902042745978,-27.5650733929725));
#422=CARTESIAN_POINT('Ctrl Pts',(27.5650733929725,8.1902042745978,-27.5650733929725));
#423=CARTESIAN_POINT('Ctrl Pts',(27.5650733929725,8.1902042745978,0.));
#424=CARTESIAN_POINT('Ctrl Pts',(27.5650733929725,8.1902042745978,27.5650733929725));
#425=CARTESIAN_POINT('Ctrl Pts',(0.,8.1902042745978,27.5650733929725));
#426=CARTESIAN_POINT('',(-3.37574788989657E-15,8.1902042745978,27.5650733929725));
#427=CARTESIAN_POINT('Origin',(0.,8.1902042745978,0.));
#428=CARTESIAN_POINT('Origin',(8.36433763817681E-16,-28.1000000000005,-6.83000000000032));
#429=CARTESIAN_POINT('Origin',(0.,4.56118384713801,0.));
#430=CARTESIAN_POINT('',(-3.56496553541054E-15,4.95347932577725,29.1101527223409));
#431=CARTESIAN_POINT('Origin',(0.,4.95347932577725,0.));
#432=CARTESIAN_POINT('Origin',(-2.95452972452514E-15,4.56118384713801,24.1255660536752));
#433=CARTESIAN_POINT('Origin',(0.,4.95347932577725,0.));
#434=CARTESIAN_POINT('',(-3.6127080574847E-15,1.11022302462516E-15,29.5));
#435=CARTESIAN_POINT('Origin',(0.,-8.67361737988404E-16,0.));
#436=CARTESIAN_POINT('',(-3.56496553541054E-15,4.95347932577725,29.1101527223409));
#437=CARTESIAN_POINT('Origin',(29.5,-4.33680868994202E-16,0.));
#438=CARTESIAN_POINT('',(-3.12284933782575E-15,0.,25.5));
#439=CARTESIAN_POINT('Origin',(0.,0.,0.));
#440=CARTESIAN_POINT('Origin',(0.,0.,0.));
#441=CARTESIAN_POINT('',(-3.12284933782575E-15,5.,25.5));
#442=CARTESIAN_POINT('Origin',(0.,5.,0.));
#443=CARTESIAN_POINT('',(-3.12284933782575E-15,0.,25.5));
#444=CARTESIAN_POINT('Origin',(25.5,5.,0.));
#445=UNCERTAINTY_MEASURE_WITH_UNIT(LENGTH_MEASURE(0.01),#449,
'DISTANCE_ACCURACY_VALUE',
'Maximum model space distance between geometric entities at asserted c
onnectivities');
#446=UNCERTAINTY_MEASURE_WITH_UNIT(LENGTH_MEASURE(0.01),#449,
'DISTANCE_ACCURACY_VALUE',
'Maximum model space distance between geometric entities at asserted c
onnectivities');
#447=(
GEOMETRIC_REPRESENTATION_CONTEXT(3)
GLOBAL_UNCERTAINTY_ASSIGNED_CONTEXT((#445))
GLOBAL_UNIT_ASSIGNED_CONTEXT((#449,#451,#452))
REPRESENTATION_CONTEXT('','3D')
);
#448=(
GEOMETRIC_REPRESENTATION_CONTEXT(3)
GLOBAL_UNCERTAINTY_ASSIGNED_CONTEXT((#446))
GLOBAL_UNIT_ASSIGNED_CONTEXT((#449,#451,#452))
REPRESENTATION_CONTEXT('','3D')
);
#449=(
LENGTH_UNIT()
NAMED_UNIT(*)
SI_UNIT(.MILLI.,.METRE.)
);
#450=(
LENGTH_UNIT()
NAMED_UNIT(*)
SI_UNIT(.CENTI.,.METRE.)
);
#451=(
NAMED_UNIT(*)
PLANE_ANGLE_UNIT()
SI_UNIT($,.RADIAN.)
);
#452=(
NAMED_UNIT(*)
SI_UNIT($,.STERADIAN.)
SOLID_ANGLE_UNIT()
);
#453=SHAPE_DEFINITION_REPRESENTATION(#454,#455);
#454=PRODUCT_DEFINITION_SHAPE('',$,#457);
#455=SHAPE_REPRESENTATION('',(#239),#447);
#456=PRODUCT_DEFINITION_CONTEXT('part definition',#461,'design');
#457=PRODUCT_DEFINITION('1011885','1011885',#458,#456);
#458=PRODUCT_DEFINITION_FORMATION('',$,#463);
#459=PRODUCT_RELATED_PRODUCT_CATEGORY('1011885','1011885',(#463));
#460=APPLICATION_PROTOCOL_DEFINITION('international standard',
'automotive_design',2009,#461);
#461=APPLICATION_CONTEXT(
'Core Data for Automotive Mechanical Design Process');
#462=PRODUCT_CONTEXT('part definition',#461,'mechanical');
#463=PRODUCT('1011885','1011885','STEP AP214',(#462));
#464=PRESENTATION_STYLE_ASSIGNMENT((#466));
#465=PRESENTATION_STYLE_ASSIGNMENT((#467));
#466=SURFACE_STYLE_USAGE(.BOTH.,#472);
#467=SURFACE_STYLE_USAGE(.BOTH.,#473);
#468=SURFACE_STYLE_RENDERING_WITH_PROPERTIES($,#480,(#470));
#469=SURFACE_STYLE_RENDERING_WITH_PROPERTIES($,#481,(#471));
#470=SURFACE_STYLE_TRANSPARENT(0.);
#471=SURFACE_STYLE_TRANSPARENT(0.);
#472=SURFACE_SIDE_STYLE('',(#474,#468));
#473=SURFACE_SIDE_STYLE('',(#475,#469));
#474=SURFACE_STYLE_FILL_AREA(#476);
#475=SURFACE_STYLE_FILL_AREA(#477);
#476=FILL_AREA_STYLE('',(#478));
#477=FILL_AREA_STYLE('',(#479));
#478=FILL_AREA_STYLE_COLOUR('',#480);
#479=FILL_AREA_STYLE_COLOUR('',#481);
#480=COLOUR_RGB('',0.749019607843137,0.749019607843137,0.749019607843137);
#481=COLOUR_RGB('',0.0549019607843137,0.0549019607843137,0.0627450980392157);
ENDSEC;
END-ISO-10303-21;
