ISO-10303-21;
HEADER;
/* Generated by software containing ST-Developer
 * from STEP Tools, Inc. (www.steptools.com) 
 */

FILE_DESCRIPTION(
/* description */ ('STEP AP214'),
/* implementation_level */ '2;1');

FILE_NAME(
/* name */ '1011890.stp',
/* time_stamp */ '2024-06-13T10:29:42+02:00',
/* author */ ('Bo'),
/* organization */ ('CADENAS'),
/* preprocessor_version */ 'ST-DEVELOPER v20',
/* originating_system */ 'Autodesk Inventor 2025',
/* authorisation */ '  ');

FILE_SCHEMA (('AUTOMOTIVE_DESIGN { 1 0 10303 214 3 1 1 }'));
ENDSEC;

DATA;
#10=MECHANICAL_DESIGN_GEOMETRIC_PRESENTATION_REPRESENTATION('',(#25,#26,
#27,#28,#29,#30,#31,#32,#33,#34,#35,#36,#37,#38,#39,#40,#41),#517);
#11=SHAPE_REPRESENTATION_RELATIONSHIP('SRR','None',#524,#12);
#12=ADVANCED_BREP_SHAPE_REPRESENTATION('',(#262),#516);
#13=SPHERICAL_SURFACE('',#325,7.6);
#14=(
BOUNDED_SURFACE()
B_SPLINE_SURFACE(2,2,((#464,#465,#466,#467,#468,#469,#470,#471,#472),(#473,
#474,#475,#476,#477,#478,#479,#480,#481),(#482,#483,#484,#485,#486,#487,
#488,#489,#490)),.UNSPECIFIED.,.F.,.T.,.F.)
B_SPLINE_SURFACE_WITH_KNOTS((3,3),(3,2,2,2,3),(-0.640774009255777,-0.517079679389046),
(-3.14159265358979,-1.5707963267949,0.,1.5707963267949,3.14159265358979),
 .UNSPECIFIED.)
GEOMETRIC_REPRESENTATION_ITEM()
RATIONAL_B_SPLINE_SURFACE(((1.,0.707106781186548,1.,0.707106781186548,1.,
0.707106781186548,1.,0.707106781186548,1.),(0.998088073649413,0.705754845098918,
0.998088073649413,0.705754845098918,0.998088073649413,0.705754845098918,
0.998088073649413,0.705754845098918,0.998088073649413),(1.,0.707106781186548,
1.,0.707106781186548,1.,0.707106781186548,1.,0.707106781186548,1.)))
REPRESENTATION_ITEM('')
SURFACE()
);
#15=CONICAL_SURFACE('',#307,18.8608713058075,0.101092512440198);
#16=CONICAL_SURFACE('',#322,7.6,0.244978663126864);
#17=FACE_BOUND('',#84,.T.);
#18=FACE_BOUND('',#88,.T.);
#19=FACE_BOUND('',#91,.T.);
#20=FACE_BOUND('',#97,.T.);
#21=TOROIDAL_SURFACE('',#293,13.,2.);
#22=TOROIDAL_SURFACE('',#309,15.8761877990878,3.00000000000006);
#23=TOROIDAL_SURFACE('',#314,9.99209560946674,3.00000000000001);
#24=TOROIDAL_SURFACE('',#319,7.50000000000001,0.500000000000005);
#25=STYLED_ITEM('',(#534),#244);
#26=STYLED_ITEM('',(#534),#245);
#27=STYLED_ITEM('',(#534),#246);
#28=STYLED_ITEM('',(#534),#247);
#29=STYLED_ITEM('',(#534),#248);
#30=STYLED_ITEM('',(#535),#249);
#31=STYLED_ITEM('',(#535),#250);
#32=STYLED_ITEM('',(#535),#251);
#33=STYLED_ITEM('',(#535),#252);
#34=STYLED_ITEM('',(#535),#253);
#35=STYLED_ITEM('',(#535),#254);
#36=STYLED_ITEM('',(#535),#255);
#37=STYLED_ITEM('',(#535),#256);
#38=STYLED_ITEM('',(#535),#257);
#39=STYLED_ITEM('',(#535),#258);
#40=STYLED_ITEM('',(#535),#259);
#41=STYLED_ITEM('',(#533),#262);
#42=ORIENTED_CLOSED_SHELL('',*,#260,.F.);
#43=LINE('',#427,#49);
#44=LINE('',#432,#50);
#45=LINE('',#444,#51);
#46=LINE('',#451,#52);
#47=LINE('',#458,#53);
#48=LINE('',#507,#54);
#49=VECTOR('',#339,7.5);
#50=VECTOR('',#344,15.);
#51=VECTOR('',#361,7.5);
#52=VECTOR('',#370,16.);
#53=VECTOR('',#379,18.8608713058075);
#54=VECTOR('',#410,7.6);
#55=CYLINDRICAL_SURFACE('',#289,7.5);
#56=CYLINDRICAL_SURFACE('',#290,15.);
#57=CYLINDRICAL_SURFACE('',#298,7.5);
#58=CYLINDRICAL_SURFACE('',#303,16.);
#59=FACE_OUTER_BOUND('',#78,.T.);
#60=FACE_OUTER_BOUND('',#79,.T.);
#61=FACE_OUTER_BOUND('',#80,.T.);
#62=FACE_OUTER_BOUND('',#81,.T.);
#63=FACE_OUTER_BOUND('',#82,.T.);
#64=FACE_OUTER_BOUND('',#83,.T.);
#65=FACE_OUTER_BOUND('',#85,.T.);
#66=FACE_OUTER_BOUND('',#86,.T.);
#67=FACE_OUTER_BOUND('',#87,.T.);
#68=FACE_OUTER_BOUND('',#89,.T.);
#69=FACE_OUTER_BOUND('',#90,.T.);
#70=FACE_OUTER_BOUND('',#92,.T.);
#71=FACE_OUTER_BOUND('',#93,.T.);
#72=FACE_OUTER_BOUND('',#94,.T.);
#73=FACE_OUTER_BOUND('',#95,.T.);
#74=FACE_OUTER_BOUND('',#96,.T.);
#75=FACE_OUTER_BOUND('',#98,.T.);
#76=FACE_OUTER_BOUND('',#99,.T.);
#77=FACE_OUTER_BOUND('',#100,.T.);
#78=EDGE_LOOP('',(#174));
#79=EDGE_LOOP('',(#175));
#80=EDGE_LOOP('',(#176,#177,#178,#179));
#81=EDGE_LOOP('',(#180,#181,#182,#183));
#82=EDGE_LOOP('',(#184,#185,#186,#187));
#83=EDGE_LOOP('',(#188));
#84=EDGE_LOOP('',(#189));
#85=EDGE_LOOP('',(#190,#191,#192,#193));
#86=EDGE_LOOP('',(#194));
#87=EDGE_LOOP('',(#195));
#88=EDGE_LOOP('',(#196));
#89=EDGE_LOOP('',(#197,#198,#199,#200));
#90=EDGE_LOOP('',(#201));
#91=EDGE_LOOP('',(#202));
#92=EDGE_LOOP('',(#203,#204,#205,#206));
#93=EDGE_LOOP('',(#207,#208,#209,#210));
#94=EDGE_LOOP('',(#211,#212,#213,#214));
#95=EDGE_LOOP('',(#215,#216,#217,#218));
#96=EDGE_LOOP('',(#219));
#97=EDGE_LOOP('',(#220));
#98=EDGE_LOOP('',(#221,#222,#223,#224));
#99=EDGE_LOOP('',(#225,#226,#227,#228,#229));
#100=EDGE_LOOP('',(#230,#231,#232,#233));
#101=CIRCLE('',#286,7.5);
#102=CIRCLE('',#288,7.5);
#103=CIRCLE('',#291,15.);
#104=CIRCLE('',#292,15.);
#105=CIRCLE('',#294,13.);
#106=CIRCLE('',#295,2.);
#107=CIRCLE('',#297,7.5);
#108=CIRCLE('',#299,7.5);
#109=CIRCLE('',#302,16.);
#110=CIRCLE('',#304,16.);
#111=CIRCLE('',#306,19.5);
#112=CIRCLE('',#308,18.8608713058075);
#113=CIRCLE('',#310,3.00000000000006);
#114=CIRCLE('',#311,18.4839873783667);
#115=CIRCLE('',#312,89.9999999999937);
#116=CIRCLE('',#313,12.396995458069);
#117=CIRCLE('',#315,3.00000000000001);
#118=CIRCLE('',#316,9.99209560946675);
#119=CIRCLE('',#318,7.5);
#120=CIRCLE('',#320,0.500000000000005);
#121=CIRCLE('',#321,7.);
#122=CIRCLE('',#323,7.6);
#123=CIRCLE('',#324,7.6);
#124=CIRCLE('',#326,7.6);
#125=VERTEX_POINT('',#421);
#126=VERTEX_POINT('',#424);
#127=VERTEX_POINT('',#429);
#128=VERTEX_POINT('',#431);
#129=VERTEX_POINT('',#435);
#130=VERTEX_POINT('',#439);
#131=VERTEX_POINT('',#442);
#132=VERTEX_POINT('',#447);
#133=VERTEX_POINT('',#450);
#134=VERTEX_POINT('',#454);
#135=VERTEX_POINT('',#457);
#136=VERTEX_POINT('',#461);
#137=VERTEX_POINT('',#491);
#138=VERTEX_POINT('',#495);
#139=VERTEX_POINT('',#499);
#140=VERTEX_POINT('',#502);
#141=VERTEX_POINT('',#506);
#142=VERTEX_POINT('',#508);
#143=VERTEX_POINT('',#512);
#144=EDGE_CURVE('',#125,#125,#101,.T.);
#145=EDGE_CURVE('',#126,#126,#102,.T.);
#146=EDGE_CURVE('',#125,#126,#43,.T.);
#147=EDGE_CURVE('',#127,#127,#103,.T.);
#148=EDGE_CURVE('',#127,#128,#44,.T.);
#149=EDGE_CURVE('',#128,#128,#104,.T.);
#150=EDGE_CURVE('',#129,#129,#105,.T.);
#151=EDGE_CURVE('',#129,#127,#106,.T.);
#152=EDGE_CURVE('',#130,#130,#107,.T.);
#153=EDGE_CURVE('',#131,#131,#108,.T.);
#154=EDGE_CURVE('',#131,#130,#45,.T.);
#155=EDGE_CURVE('',#132,#132,#109,.T.);
#156=EDGE_CURVE('',#132,#133,#46,.T.);
#157=EDGE_CURVE('',#133,#133,#110,.T.);
#158=EDGE_CURVE('',#134,#134,#111,.T.);
#159=EDGE_CURVE('',#134,#135,#47,.T.);
#160=EDGE_CURVE('',#135,#135,#112,.T.);
#161=EDGE_CURVE('',#135,#136,#113,.T.);
#162=EDGE_CURVE('',#136,#136,#114,.T.);
#163=EDGE_CURVE('',#136,#137,#115,.T.);
#164=EDGE_CURVE('',#137,#137,#116,.T.);
#165=EDGE_CURVE('',#137,#138,#117,.T.);
#166=EDGE_CURVE('',#138,#138,#118,.T.);
#167=EDGE_CURVE('',#139,#139,#119,.T.);
#168=EDGE_CURVE('',#139,#140,#120,.T.);
#169=EDGE_CURVE('',#140,#140,#121,.T.);
#170=EDGE_CURVE('',#140,#141,#48,.T.);
#171=EDGE_CURVE('',#141,#142,#122,.T.);
#172=EDGE_CURVE('',#142,#141,#123,.T.);
#173=EDGE_CURVE('',#142,#143,#124,.T.);
#174=ORIENTED_EDGE('',*,*,#144,.T.);
#175=ORIENTED_EDGE('',*,*,#145,.F.);
#176=ORIENTED_EDGE('',*,*,#144,.F.);
#177=ORIENTED_EDGE('',*,*,#146,.T.);
#178=ORIENTED_EDGE('',*,*,#145,.T.);
#179=ORIENTED_EDGE('',*,*,#146,.F.);
#180=ORIENTED_EDGE('',*,*,#147,.F.);
#181=ORIENTED_EDGE('',*,*,#148,.T.);
#182=ORIENTED_EDGE('',*,*,#149,.T.);
#183=ORIENTED_EDGE('',*,*,#148,.F.);
#184=ORIENTED_EDGE('',*,*,#150,.F.);
#185=ORIENTED_EDGE('',*,*,#151,.T.);
#186=ORIENTED_EDGE('',*,*,#147,.T.);
#187=ORIENTED_EDGE('',*,*,#151,.F.);
#188=ORIENTED_EDGE('',*,*,#150,.T.);
#189=ORIENTED_EDGE('',*,*,#152,.F.);
#190=ORIENTED_EDGE('',*,*,#153,.F.);
#191=ORIENTED_EDGE('',*,*,#154,.T.);
#192=ORIENTED_EDGE('',*,*,#152,.T.);
#193=ORIENTED_EDGE('',*,*,#154,.F.);
#194=ORIENTED_EDGE('',*,*,#153,.T.);
#195=ORIENTED_EDGE('',*,*,#155,.T.);
#196=ORIENTED_EDGE('',*,*,#149,.F.);
#197=ORIENTED_EDGE('',*,*,#155,.F.);
#198=ORIENTED_EDGE('',*,*,#156,.T.);
#199=ORIENTED_EDGE('',*,*,#157,.T.);
#200=ORIENTED_EDGE('',*,*,#156,.F.);
#201=ORIENTED_EDGE('',*,*,#158,.T.);
#202=ORIENTED_EDGE('',*,*,#157,.F.);
#203=ORIENTED_EDGE('',*,*,#158,.F.);
#204=ORIENTED_EDGE('',*,*,#159,.T.);
#205=ORIENTED_EDGE('',*,*,#160,.T.);
#206=ORIENTED_EDGE('',*,*,#159,.F.);
#207=ORIENTED_EDGE('',*,*,#160,.F.);
#208=ORIENTED_EDGE('',*,*,#161,.T.);
#209=ORIENTED_EDGE('',*,*,#162,.T.);
#210=ORIENTED_EDGE('',*,*,#161,.F.);
#211=ORIENTED_EDGE('',*,*,#162,.F.);
#212=ORIENTED_EDGE('',*,*,#163,.T.);
#213=ORIENTED_EDGE('',*,*,#164,.T.);
#214=ORIENTED_EDGE('',*,*,#163,.F.);
#215=ORIENTED_EDGE('',*,*,#164,.F.);
#216=ORIENTED_EDGE('',*,*,#165,.T.);
#217=ORIENTED_EDGE('',*,*,#166,.T.);
#218=ORIENTED_EDGE('',*,*,#165,.F.);
#219=ORIENTED_EDGE('',*,*,#166,.F.);
#220=ORIENTED_EDGE('',*,*,#167,.T.);
#221=ORIENTED_EDGE('',*,*,#167,.F.);
#222=ORIENTED_EDGE('',*,*,#168,.T.);
#223=ORIENTED_EDGE('',*,*,#169,.T.);
#224=ORIENTED_EDGE('',*,*,#168,.F.);
#225=ORIENTED_EDGE('',*,*,#169,.F.);
#226=ORIENTED_EDGE('',*,*,#170,.T.);
#227=ORIENTED_EDGE('',*,*,#171,.T.);
#228=ORIENTED_EDGE('',*,*,#172,.T.);
#229=ORIENTED_EDGE('',*,*,#170,.F.);
#230=ORIENTED_EDGE('',*,*,#171,.F.);
#231=ORIENTED_EDGE('',*,*,#172,.F.);
#232=ORIENTED_EDGE('',*,*,#173,.T.);
#233=ORIENTED_EDGE('',*,*,#173,.F.);
#234=PLANE('',#285);
#235=PLANE('',#287);
#236=PLANE('',#296);
#237=PLANE('',#300);
#238=PLANE('',#301);
#239=PLANE('',#305);
#240=PLANE('',#317);
#241=ADVANCED_FACE('',(#59),#234,.F.);
#242=ADVANCED_FACE('',(#60),#235,.F.);
#243=ADVANCED_FACE('',(#61),#55,.F.);
#244=ADVANCED_FACE('',(#62),#56,.T.);
#245=ADVANCED_FACE('',(#63),#21,.T.);
#246=ADVANCED_FACE('',(#64,#17),#236,.F.);
#247=ADVANCED_FACE('',(#65),#57,.F.);
#248=ADVANCED_FACE('',(#66),#237,.F.);
#249=ADVANCED_FACE('',(#67,#18),#238,.F.);
#250=ADVANCED_FACE('',(#68),#58,.F.);
#251=ADVANCED_FACE('',(#69,#19),#239,.F.);
#252=ADVANCED_FACE('',(#70),#15,.T.);
#253=ADVANCED_FACE('',(#71),#22,.T.);
#254=ADVANCED_FACE('',(#72),#14,.F.);
#255=ADVANCED_FACE('',(#73),#23,.T.);
#256=ADVANCED_FACE('',(#74,#20),#240,.F.);
#257=ADVANCED_FACE('',(#75),#24,.T.);
#258=ADVANCED_FACE('',(#76),#16,.F.);
#259=ADVANCED_FACE('',(#77),#13,.F.);
#260=CLOSED_SHELL('',(#241,#242,#243));
#261=CLOSED_SHELL('',(#244,#245,#246,#247,#248,#249,#250,#251,#252,#253,
#254,#255,#256,#257,#258,#259));
#262=BREP_WITH_VOIDS('Solid1',#261,(#42));
#263=DERIVED_UNIT_ELEMENT(#266,1.);
#264=DERIVED_UNIT_ELEMENT(#519,-3.);
#265=DIMENSIONAL_EXPONENTS(0.,1.,0.,0.,0.,0.,0.);
#266=(
CONVERSION_BASED_UNIT('gram',#268)
MASS_UNIT()
NAMED_UNIT(#265)
);
#267=(
MASS_UNIT()
NAMED_UNIT(*)
SI_UNIT(.KILO.,.GRAM.)
);
#268=MASS_MEASURE_WITH_UNIT(MASS_MEASURE(0.001),#267);
#269=DERIVED_UNIT((#263,#264));
#270=MEASURE_REPRESENTATION_ITEM('density measure',
POSITIVE_RATIO_MEASURE(1.),#269);
#271=PROPERTY_DEFINITION_REPRESENTATION(#276,#273);
#272=PROPERTY_DEFINITION_REPRESENTATION(#277,#274);
#273=REPRESENTATION('material name',(#275),#516);
#274=REPRESENTATION('density',(#270),#516);
#275=DESCRIPTIVE_REPRESENTATION_ITEM('Generic','Generic');
#276=PROPERTY_DEFINITION('material property','material name',#526);
#277=PROPERTY_DEFINITION('material property','density of part',#526);
#278=DATE_TIME_ROLE('creation_date');
#279=APPLIED_DATE_AND_TIME_ASSIGNMENT(#280,#278,(#526));
#280=DATE_AND_TIME(#281,#282);
#281=CALENDAR_DATE(2022,14,7);
#282=LOCAL_TIME(16,36,35.,#283);
#283=COORDINATED_UNIVERSAL_TIME_OFFSET(0,0,.BEHIND.);
#284=AXIS2_PLACEMENT_3D('',#419,#327,#328);
#285=AXIS2_PLACEMENT_3D('',#420,#329,#330);
#286=AXIS2_PLACEMENT_3D('',#422,#331,#332);
#287=AXIS2_PLACEMENT_3D('',#423,#333,#334);
#288=AXIS2_PLACEMENT_3D('',#425,#335,#336);
#289=AXIS2_PLACEMENT_3D('',#426,#337,#338);
#290=AXIS2_PLACEMENT_3D('',#428,#340,#341);
#291=AXIS2_PLACEMENT_3D('',#430,#342,#343);
#292=AXIS2_PLACEMENT_3D('',#433,#345,#346);
#293=AXIS2_PLACEMENT_3D('',#434,#347,#348);
#294=AXIS2_PLACEMENT_3D('',#436,#349,#350);
#295=AXIS2_PLACEMENT_3D('',#437,#351,#352);
#296=AXIS2_PLACEMENT_3D('',#438,#353,#354);
#297=AXIS2_PLACEMENT_3D('',#440,#355,#356);
#298=AXIS2_PLACEMENT_3D('',#441,#357,#358);
#299=AXIS2_PLACEMENT_3D('',#443,#359,#360);
#300=AXIS2_PLACEMENT_3D('',#445,#362,#363);
#301=AXIS2_PLACEMENT_3D('',#446,#364,#365);
#302=AXIS2_PLACEMENT_3D('',#448,#366,#367);
#303=AXIS2_PLACEMENT_3D('',#449,#368,#369);
#304=AXIS2_PLACEMENT_3D('',#452,#371,#372);
#305=AXIS2_PLACEMENT_3D('',#453,#373,#374);
#306=AXIS2_PLACEMENT_3D('',#455,#375,#376);
#307=AXIS2_PLACEMENT_3D('',#456,#377,#378);
#308=AXIS2_PLACEMENT_3D('',#459,#380,#381);
#309=AXIS2_PLACEMENT_3D('',#460,#382,#383);
#310=AXIS2_PLACEMENT_3D('',#462,#384,#385);
#311=AXIS2_PLACEMENT_3D('',#463,#386,#387);
#312=AXIS2_PLACEMENT_3D('',#492,#388,#389);
#313=AXIS2_PLACEMENT_3D('',#493,#390,#391);
#314=AXIS2_PLACEMENT_3D('',#494,#392,#393);
#315=AXIS2_PLACEMENT_3D('',#496,#394,#395);
#316=AXIS2_PLACEMENT_3D('',#497,#396,#397);
#317=AXIS2_PLACEMENT_3D('',#498,#398,#399);
#318=AXIS2_PLACEMENT_3D('',#500,#400,#401);
#319=AXIS2_PLACEMENT_3D('',#501,#402,#403);
#320=AXIS2_PLACEMENT_3D('',#503,#404,#405);
#321=AXIS2_PLACEMENT_3D('',#504,#406,#407);
#322=AXIS2_PLACEMENT_3D('',#505,#408,#409);
#323=AXIS2_PLACEMENT_3D('',#509,#411,#412);
#324=AXIS2_PLACEMENT_3D('',#510,#413,#414);
#325=AXIS2_PLACEMENT_3D('',#511,#415,#416);
#326=AXIS2_PLACEMENT_3D('',#513,#417,#418);
#327=DIRECTION('axis',(0.,0.,1.));
#328=DIRECTION('refdir',(1.,0.,0.));
#329=DIRECTION('center_axis',(0.,1.,0.));
#330=DIRECTION('ref_axis',(0.,0.,1.));
#331=DIRECTION('center_axis',(0.,-1.,0.));
#332=DIRECTION('ref_axis',(0.,0.,-1.));
#333=DIRECTION('center_axis',(0.,-1.,0.));
#334=DIRECTION('ref_axis',(0.,0.,-1.));
#335=DIRECTION('center_axis',(0.,-1.,0.));
#336=DIRECTION('ref_axis',(0.,0.,-1.));
#337=DIRECTION('center_axis',(0.,-1.,0.));
#338=DIRECTION('ref_axis',(0.,0.,-1.));
#339=DIRECTION('',(0.,-1.,0.));
#340=DIRECTION('center_axis',(0.,-1.,0.));
#341=DIRECTION('ref_axis',(0.,0.,-1.));
#342=DIRECTION('center_axis',(0.,-1.,0.));
#343=DIRECTION('ref_axis',(0.,0.,-1.));
#344=DIRECTION('',(0.,1.,0.));
#345=DIRECTION('center_axis',(0.,-1.,0.));
#346=DIRECTION('ref_axis',(0.,0.,-1.));
#347=DIRECTION('center_axis',(0.,-1.,0.));
#348=DIRECTION('ref_axis',(0.,0.,-1.));
#349=DIRECTION('center_axis',(0.,-1.,0.));
#350=DIRECTION('ref_axis',(0.,0.,-1.));
#351=DIRECTION('center_axis',(-1.,0.,-1.22464679914735E-16));
#352=DIRECTION('ref_axis',(-1.22464679914735E-16,0.,1.));
#353=DIRECTION('center_axis',(0.,1.,0.));
#354=DIRECTION('ref_axis',(0.,0.,1.));
#355=DIRECTION('center_axis',(0.,-1.,0.));
#356=DIRECTION('ref_axis',(0.,0.,-1.));
#357=DIRECTION('center_axis',(0.,-1.,0.));
#358=DIRECTION('ref_axis',(0.,0.,-1.));
#359=DIRECTION('center_axis',(0.,-1.,0.));
#360=DIRECTION('ref_axis',(0.,0.,-1.));
#361=DIRECTION('',(0.,-1.,0.));
#362=DIRECTION('center_axis',(0.,1.,0.));
#363=DIRECTION('ref_axis',(0.,0.,1.));
#364=DIRECTION('center_axis',(0.,1.,0.));
#365=DIRECTION('ref_axis',(0.,0.,1.));
#366=DIRECTION('center_axis',(0.,-1.,0.));
#367=DIRECTION('ref_axis',(0.,0.,-1.));
#368=DIRECTION('center_axis',(0.,-1.,0.));
#369=DIRECTION('ref_axis',(0.,0.,-1.));
#370=DIRECTION('',(0.,-1.,0.));
#371=DIRECTION('center_axis',(0.,-1.,0.));
#372=DIRECTION('ref_axis',(0.,0.,-1.));
#373=DIRECTION('center_axis',(0.,1.,0.));
#374=DIRECTION('ref_axis',(0.,0.,1.));
#375=DIRECTION('center_axis',(0.,-1.,0.));
#376=DIRECTION('ref_axis',(0.,0.,-1.));
#377=DIRECTION('center_axis',(0.,-1.,0.));
#378=DIRECTION('ref_axis',(0.,0.,-1.));
#379=DIRECTION('',(1.23591858642006E-17,0.994894502239905,-0.100920411279445));
#380=DIRECTION('center_axis',(0.,-1.,0.));
#381=DIRECTION('ref_axis',(0.,0.,-1.));
#382=DIRECTION('center_axis',(0.,-1.,0.));
#383=DIRECTION('ref_axis',(0.,0.,-1.));
#384=DIRECTION('center_axis',(-1.,0.,-1.22464679914735E-16));
#385=DIRECTION('ref_axis',(-1.22464679914735E-16,0.,1.));
#386=DIRECTION('center_axis',(0.,-1.,0.));
#387=DIRECTION('ref_axis',(0.,0.,-1.));
#388=DIRECTION('center_axis',(-1.,0.,-1.22464679914735E-16));
#389=DIRECTION('ref_axis',(-1.22464679914735E-16,0.,1.));
#390=DIRECTION('center_axis',(0.,-1.,0.));
#391=DIRECTION('ref_axis',(0.,0.,-1.));
#392=DIRECTION('center_axis',(0.,-1.,0.));
#393=DIRECTION('ref_axis',(0.,0.,-1.));
#394=DIRECTION('center_axis',(-1.,0.,-1.22464679914735E-16));
#395=DIRECTION('ref_axis',(-1.22464679914735E-16,0.,1.));
#396=DIRECTION('center_axis',(0.,-1.,0.));
#397=DIRECTION('ref_axis',(0.,0.,-1.));
#398=DIRECTION('center_axis',(0.,-1.,0.));
#399=DIRECTION('ref_axis',(0.,0.,-1.));
#400=DIRECTION('center_axis',(0.,-1.,0.));
#401=DIRECTION('ref_axis',(0.,0.,-1.));
#402=DIRECTION('center_axis',(0.,-1.,0.));
#403=DIRECTION('ref_axis',(0.,0.,-1.));
#404=DIRECTION('center_axis',(-1.,0.,-1.22464679914735E-16));
#405=DIRECTION('ref_axis',(-1.22464679914735E-16,0.,1.));
#406=DIRECTION('center_axis',(0.,-1.,0.));
#407=DIRECTION('ref_axis',(0.,0.,-1.));
#408=DIRECTION('center_axis',(0.,-1.,0.));
#409=DIRECTION('ref_axis',(0.,0.,-1.));
#410=DIRECTION('',(-2.97020476879948E-17,-0.970142500145332,0.242535625036333));
#411=DIRECTION('center_axis',(0.,-1.,0.));
#412=DIRECTION('ref_axis',(0.,0.,-1.));
#413=DIRECTION('center_axis',(0.,-1.,0.));
#414=DIRECTION('ref_axis',(0.,0.,-1.));
#415=DIRECTION('center_axis',(-6.12323399573677E-17,-1.,0.));
#416=DIRECTION('ref_axis',(-1.,0.,0.));
#417=DIRECTION('center_axis',(1.22464679914735E-16,0.,-1.));
#418=DIRECTION('ref_axis',(1.,0.,1.22464679914735E-16));
#419=CARTESIAN_POINT('',(0.,0.,0.));
#420=CARTESIAN_POINT('Origin',(7.5,1.,0.));
#421=CARTESIAN_POINT('',(-9.18485099360515E-16,1.,7.5));
#422=CARTESIAN_POINT('Origin',(0.,1.,0.));
#423=CARTESIAN_POINT('Origin',(0.,0.5,0.));
#424=CARTESIAN_POINT('',(-9.18485099360515E-16,0.5,7.5));
#425=CARTESIAN_POINT('Origin',(0.,0.5,0.));
#426=CARTESIAN_POINT('Origin',(0.,-2.,0.));
#427=CARTESIAN_POINT('',(-9.18485099360515E-16,-2.,7.5));
#428=CARTESIAN_POINT('Origin',(0.,-2.,0.));
#429=CARTESIAN_POINT('',(-1.83697019872103E-15,0.,15.));
#430=CARTESIAN_POINT('Origin',(0.,0.,0.));
#431=CARTESIAN_POINT('',(-1.83697019872103E-15,5.,15.));
#432=CARTESIAN_POINT('',(-1.83697019872103E-15,-2.,15.));
#433=CARTESIAN_POINT('Origin',(0.,5.,0.));
#434=CARTESIAN_POINT('Origin',(0.,-1.84314369322536E-15,0.));
#435=CARTESIAN_POINT('',(-1.59204083889156E-15,-2.,13.));
#436=CARTESIAN_POINT('Origin',(0.,-2.,0.));
#437=CARTESIAN_POINT('Origin',(-1.59204083889156E-15,-1.84314369322536E-15,
13.));
#438=CARTESIAN_POINT('Origin',(13.,-2.,0.));
#439=CARTESIAN_POINT('',(-9.18485099360515E-16,-2.,7.5));
#440=CARTESIAN_POINT('Origin',(0.,-2.,0.));
#441=CARTESIAN_POINT('Origin',(0.,-2.,0.));
#442=CARTESIAN_POINT('',(-9.18485099360515E-16,-1.6,7.5));
#443=CARTESIAN_POINT('Origin',(0.,-1.6,0.));
#444=CARTESIAN_POINT('',(-9.18485099360515E-16,-2.,7.5));
#445=CARTESIAN_POINT('Origin',(7.5,-1.6,0.));
#446=CARTESIAN_POINT('Origin',(16.,5.,0.));
#447=CARTESIAN_POINT('',(-1.95943487863577E-15,5.,16.));
#448=CARTESIAN_POINT('Origin',(0.,5.,0.));
#449=CARTESIAN_POINT('Origin',(0.,0.,0.));
#450=CARTESIAN_POINT('',(-1.95943487863577E-15,0.,16.));
#451=CARTESIAN_POINT('',(-1.95943487863577E-15,0.,16.));
#452=CARTESIAN_POINT('Origin',(0.,0.,0.));
#453=CARTESIAN_POINT('Origin',(19.5,0.,0.));
#454=CARTESIAN_POINT('',(-2.38806125833733E-15,-5.55111512312578E-15,19.5));
#455=CARTESIAN_POINT('Origin',(0.,0.,0.));
#456=CARTESIAN_POINT('Origin',(0.,6.30066421662857,0.));
#457=CARTESIAN_POINT('',(-2.30979056737873E-15,6.30066421662857,18.8608713058075));
#458=CARTESIAN_POINT('',(-2.30979056737873E-15,6.30066421662857,18.8608713058075));
#459=CARTESIAN_POINT('Origin',(0.,6.30066421662857,0.));
#460=CARTESIAN_POINT('Origin',(0.,5.99790298279024,0.));
#461=CARTESIAN_POINT('',(-2.26363559783969E-15,7.48093412012783,18.4839873783667));
#462=CARTESIAN_POINT('Origin',(-1.94427225708151E-15,5.99790298279024,15.8761877990878));
#463=CARTESIAN_POINT('Origin',(0.,7.48093412012783,0.));
#464=CARTESIAN_POINT('Ctrl Pts',(0.,16.7934482758621,12.396995458069));
#465=CARTESIAN_POINT('Ctrl Pts',(-12.396995458069,16.7934482758621,12.396995458069));
#466=CARTESIAN_POINT('Ctrl Pts',(-12.396995458069,16.7934482758621,0.));
#467=CARTESIAN_POINT('Ctrl Pts',(-12.396995458069,16.7934482758621,-12.396995458069));
#468=CARTESIAN_POINT('Ctrl Pts',(0.,16.7934482758621,-12.396995458069));
#469=CARTESIAN_POINT('Ctrl Pts',(12.396995458069,16.7934482758621,-12.396995458069));
#470=CARTESIAN_POINT('Ctrl Pts',(12.396995458069,16.7934482758621,0.));
#471=CARTESIAN_POINT('Ctrl Pts',(12.396995458069,16.7934482758621,12.396995458069));
#472=CARTESIAN_POINT('Ctrl Pts',(0.,16.7934482758621,12.396995458069));
#473=CARTESIAN_POINT('Ctrl Pts',(0.,12.3256631621836,15.7288354570219));
#474=CARTESIAN_POINT('Ctrl Pts',(-15.7288354570219,12.3256631621836,15.7288354570219));
#475=CARTESIAN_POINT('Ctrl Pts',(-15.7288354570219,12.3256631621836,0.));
#476=CARTESIAN_POINT('Ctrl Pts',(-15.7288354570219,12.3256631621836,-15.7288354570219));
#477=CARTESIAN_POINT('Ctrl Pts',(0.,12.3256631621836,-15.7288354570219));
#478=CARTESIAN_POINT('Ctrl Pts',(15.7288354570219,12.3256631621836,-15.7288354570219));
#479=CARTESIAN_POINT('Ctrl Pts',(15.7288354570219,12.3256631621836,0.));
#480=CARTESIAN_POINT('Ctrl Pts',(15.7288354570219,12.3256631621836,15.7288354570219));
#481=CARTESIAN_POINT('Ctrl Pts',(0.,12.3256631621836,15.7288354570219));
#482=CARTESIAN_POINT('Ctrl Pts',(0.,7.48093412012784,18.4839873783667));
#483=CARTESIAN_POINT('Ctrl Pts',(-18.4839873783667,7.48093412012784,18.4839873783667));
#484=CARTESIAN_POINT('Ctrl Pts',(-18.4839873783667,7.48093412012784,0.));
#485=CARTESIAN_POINT('Ctrl Pts',(-18.4839873783667,7.48093412012784,-18.4839873783667));
#486=CARTESIAN_POINT('Ctrl Pts',(0.,7.48093412012784,-18.4839873783667));
#487=CARTESIAN_POINT('Ctrl Pts',(18.4839873783667,7.48093412012784,-18.4839873783667));
#488=CARTESIAN_POINT('Ctrl Pts',(18.4839873783667,7.48093412012784,0.));
#489=CARTESIAN_POINT('Ctrl Pts',(18.4839873783667,7.48093412012784,18.4839873783667));
#490=CARTESIAN_POINT('Ctrl Pts',(0.,7.48093412012784,18.4839873783667));
#491=CARTESIAN_POINT('',(-1.51819408067685E-15,16.7934482758621,12.396995458069));
#492=CARTESIAN_POINT('Origin',(7.31726462490479E-15,-37.0099999999966,-59.7499999999947));
#493=CARTESIAN_POINT('Origin',(0.,16.7934482758621,0.));
#494=CARTESIAN_POINT('Origin',(0.,15.,0.));
#495=CARTESIAN_POINT('',(-1.22367879049078E-15,18.,9.99209560946675));
#496=CARTESIAN_POINT('Origin',(-1.22367879049078E-15,15.,9.99209560946674));
#497=CARTESIAN_POINT('Origin',(0.,18.,0.));
#498=CARTESIAN_POINT('Origin',(7.5,18.,0.));
#499=CARTESIAN_POINT('',(-9.18485099360515E-16,18.,7.5));
#500=CARTESIAN_POINT('Origin',(0.,18.,0.));
#501=CARTESIAN_POINT('Origin',(0.,17.5,0.));
#502=CARTESIAN_POINT('',(-8.57252759403147E-16,17.5,7.));
#503=CARTESIAN_POINT('Origin',(-9.18485099360516E-16,17.5,7.50000000000001));
#504=CARTESIAN_POINT('Origin',(0.,17.5,0.));
#505=CARTESIAN_POINT('Origin',(0.,15.1,0.));
#506=CARTESIAN_POINT('',(-9.30731567351989E-16,15.1,7.6));
#507=CARTESIAN_POINT('',(-9.30731567351989E-16,15.1,7.6));
#508=CARTESIAN_POINT('',(7.6,15.1,9.30731567351989E-16));
#509=CARTESIAN_POINT('Origin',(0.,15.1,0.));
#510=CARTESIAN_POINT('Origin',(0.,15.1,0.));
#511=CARTESIAN_POINT('Origin',(-1.30104260698261E-15,15.1,0.));
#512=CARTESIAN_POINT('',(-8.35676823306616E-16,7.5,5.69908717411506E-32));
#513=CARTESIAN_POINT('Origin',(-1.30104260698261E-15,15.1,0.));
#514=UNCERTAINTY_MEASURE_WITH_UNIT(LENGTH_MEASURE(0.01),#518,
'DISTANCE_ACCURACY_VALUE',
'Maximum model space distance between geometric entities at asserted c
onnectivities');
#515=UNCERTAINTY_MEASURE_WITH_UNIT(LENGTH_MEASURE(0.01),#518,
'DISTANCE_ACCURACY_VALUE',
'Maximum model space distance between geometric entities at asserted c
onnectivities');
#516=(
GEOMETRIC_REPRESENTATION_CONTEXT(3)
GLOBAL_UNCERTAINTY_ASSIGNED_CONTEXT((#514))
GLOBAL_UNIT_ASSIGNED_CONTEXT((#518,#520,#521))
REPRESENTATION_CONTEXT('','3D')
);
#517=(
GEOMETRIC_REPRESENTATION_CONTEXT(3)
GLOBAL_UNCERTAINTY_ASSIGNED_CONTEXT((#515))
GLOBAL_UNIT_ASSIGNED_CONTEXT((#518,#520,#521))
REPRESENTATION_CONTEXT('','3D')
);
#518=(
LENGTH_UNIT()
NAMED_UNIT(*)
SI_UNIT(.MILLI.,.METRE.)
);
#519=(
LENGTH_UNIT()
NAMED_UNIT(*)
SI_UNIT(.CENTI.,.METRE.)
);
#520=(
NAMED_UNIT(*)
PLANE_ANGLE_UNIT()
SI_UNIT($,.RADIAN.)
);
#521=(
NAMED_UNIT(*)
SI_UNIT($,.STERADIAN.)
SOLID_ANGLE_UNIT()
);
#522=SHAPE_DEFINITION_REPRESENTATION(#523,#524);
#523=PRODUCT_DEFINITION_SHAPE('',$,#526);
#524=SHAPE_REPRESENTATION('',(#284),#516);
#525=PRODUCT_DEFINITION_CONTEXT('part definition',#530,'design');
#526=PRODUCT_DEFINITION('1011890','1011890',#527,#525);
#527=PRODUCT_DEFINITION_FORMATION('',$,#532);
#528=PRODUCT_RELATED_PRODUCT_CATEGORY('1011890','1011890',(#532));
#529=APPLICATION_PROTOCOL_DEFINITION('international standard',
'automotive_design',2009,#530);
#530=APPLICATION_CONTEXT(
'Core Data for Automotive Mechanical Design Process');
#531=PRODUCT_CONTEXT('part definition',#530,'mechanical');
#532=PRODUCT('1011890','1011890','STEP AP214',(#531));
#533=PRESENTATION_STYLE_ASSIGNMENT((#536));
#534=PRESENTATION_STYLE_ASSIGNMENT((#537));
#535=PRESENTATION_STYLE_ASSIGNMENT((#538));
#536=SURFACE_STYLE_USAGE(.BOTH.,#545);
#537=SURFACE_STYLE_USAGE(.BOTH.,#546);
#538=SURFACE_STYLE_USAGE(.BOTH.,#547);
#539=SURFACE_STYLE_RENDERING_WITH_PROPERTIES($,#557,(#542));
#540=SURFACE_STYLE_RENDERING_WITH_PROPERTIES($,#558,(#543));
#541=SURFACE_STYLE_RENDERING_WITH_PROPERTIES($,#559,(#544));
#542=SURFACE_STYLE_TRANSPARENT(0.);
#543=SURFACE_STYLE_TRANSPARENT(0.);
#544=SURFACE_STYLE_TRANSPARENT(0.);
#545=SURFACE_SIDE_STYLE('',(#548,#539));
#546=SURFACE_SIDE_STYLE('',(#549,#540));
#547=SURFACE_SIDE_STYLE('',(#550,#541));
#548=SURFACE_STYLE_FILL_AREA(#551);
#549=SURFACE_STYLE_FILL_AREA(#552);
#550=SURFACE_STYLE_FILL_AREA(#553);
#551=FILL_AREA_STYLE('',(#554));
#552=FILL_AREA_STYLE('',(#555));
#553=FILL_AREA_STYLE('',(#556));
#554=FILL_AREA_STYLE_COLOUR('',#557);
#555=FILL_AREA_STYLE_COLOUR('',#558);
#556=FILL_AREA_STYLE_COLOUR('',#559);
#557=COLOUR_RGB('',0.749019607843137,0.749019607843137,0.749019607843137);
#558=COLOUR_RGB('',0.0549019607843137,0.0549019607843137,0.0627450980392157);
#559=COLOUR_RGB('',0.729411764705882,0.768627450980392,0.784313725490196);
ENDSEC;
END-ISO-10303-21;
