ISO-10303-21;
HEADER;
/* Generated by software containing ST-Developer
 * from STEP Tools, Inc. (www.steptools.com) 
 */

FILE_DESCRIPTION(
/* description */ ('STEP AP214'),
/* implementation_level */ '2;1');

FILE_NAME(
/* name */ '1011893.stp',
/* time_stamp */ '2024-06-13T10:31:23+02:00',
/* author */ ('Bo'),
/* organization */ ('CADENAS'),
/* preprocessor_version */ 'ST-DEVELOPER v20',
/* originating_system */ 'Autodesk Inventor 2025',
/* authorisation */ '  ');

FILE_SCHEMA (('AUTOMOTIVE_DESIGN { 1 0 10303 214 3 1 1 }'));
ENDSEC;

DATA;
#10=MECHANICAL_DESIGN_GEOMETRIC_PRESENTATION_REPRESENTATION('',(#19,#20,
#21,#22,#23,#24,#25,#26,#27,#28,#29,#30,#31,#32,#33),#511);
#11=SHAPE_REPRESENTATION_RELATIONSHIP('SRR','None',#518,#12);
#12=ADVANCED_BREP_SHAPE_REPRESENTATION('',(#263),#510);
#13=SPHERICAL_SURFACE('',#323,7.6);
#14=(
BOUNDED_SURFACE()
B_SPLINE_SURFACE(2,2,((#460,#461,#462,#463,#464,#465,#466,#467,#468),(#469,
#470,#471,#472,#473,#474,#475,#476,#477),(#478,#479,#480,#481,#482,#483,
#484,#485,#486)),.UNSPECIFIED.,.F.,.T.,.F.)
B_SPLINE_SURFACE_WITH_KNOTS((3,3),(3,2,2,2,3),(-1.51415220717616,-0.907617753778175),
(-3.14159265358979,-1.5707963267949,0.,1.5707963267949,3.14159265358979),
 .UNSPECIFIED.)
GEOMETRIC_REPRESENTATION_ITEM()
RATIONAL_B_SPLINE_SURFACE(((1.,0.707106781186548,1.,0.707106781186548,1.,
0.707106781186548,1.,0.707106781186548,1.),(0.954365860339852,0.674838571579243,
0.954365860339852,0.674838571579243,0.954365860339852,0.674838571579243,
0.954365860339852,0.674838571579243,0.954365860339852),(1.,0.707106781186548,
1.,0.707106781186548,1.,0.707106781186548,1.,0.707106781186548,1.)))
REPRESENTATION_ITEM('')
SURFACE()
);
#15=TOROIDAL_SURFACE('',#310,35.1448657541858,4.);
#16=CONICAL_SURFACE('',#308,39.1325350891183,0.0785398163397452);
#17=CONICAL_SURFACE('',#317,7.,0.785398163397441);
#18=CONICAL_SURFACE('',#320,7.6,0.244978663126864);
#19=STYLED_ITEM('',(#528),#247);
#20=STYLED_ITEM('',(#528),#248);
#21=STYLED_ITEM('',(#528),#249);
#22=STYLED_ITEM('',(#528),#250);
#23=STYLED_ITEM('',(#529),#251);
#24=STYLED_ITEM('',(#529),#252);
#25=STYLED_ITEM('',(#529),#253);
#26=STYLED_ITEM('',(#529),#254);
#27=STYLED_ITEM('',(#529),#255);
#28=STYLED_ITEM('',(#529),#256);
#29=STYLED_ITEM('',(#529),#257);
#30=STYLED_ITEM('',(#529),#258);
#31=STYLED_ITEM('',(#529),#259);
#32=STYLED_ITEM('',(#529),#260);
#33=STYLED_ITEM('',(#527),#263);
#34=ORIENTED_CLOSED_SHELL('',*,#261,.F.);
#35=LINE('',#422,#43);
#36=LINE('',#425,#44);
#37=LINE('',#432,#45);
#38=LINE('',#440,#46);
#39=LINE('',#447,#47);
#40=LINE('',#454,#48);
#41=LINE('',#498,#49);
#42=LINE('',#501,#50);
#43=VECTOR('',#337,7.4);
#44=VECTOR('',#340,7.75);
#45=VECTOR('',#349,34.);
#46=VECTOR('',#360,20.);
#47=VECTOR('',#369,34.5);
#48=VECTOR('',#378,39.1325350891183);
#49=VECTOR('',#401,7.);
#50=VECTOR('',#404,7.6);
#51=CYLINDRICAL_SURFACE('',#289,7.4);
#52=CYLINDRICAL_SURFACE('',#291,7.75);
#53=CYLINDRICAL_SURFACE('',#294,34.);
#54=CYLINDRICAL_SURFACE('',#299,20.);
#55=CYLINDRICAL_SURFACE('',#304,34.5);
#56=FACE_BOUND('',#81,.T.);
#57=FACE_BOUND('',#85,.T.);
#58=FACE_BOUND('',#88,.T.);
#59=FACE_BOUND('',#92,.T.);
#60=FACE_BOUND('',#95,.T.);
#61=FACE_BOUND('',#100,.T.);
#62=FACE_OUTER_BOUND('',#80,.T.);
#63=FACE_OUTER_BOUND('',#82,.T.);
#64=FACE_OUTER_BOUND('',#83,.T.);
#65=FACE_OUTER_BOUND('',#84,.T.);
#66=FACE_OUTER_BOUND('',#86,.T.);
#67=FACE_OUTER_BOUND('',#87,.T.);
#68=FACE_OUTER_BOUND('',#89,.T.);
#69=FACE_OUTER_BOUND('',#90,.T.);
#70=FACE_OUTER_BOUND('',#91,.T.);
#71=FACE_OUTER_BOUND('',#93,.T.);
#72=FACE_OUTER_BOUND('',#94,.T.);
#73=FACE_OUTER_BOUND('',#96,.T.);
#74=FACE_OUTER_BOUND('',#97,.T.);
#75=FACE_OUTER_BOUND('',#98,.T.);
#76=FACE_OUTER_BOUND('',#99,.T.);
#77=FACE_OUTER_BOUND('',#101,.T.);
#78=FACE_OUTER_BOUND('',#102,.T.);
#79=FACE_OUTER_BOUND('',#103,.T.);
#80=EDGE_LOOP('',(#176));
#81=EDGE_LOOP('',(#177));
#82=EDGE_LOOP('',(#178,#179,#180,#181));
#83=EDGE_LOOP('',(#182,#183,#184,#185));
#84=EDGE_LOOP('',(#186));
#85=EDGE_LOOP('',(#187));
#86=EDGE_LOOP('',(#188,#189,#190,#191));
#87=EDGE_LOOP('',(#192));
#88=EDGE_LOOP('',(#193));
#89=EDGE_LOOP('',(#194,#195,#196,#197));
#90=EDGE_LOOP('',(#198));
#91=EDGE_LOOP('',(#199));
#92=EDGE_LOOP('',(#200));
#93=EDGE_LOOP('',(#201,#202,#203,#204));
#94=EDGE_LOOP('',(#205));
#95=EDGE_LOOP('',(#206));
#96=EDGE_LOOP('',(#207,#208,#209,#210));
#97=EDGE_LOOP('',(#211,#212,#213,#214));
#98=EDGE_LOOP('',(#215,#216,#217,#218));
#99=EDGE_LOOP('',(#219));
#100=EDGE_LOOP('',(#220));
#101=EDGE_LOOP('',(#221,#222,#223,#224,#225));
#102=EDGE_LOOP('',(#226,#227,#228,#229,#230,#231));
#103=EDGE_LOOP('',(#232,#233,#234,#235));
#104=CIRCLE('',#287,7.75);
#105=CIRCLE('',#288,7.4);
#106=CIRCLE('',#290,7.4);
#107=CIRCLE('',#292,7.75);
#108=CIRCLE('',#295,34.);
#109=CIRCLE('',#296,34.);
#110=CIRCLE('',#298,20.);
#111=CIRCLE('',#300,20.);
#112=CIRCLE('',#303,34.5);
#113=CIRCLE('',#305,34.5);
#114=CIRCLE('',#307,39.5);
#115=CIRCLE('',#309,39.1325350891183);
#116=CIRCLE('',#311,4.);
#117=CIRCLE('',#312,37.6073649480992);
#118=CIRCLE('',#313,49.8800000000001);
#119=CIRCLE('',#314,9.72389801515582);
#120=CIRCLE('',#316,7.49999999999999);
#121=CIRCLE('',#318,7.);
#122=CIRCLE('',#319,7.);
#123=CIRCLE('',#321,7.6);
#124=CIRCLE('',#322,7.6);
#125=CIRCLE('',#324,7.6);
#126=VERTEX_POINT('',#415);
#127=VERTEX_POINT('',#417);
#128=VERTEX_POINT('',#420);
#129=VERTEX_POINT('',#424);
#130=VERTEX_POINT('',#429);
#131=VERTEX_POINT('',#431);
#132=VERTEX_POINT('',#435);
#133=VERTEX_POINT('',#438);
#134=VERTEX_POINT('',#443);
#135=VERTEX_POINT('',#446);
#136=VERTEX_POINT('',#450);
#137=VERTEX_POINT('',#453);
#138=VERTEX_POINT('',#457);
#139=VERTEX_POINT('',#487);
#140=VERTEX_POINT('',#491);
#141=VERTEX_POINT('',#494);
#142=VERTEX_POINT('',#495);
#143=VERTEX_POINT('',#500);
#144=VERTEX_POINT('',#502);
#145=VERTEX_POINT('',#506);
#146=EDGE_CURVE('',#126,#126,#104,.T.);
#147=EDGE_CURVE('',#127,#127,#105,.T.);
#148=EDGE_CURVE('',#128,#128,#106,.T.);
#149=EDGE_CURVE('',#128,#127,#35,.T.);
#150=EDGE_CURVE('',#126,#129,#36,.T.);
#151=EDGE_CURVE('',#129,#129,#107,.T.);
#152=EDGE_CURVE('',#130,#130,#108,.T.);
#153=EDGE_CURVE('',#130,#131,#37,.T.);
#154=EDGE_CURVE('',#131,#131,#109,.T.);
#155=EDGE_CURVE('',#132,#132,#110,.T.);
#156=EDGE_CURVE('',#133,#133,#111,.T.);
#157=EDGE_CURVE('',#133,#132,#38,.T.);
#158=EDGE_CURVE('',#134,#134,#112,.T.);
#159=EDGE_CURVE('',#134,#135,#39,.T.);
#160=EDGE_CURVE('',#135,#135,#113,.T.);
#161=EDGE_CURVE('',#136,#136,#114,.T.);
#162=EDGE_CURVE('',#136,#137,#40,.T.);
#163=EDGE_CURVE('',#137,#137,#115,.T.);
#164=EDGE_CURVE('',#137,#138,#116,.T.);
#165=EDGE_CURVE('',#138,#138,#117,.T.);
#166=EDGE_CURVE('',#138,#139,#118,.T.);
#167=EDGE_CURVE('',#139,#139,#119,.T.);
#168=EDGE_CURVE('',#140,#140,#120,.T.);
#169=EDGE_CURVE('',#141,#142,#121,.T.);
#170=EDGE_CURVE('',#142,#141,#122,.T.);
#171=EDGE_CURVE('',#141,#140,#41,.T.);
#172=EDGE_CURVE('',#142,#143,#42,.T.);
#173=EDGE_CURVE('',#143,#144,#123,.T.);
#174=EDGE_CURVE('',#144,#143,#124,.T.);
#175=EDGE_CURVE('',#144,#145,#125,.T.);
#176=ORIENTED_EDGE('',*,*,#146,.T.);
#177=ORIENTED_EDGE('',*,*,#147,.F.);
#178=ORIENTED_EDGE('',*,*,#148,.F.);
#179=ORIENTED_EDGE('',*,*,#149,.T.);
#180=ORIENTED_EDGE('',*,*,#147,.T.);
#181=ORIENTED_EDGE('',*,*,#149,.F.);
#182=ORIENTED_EDGE('',*,*,#146,.F.);
#183=ORIENTED_EDGE('',*,*,#150,.T.);
#184=ORIENTED_EDGE('',*,*,#151,.T.);
#185=ORIENTED_EDGE('',*,*,#150,.F.);
#186=ORIENTED_EDGE('',*,*,#151,.F.);
#187=ORIENTED_EDGE('',*,*,#148,.T.);
#188=ORIENTED_EDGE('',*,*,#152,.F.);
#189=ORIENTED_EDGE('',*,*,#153,.T.);
#190=ORIENTED_EDGE('',*,*,#154,.T.);
#191=ORIENTED_EDGE('',*,*,#153,.F.);
#192=ORIENTED_EDGE('',*,*,#152,.T.);
#193=ORIENTED_EDGE('',*,*,#155,.F.);
#194=ORIENTED_EDGE('',*,*,#156,.F.);
#195=ORIENTED_EDGE('',*,*,#157,.T.);
#196=ORIENTED_EDGE('',*,*,#155,.T.);
#197=ORIENTED_EDGE('',*,*,#157,.F.);
#198=ORIENTED_EDGE('',*,*,#156,.T.);
#199=ORIENTED_EDGE('',*,*,#158,.T.);
#200=ORIENTED_EDGE('',*,*,#154,.F.);
#201=ORIENTED_EDGE('',*,*,#158,.F.);
#202=ORIENTED_EDGE('',*,*,#159,.T.);
#203=ORIENTED_EDGE('',*,*,#160,.T.);
#204=ORIENTED_EDGE('',*,*,#159,.F.);
#205=ORIENTED_EDGE('',*,*,#161,.T.);
#206=ORIENTED_EDGE('',*,*,#160,.F.);
#207=ORIENTED_EDGE('',*,*,#161,.F.);
#208=ORIENTED_EDGE('',*,*,#162,.T.);
#209=ORIENTED_EDGE('',*,*,#163,.T.);
#210=ORIENTED_EDGE('',*,*,#162,.F.);
#211=ORIENTED_EDGE('',*,*,#163,.F.);
#212=ORIENTED_EDGE('',*,*,#164,.T.);
#213=ORIENTED_EDGE('',*,*,#165,.T.);
#214=ORIENTED_EDGE('',*,*,#164,.F.);
#215=ORIENTED_EDGE('',*,*,#165,.F.);
#216=ORIENTED_EDGE('',*,*,#166,.T.);
#217=ORIENTED_EDGE('',*,*,#167,.T.);
#218=ORIENTED_EDGE('',*,*,#166,.F.);
#219=ORIENTED_EDGE('',*,*,#167,.F.);
#220=ORIENTED_EDGE('',*,*,#168,.T.);
#221=ORIENTED_EDGE('',*,*,#169,.T.);
#222=ORIENTED_EDGE('',*,*,#170,.T.);
#223=ORIENTED_EDGE('',*,*,#171,.T.);
#224=ORIENTED_EDGE('',*,*,#168,.F.);
#225=ORIENTED_EDGE('',*,*,#171,.F.);
#226=ORIENTED_EDGE('',*,*,#169,.F.);
#227=ORIENTED_EDGE('',*,*,#170,.F.);
#228=ORIENTED_EDGE('',*,*,#172,.T.);
#229=ORIENTED_EDGE('',*,*,#173,.T.);
#230=ORIENTED_EDGE('',*,*,#174,.T.);
#231=ORIENTED_EDGE('',*,*,#172,.F.);
#232=ORIENTED_EDGE('',*,*,#173,.F.);
#233=ORIENTED_EDGE('',*,*,#174,.F.);
#234=ORIENTED_EDGE('',*,*,#175,.T.);
#235=ORIENTED_EDGE('',*,*,#175,.F.);
#236=PLANE('',#286);
#237=PLANE('',#293);
#238=PLANE('',#297);
#239=PLANE('',#301);
#240=PLANE('',#302);
#241=PLANE('',#306);
#242=PLANE('',#315);
#243=ADVANCED_FACE('',(#62,#56),#236,.F.);
#244=ADVANCED_FACE('',(#63),#51,.T.);
#245=ADVANCED_FACE('',(#64),#52,.F.);
#246=ADVANCED_FACE('',(#65,#57),#237,.F.);
#247=ADVANCED_FACE('',(#66),#53,.T.);
#248=ADVANCED_FACE('',(#67,#58),#238,.F.);
#249=ADVANCED_FACE('',(#68),#54,.F.);
#250=ADVANCED_FACE('',(#69),#239,.F.);
#251=ADVANCED_FACE('',(#70,#59),#240,.F.);
#252=ADVANCED_FACE('',(#71),#55,.F.);
#253=ADVANCED_FACE('',(#72,#60),#241,.F.);
#254=ADVANCED_FACE('',(#73),#16,.T.);
#255=ADVANCED_FACE('',(#74),#15,.T.);
#256=ADVANCED_FACE('',(#75),#14,.F.);
#257=ADVANCED_FACE('',(#76,#61),#242,.F.);
#258=ADVANCED_FACE('',(#77),#17,.F.);
#259=ADVANCED_FACE('',(#78),#18,.F.);
#260=ADVANCED_FACE('',(#79),#13,.F.);
#261=CLOSED_SHELL('',(#243,#244,#245,#246));
#262=CLOSED_SHELL('',(#247,#248,#249,#250,#251,#252,#253,#254,#255,#256,
#257,#258,#259,#260));
#263=BREP_WITH_VOIDS('Solid1',#262,(#34));
#264=DERIVED_UNIT_ELEMENT(#267,1.);
#265=DERIVED_UNIT_ELEMENT(#513,-3.);
#266=DIMENSIONAL_EXPONENTS(0.,1.,0.,0.,0.,0.,0.);
#267=(
CONVERSION_BASED_UNIT('gram',#269)
MASS_UNIT()
NAMED_UNIT(#266)
);
#268=(
MASS_UNIT()
NAMED_UNIT(*)
SI_UNIT(.KILO.,.GRAM.)
);
#269=MASS_MEASURE_WITH_UNIT(MASS_MEASURE(0.001),#268);
#270=DERIVED_UNIT((#264,#265));
#271=MEASURE_REPRESENTATION_ITEM('density measure',
POSITIVE_RATIO_MEASURE(1.),#270);
#272=PROPERTY_DEFINITION_REPRESENTATION(#277,#274);
#273=PROPERTY_DEFINITION_REPRESENTATION(#278,#275);
#274=REPRESENTATION('material name',(#276),#510);
#275=REPRESENTATION('density',(#271),#510);
#276=DESCRIPTIVE_REPRESENTATION_ITEM('Generic','Generic');
#277=PROPERTY_DEFINITION('material property','material name',#520);
#278=PROPERTY_DEFINITION('material property','density of part',#520);
#279=DATE_TIME_ROLE('creation_date');
#280=APPLIED_DATE_AND_TIME_ASSIGNMENT(#281,#279,(#520));
#281=DATE_AND_TIME(#282,#283);
#282=CALENDAR_DATE(2022,14,7);
#283=LOCAL_TIME(16,37,15.,#284);
#284=COORDINATED_UNIVERSAL_TIME_OFFSET(0,0,.BEHIND.);
#285=AXIS2_PLACEMENT_3D('',#413,#325,#326);
#286=AXIS2_PLACEMENT_3D('',#414,#327,#328);
#287=AXIS2_PLACEMENT_3D('',#416,#329,#330);
#288=AXIS2_PLACEMENT_3D('',#418,#331,#332);
#289=AXIS2_PLACEMENT_3D('',#419,#333,#334);
#290=AXIS2_PLACEMENT_3D('',#421,#335,#336);
#291=AXIS2_PLACEMENT_3D('',#423,#338,#339);
#292=AXIS2_PLACEMENT_3D('',#426,#341,#342);
#293=AXIS2_PLACEMENT_3D('',#427,#343,#344);
#294=AXIS2_PLACEMENT_3D('',#428,#345,#346);
#295=AXIS2_PLACEMENT_3D('',#430,#347,#348);
#296=AXIS2_PLACEMENT_3D('',#433,#350,#351);
#297=AXIS2_PLACEMENT_3D('',#434,#352,#353);
#298=AXIS2_PLACEMENT_3D('',#436,#354,#355);
#299=AXIS2_PLACEMENT_3D('',#437,#356,#357);
#300=AXIS2_PLACEMENT_3D('',#439,#358,#359);
#301=AXIS2_PLACEMENT_3D('',#441,#361,#362);
#302=AXIS2_PLACEMENT_3D('',#442,#363,#364);
#303=AXIS2_PLACEMENT_3D('',#444,#365,#366);
#304=AXIS2_PLACEMENT_3D('',#445,#367,#368);
#305=AXIS2_PLACEMENT_3D('',#448,#370,#371);
#306=AXIS2_PLACEMENT_3D('',#449,#372,#373);
#307=AXIS2_PLACEMENT_3D('',#451,#374,#375);
#308=AXIS2_PLACEMENT_3D('',#452,#376,#377);
#309=AXIS2_PLACEMENT_3D('',#455,#379,#380);
#310=AXIS2_PLACEMENT_3D('',#456,#381,#382);
#311=AXIS2_PLACEMENT_3D('',#458,#383,#384);
#312=AXIS2_PLACEMENT_3D('',#459,#385,#386);
#313=AXIS2_PLACEMENT_3D('',#488,#387,#388);
#314=AXIS2_PLACEMENT_3D('',#489,#389,#390);
#315=AXIS2_PLACEMENT_3D('',#490,#391,#392);
#316=AXIS2_PLACEMENT_3D('',#492,#393,#394);
#317=AXIS2_PLACEMENT_3D('',#493,#395,#396);
#318=AXIS2_PLACEMENT_3D('',#496,#397,#398);
#319=AXIS2_PLACEMENT_3D('',#497,#399,#400);
#320=AXIS2_PLACEMENT_3D('',#499,#402,#403);
#321=AXIS2_PLACEMENT_3D('',#503,#405,#406);
#322=AXIS2_PLACEMENT_3D('',#504,#407,#408);
#323=AXIS2_PLACEMENT_3D('',#505,#409,#410);
#324=AXIS2_PLACEMENT_3D('',#507,#411,#412);
#325=DIRECTION('axis',(0.,0.,1.));
#326=DIRECTION('refdir',(1.,0.,0.));
#327=DIRECTION('center_axis',(0.,1.,0.));
#328=DIRECTION('ref_axis',(0.,0.,1.));
#329=DIRECTION('center_axis',(0.,-1.,0.));
#330=DIRECTION('ref_axis',(0.,0.,-1.));
#331=DIRECTION('center_axis',(0.,-1.,0.));
#332=DIRECTION('ref_axis',(0.,0.,-1.));
#333=DIRECTION('center_axis',(0.,-1.,0.));
#334=DIRECTION('ref_axis',(0.,0.,-1.));
#335=DIRECTION('center_axis',(0.,-1.,0.));
#336=DIRECTION('ref_axis',(0.,0.,-1.));
#337=DIRECTION('',(0.,1.,0.));
#338=DIRECTION('center_axis',(0.,-1.,0.));
#339=DIRECTION('ref_axis',(0.,0.,-1.));
#340=DIRECTION('',(0.,-1.,0.));
#341=DIRECTION('center_axis',(0.,-1.,0.));
#342=DIRECTION('ref_axis',(0.,0.,-1.));
#343=DIRECTION('center_axis',(0.,-1.,0.));
#344=DIRECTION('ref_axis',(0.,0.,-1.));
#345=DIRECTION('center_axis',(0.,-1.,0.));
#346=DIRECTION('ref_axis',(0.,0.,-1.));
#347=DIRECTION('center_axis',(0.,-1.,0.));
#348=DIRECTION('ref_axis',(0.,0.,-1.));
#349=DIRECTION('',(0.,1.,0.));
#350=DIRECTION('center_axis',(0.,-1.,0.));
#351=DIRECTION('ref_axis',(0.,0.,-1.));
#352=DIRECTION('center_axis',(0.,1.,0.));
#353=DIRECTION('ref_axis',(0.,0.,1.));
#354=DIRECTION('center_axis',(0.,-1.,0.));
#355=DIRECTION('ref_axis',(0.,0.,-1.));
#356=DIRECTION('center_axis',(0.,-1.,0.));
#357=DIRECTION('ref_axis',(0.,0.,-1.));
#358=DIRECTION('center_axis',(0.,-1.,0.));
#359=DIRECTION('ref_axis',(0.,0.,-1.));
#360=DIRECTION('',(0.,-1.,0.));
#361=DIRECTION('center_axis',(0.,1.,0.));
#362=DIRECTION('ref_axis',(0.,0.,1.));
#363=DIRECTION('center_axis',(0.,1.,0.));
#364=DIRECTION('ref_axis',(0.,0.,1.));
#365=DIRECTION('center_axis',(0.,-1.,0.));
#366=DIRECTION('ref_axis',(0.,0.,-1.));
#367=DIRECTION('center_axis',(0.,-1.,0.));
#368=DIRECTION('ref_axis',(0.,0.,-1.));
#369=DIRECTION('',(0.,-1.,0.));
#370=DIRECTION('center_axis',(0.,-1.,0.));
#371=DIRECTION('ref_axis',(0.,0.,-1.));
#372=DIRECTION('center_axis',(0.,1.,0.));
#373=DIRECTION('ref_axis',(0.,0.,1.));
#374=DIRECTION('center_axis',(0.,-1.,0.));
#375=DIRECTION('ref_axis',(0.,0.,-1.));
#376=DIRECTION('center_axis',(0.,-1.,0.));
#377=DIRECTION('ref_axis',(0.,0.,-1.));
#378=DIRECTION('',(9.60846804471015E-18,0.996917333733128,-0.0784590957278453));
#379=DIRECTION('center_axis',(0.,-1.,0.));
#380=DIRECTION('ref_axis',(0.,0.,-1.));
#381=DIRECTION('center_axis',(0.,-1.,0.));
#382=DIRECTION('ref_axis',(0.,0.,-1.));
#383=DIRECTION('center_axis',(-1.,0.,-1.22464679914735E-16));
#384=DIRECTION('ref_axis',(-1.22464679914735E-16,0.,1.));
#385=DIRECTION('center_axis',(0.,-1.,0.));
#386=DIRECTION('ref_axis',(0.,0.,-1.));
#387=DIRECTION('center_axis',(-1.,0.,-1.22464679914735E-16));
#388=DIRECTION('ref_axis',(-1.22464679914735E-16,0.,1.));
#389=DIRECTION('center_axis',(0.,-1.,0.));
#390=DIRECTION('ref_axis',(0.,0.,-1.));
#391=DIRECTION('center_axis',(0.,-1.,0.));
#392=DIRECTION('ref_axis',(0.,0.,-1.));
#393=DIRECTION('center_axis',(0.,-1.,0.));
#394=DIRECTION('ref_axis',(0.,0.,-1.));
#395=DIRECTION('center_axis',(0.,1.,0.));
#396=DIRECTION('ref_axis',(0.,0.,1.));
#397=DIRECTION('center_axis',(0.,-1.,0.));
#398=DIRECTION('ref_axis',(0.,0.,-1.));
#399=DIRECTION('center_axis',(0.,-1.,0.));
#400=DIRECTION('ref_axis',(0.,0.,-1.));
#401=DIRECTION('',(-8.65956056235487E-17,0.707106781186553,-0.707106781186542));
#402=DIRECTION('center_axis',(0.,-1.,0.));
#403=DIRECTION('ref_axis',(0.,0.,-1.));
#404=DIRECTION('',(-2.97020476879948E-17,-0.970142500145332,0.242535625036333));
#405=DIRECTION('center_axis',(0.,-1.,0.));
#406=DIRECTION('ref_axis',(0.,0.,-1.));
#407=DIRECTION('center_axis',(0.,-1.,0.));
#408=DIRECTION('ref_axis',(0.,0.,-1.));
#409=DIRECTION('center_axis',(-6.12323399573677E-17,-1.,0.));
#410=DIRECTION('ref_axis',(-1.,0.,0.));
#411=DIRECTION('center_axis',(1.22464679914735E-16,0.,-1.));
#412=DIRECTION('ref_axis',(1.,0.,1.22464679914735E-16));
#413=CARTESIAN_POINT('',(0.,0.,0.));
#414=CARTESIAN_POINT('Origin',(34.5,5.,0.));
#415=CARTESIAN_POINT('',(-9.49101269339199E-16,5.,7.75));
#416=CARTESIAN_POINT('Origin',(0.,5.,0.));
#417=CARTESIAN_POINT('',(-9.06238631369041E-16,5.,7.4));
#418=CARTESIAN_POINT('Origin',(0.,5.,0.));
#419=CARTESIAN_POINT('Origin',(0.,0.,0.));
#420=CARTESIAN_POINT('',(-9.06238631369041E-16,0.5,7.4));
#421=CARTESIAN_POINT('Origin',(0.,0.5,0.));
#422=CARTESIAN_POINT('',(-9.06238631369041E-16,0.,7.4));
#423=CARTESIAN_POINT('Origin',(0.,-2.,0.));
#424=CARTESIAN_POINT('',(-9.49101269339199E-16,0.5,7.75));
#425=CARTESIAN_POINT('',(-9.49101269339199E-16,-2.,7.75));
#426=CARTESIAN_POINT('Origin',(0.,0.5,0.));
#427=CARTESIAN_POINT('Origin',(0.,0.5,0.));
#428=CARTESIAN_POINT('Origin',(0.,-2.,0.));
#429=CARTESIAN_POINT('',(-4.163799117101E-15,-2.,34.));
#430=CARTESIAN_POINT('Origin',(0.,-2.,0.));
#431=CARTESIAN_POINT('',(-4.163799117101E-15,5.,34.));
#432=CARTESIAN_POINT('',(-4.163799117101E-15,-2.,34.));
#433=CARTESIAN_POINT('Origin',(0.,5.,0.));
#434=CARTESIAN_POINT('Origin',(34.,-2.,0.));
#435=CARTESIAN_POINT('',(-2.44929359829471E-15,-2.,20.));
#436=CARTESIAN_POINT('Origin',(0.,-2.,0.));
#437=CARTESIAN_POINT('Origin',(0.,-2.,0.));
#438=CARTESIAN_POINT('',(-2.44929359829471E-15,-1.6,20.));
#439=CARTESIAN_POINT('Origin',(0.,-1.6,0.));
#440=CARTESIAN_POINT('',(-2.44929359829471E-15,-2.,20.));
#441=CARTESIAN_POINT('Origin',(20.,-1.6,0.));
#442=CARTESIAN_POINT('Origin',(34.5,5.,0.));
#443=CARTESIAN_POINT('',(-4.22503145705837E-15,5.,34.5));
#444=CARTESIAN_POINT('Origin',(0.,5.,0.));
#445=CARTESIAN_POINT('Origin',(0.,0.,0.));
#446=CARTESIAN_POINT('',(-4.22503145705837E-15,0.,34.5));
#447=CARTESIAN_POINT('',(-4.22503145705837E-15,0.,34.5));
#448=CARTESIAN_POINT('Origin',(0.,0.,0.));
#449=CARTESIAN_POINT('Origin',(39.5,0.,0.));
#450=CARTESIAN_POINT('',(-4.83735485663204E-15,-4.44089209850063E-15,39.5));
#451=CARTESIAN_POINT('Origin',(0.,0.,0.));
#452=CARTESIAN_POINT('Origin',(0.,4.66908439102245,0.));
#453=CARTESIAN_POINT('',(-4.79235338394102E-15,4.66908439102245,39.1325350891183));
#454=CARTESIAN_POINT('',(-4.79235338394102E-15,4.66908439102245,39.1325350891183));
#455=CARTESIAN_POINT('Origin',(0.,4.66908439102245,0.));
#456=CARTESIAN_POINT('Origin',(0.,4.35524800811109,0.));
#457=CARTESIAN_POINT('',(-4.60557391080561E-15,7.50740563741457,37.6073649480992));
#458=CARTESIAN_POINT('Origin',(-4.30400473523271E-15,4.35524800811109,35.1448657541858));
#459=CARTESIAN_POINT('Origin',(0.,7.50740563741457,0.));
#460=CARTESIAN_POINT('Ctrl Pts',(0.,18.0000000000001,9.72389801515583));
#461=CARTESIAN_POINT('Ctrl Pts',(-9.72389801515583,18.0000000000001,9.72389801515583));
#462=CARTESIAN_POINT('Ctrl Pts',(-9.72389801515583,18.0000000000001,0.));
#463=CARTESIAN_POINT('Ctrl Pts',(-9.72389801515583,18.0000000000001,-9.72389801515583));
#464=CARTESIAN_POINT('Ctrl Pts',(0.,18.0000000000001,-9.72389801515583));
#465=CARTESIAN_POINT('Ctrl Pts',(9.72389801515583,18.0000000000001,-9.72389801515583));
#466=CARTESIAN_POINT('Ctrl Pts',(9.72389801515583,18.0000000000001,0.));
#467=CARTESIAN_POINT('Ctrl Pts',(9.72389801515583,18.0000000000001,9.72389801515583));
#468=CARTESIAN_POINT('Ctrl Pts',(0.,18.0000000000001,9.72389801515583));
#469=CARTESIAN_POINT('Ctrl Pts',(0.,17.1163465442144,25.3073014744698));
#470=CARTESIAN_POINT('Ctrl Pts',(-25.3073014744698,17.1163465442144,25.3073014744698));
#471=CARTESIAN_POINT('Ctrl Pts',(-25.3073014744698,17.1163465442144,0.));
#472=CARTESIAN_POINT('Ctrl Pts',(-25.3073014744698,17.1163465442144,-25.3073014744698));
#473=CARTESIAN_POINT('Ctrl Pts',(0.,17.1163465442144,-25.3073014744698));
#474=CARTESIAN_POINT('Ctrl Pts',(25.3073014744698,17.1163465442144,-25.3073014744698));
#475=CARTESIAN_POINT('Ctrl Pts',(25.3073014744698,17.1163465442144,0.));
#476=CARTESIAN_POINT('Ctrl Pts',(25.3073014744698,17.1163465442144,25.3073014744698));
#477=CARTESIAN_POINT('Ctrl Pts',(0.,17.1163465442144,25.3073014744698));
#478=CARTESIAN_POINT('Ctrl Pts',(0.,7.50740563741461,37.6073649480993));
#479=CARTESIAN_POINT('Ctrl Pts',(-37.6073649480992,7.50740563741461,37.6073649480992));
#480=CARTESIAN_POINT('Ctrl Pts',(-37.6073649480993,7.50740563741461,0.));
#481=CARTESIAN_POINT('Ctrl Pts',(-37.6073649480992,7.50740563741461,-37.6073649480992));
#482=CARTESIAN_POINT('Ctrl Pts',(0.,7.50740563741461,-37.6073649480993));
#483=CARTESIAN_POINT('Ctrl Pts',(37.6073649480992,7.50740563741461,-37.6073649480992));
#484=CARTESIAN_POINT('Ctrl Pts',(37.6073649480993,7.50740563741461,0.));
#485=CARTESIAN_POINT('Ctrl Pts',(37.6073649480992,7.50740563741461,37.6073649480992));
#486=CARTESIAN_POINT('Ctrl Pts',(0.,7.50740563741461,37.6073649480993));
#487=CARTESIAN_POINT('',(-1.19083405794959E-15,18.,9.72389801515582));
#488=CARTESIAN_POINT('Origin',(-8.4500629141167E-16,-31.8,6.89999999999997));
#489=CARTESIAN_POINT('Origin',(0.,18.,0.));
#490=CARTESIAN_POINT('Origin',(7.49999999999999,18.,0.));
#491=CARTESIAN_POINT('',(0.,18.,-7.49999999999999));
#492=CARTESIAN_POINT('Origin',(0.,18.,0.));
#493=CARTESIAN_POINT('Origin',(0.,17.5,0.));
#494=CARTESIAN_POINT('',(0.,17.5,-7.));
#495=CARTESIAN_POINT('',(-8.57252759403147E-16,17.5,7.));
#496=CARTESIAN_POINT('Origin',(0.,17.5,0.));
#497=CARTESIAN_POINT('Origin',(0.,17.5,0.));
#498=CARTESIAN_POINT('',(-8.57252759403147E-16,17.5,-7.));
#499=CARTESIAN_POINT('Origin',(0.,15.1,0.));
#500=CARTESIAN_POINT('',(-9.30731567351989E-16,15.1,7.6));
#501=CARTESIAN_POINT('',(-9.30731567351989E-16,15.1,7.6));
#502=CARTESIAN_POINT('',(7.6,15.1,9.30731567351989E-16));
#503=CARTESIAN_POINT('Origin',(0.,15.1,0.));
#504=CARTESIAN_POINT('Origin',(0.,15.1,0.));
#505=CARTESIAN_POINT('Origin',(-1.30104260698261E-15,15.1,0.));
#506=CARTESIAN_POINT('',(-8.35676823306616E-16,7.5,5.69908717411506E-32));
#507=CARTESIAN_POINT('Origin',(-1.30104260698261E-15,15.1,0.));
#508=UNCERTAINTY_MEASURE_WITH_UNIT(LENGTH_MEASURE(0.01),#512,
'DISTANCE_ACCURACY_VALUE',
'Maximum model space distance between geometric entities at asserted c
onnectivities');
#509=UNCERTAINTY_MEASURE_WITH_UNIT(LENGTH_MEASURE(0.01),#512,
'DISTANCE_ACCURACY_VALUE',
'Maximum model space distance between geometric entities at asserted c
onnectivities');
#510=(
GEOMETRIC_REPRESENTATION_CONTEXT(3)
GLOBAL_UNCERTAINTY_ASSIGNED_CONTEXT((#508))
GLOBAL_UNIT_ASSIGNED_CONTEXT((#512,#514,#515))
REPRESENTATION_CONTEXT('','3D')
);
#511=(
GEOMETRIC_REPRESENTATION_CONTEXT(3)
GLOBAL_UNCERTAINTY_ASSIGNED_CONTEXT((#509))
GLOBAL_UNIT_ASSIGNED_CONTEXT((#512,#514,#515))
REPRESENTATION_CONTEXT('','3D')
);
#512=(
LENGTH_UNIT()
NAMED_UNIT(*)
SI_UNIT(.MILLI.,.METRE.)
);
#513=(
LENGTH_UNIT()
NAMED_UNIT(*)
SI_UNIT(.CENTI.,.METRE.)
);
#514=(
NAMED_UNIT(*)
PLANE_ANGLE_UNIT()
SI_UNIT($,.RADIAN.)
);
#515=(
NAMED_UNIT(*)
SI_UNIT($,.STERADIAN.)
SOLID_ANGLE_UNIT()
);
#516=SHAPE_DEFINITION_REPRESENTATION(#517,#518);
#517=PRODUCT_DEFINITION_SHAPE('',$,#520);
#518=SHAPE_REPRESENTATION('',(#285),#510);
#519=PRODUCT_DEFINITION_CONTEXT('part definition',#524,'design');
#520=PRODUCT_DEFINITION('1011893','1011893',#521,#519);
#521=PRODUCT_DEFINITION_FORMATION('',$,#526);
#522=PRODUCT_RELATED_PRODUCT_CATEGORY('1011893','1011893',(#526));
#523=APPLICATION_PROTOCOL_DEFINITION('international standard',
'automotive_design',2009,#524);
#524=APPLICATION_CONTEXT(
'Core Data for Automotive Mechanical Design Process');
#525=PRODUCT_CONTEXT('part definition',#524,'mechanical');
#526=PRODUCT('1011893','1011893','STEP AP214',(#525));
#527=PRESENTATION_STYLE_ASSIGNMENT((#530));
#528=PRESENTATION_STYLE_ASSIGNMENT((#531));
#529=PRESENTATION_STYLE_ASSIGNMENT((#532));
#530=SURFACE_STYLE_USAGE(.BOTH.,#539);
#531=SURFACE_STYLE_USAGE(.BOTH.,#540);
#532=SURFACE_STYLE_USAGE(.BOTH.,#541);
#533=SURFACE_STYLE_RENDERING_WITH_PROPERTIES($,#551,(#536));
#534=SURFACE_STYLE_RENDERING_WITH_PROPERTIES($,#552,(#537));
#535=SURFACE_STYLE_RENDERING_WITH_PROPERTIES($,#553,(#538));
#536=SURFACE_STYLE_TRANSPARENT(0.);
#537=SURFACE_STYLE_TRANSPARENT(0.);
#538=SURFACE_STYLE_TRANSPARENT(0.);
#539=SURFACE_SIDE_STYLE('',(#542,#533));
#540=SURFACE_SIDE_STYLE('',(#543,#534));
#541=SURFACE_SIDE_STYLE('',(#544,#535));
#542=SURFACE_STYLE_FILL_AREA(#545);
#543=SURFACE_STYLE_FILL_AREA(#546);
#544=SURFACE_STYLE_FILL_AREA(#547);
#545=FILL_AREA_STYLE('',(#548));
#546=FILL_AREA_STYLE('',(#549));
#547=FILL_AREA_STYLE('',(#550));
#548=FILL_AREA_STYLE_COLOUR('',#551);
#549=FILL_AREA_STYLE_COLOUR('',#552);
#550=FILL_AREA_STYLE_COLOUR('',#553);
#551=COLOUR_RGB('',0.749019607843137,0.749019607843137,0.749019607843137);
#552=COLOUR_RGB('',0.0549019607843137,0.0549019607843137,0.0627450980392157);
#553=COLOUR_RGB('',0.729411764705882,0.768627450980392,0.784313725490196);
ENDSEC;
END-ISO-10303-21;
