ISO-10303-21;
HEADER;
/* Generated by software containing ST-Developer
 * from STEP Tools, Inc. (www.steptools.com) 
 */

FILE_DESCRIPTION(
/* description */ ('STEP AP214'),
/* implementation_level */ '2;1');

FILE_NAME(
/* name */ '1011895.stp',
/* time_stamp */ '2024-06-13T10:32:02+02:00',
/* author */ ('Bo'),
/* organization */ ('CADENAS'),
/* preprocessor_version */ 'ST-DEVELOPER v20',
/* originating_system */ 'Autodesk Inventor 2025',
/* authorisation */ '  ');

FILE_SCHEMA (('AUTOMOTIVE_DESIGN { 1 0 10303 214 3 1 1 }'));
ENDSEC;

DATA;
#10=MECHANICAL_DESIGN_GEOMETRIC_PRESENTATION_REPRESENTATION('',(#166,#167,
#168,#169,#170,#171,#172,#173,#174,#175,#176,#177,#178,#179),#389);
#11=SHAPE_REPRESENTATION_RELATIONSHIP('SRR','None',#396,#12);
#12=ADVANCED_BREP_SHAPE_REPRESENTATION('',(#13),#388);
#13=MANIFOLD_SOLID_BREP('Solid1',#193);
#14=(
BOUNDED_SURFACE()
B_SPLINE_SURFACE(2,2,((#347,#348,#349,#350,#351,#352,#353,#354,#355),(#356,
#357,#358,#359,#360,#361,#362,#363,#364),(#365,#366,#367,#368,#369,#370,
#371,#372,#373)),.UNSPECIFIED.,.F.,.T.,.F.)
B_SPLINE_SURFACE_WITH_KNOTS((3,3),(3,2,2,2,3),(-1.33237197526451,-1.22595096621947),
(-3.14159265358979,-1.5707963267949,0.,1.5707963267949,3.14159265358979),
 .UNSPECIFIED.)
GEOMETRIC_REPRESENTATION_ITEM()
RATIONAL_B_SPLINE_SURFACE(((1.,0.707106781186548,1.,0.707106781186548,1.,
0.707106781186548,1.,0.707106781186548,1.),(0.998584655097244,0.706105981208091,
0.998584655097244,0.706105981208091,0.998584655097244,0.706105981208091,
0.998584655097244,0.706105981208091,0.998584655097244),(1.,0.707106781186548,
1.,0.707106781186548,1.,0.707106781186548,1.,0.707106781186548,1.)))
REPRESENTATION_ITEM('')
SURFACE()
);
#15=CONICAL_SURFACE('',#231,9.20694846298164,0.124118878089673);
#16=CONICAL_SURFACE('',#242,58.8037621736452,0.0872664625997163);
#17=SPHERICAL_SURFACE('',#227,10.2);
#18=FACE_BOUND('',#43,.T.);
#19=FACE_BOUND('',#50,.T.);
#20=FACE_BOUND('',#55,.T.);
#21=PLANE('',#222);
#22=PLANE('',#226);
#23=PLANE('',#235);
#24=PLANE('',#244);
#25=TOROIDAL_SURFACE('',#219,51.13,1.99999999999999);
#26=TOROIDAL_SURFACE('',#239,53.7231692133773,5.1);
#27=FACE_OUTER_BOUND('',#40,.T.);
#28=FACE_OUTER_BOUND('',#41,.T.);
#29=FACE_OUTER_BOUND('',#42,.T.);
#30=FACE_OUTER_BOUND('',#44,.T.);
#31=FACE_OUTER_BOUND('',#45,.T.);
#32=FACE_OUTER_BOUND('',#46,.T.);
#33=FACE_OUTER_BOUND('',#47,.T.);
#34=FACE_OUTER_BOUND('',#48,.T.);
#35=FACE_OUTER_BOUND('',#49,.T.);
#36=FACE_OUTER_BOUND('',#51,.T.);
#37=FACE_OUTER_BOUND('',#52,.T.);
#38=FACE_OUTER_BOUND('',#53,.T.);
#39=FACE_OUTER_BOUND('',#54,.T.);
#40=EDGE_LOOP('',(#119,#120,#121,#122));
#41=EDGE_LOOP('',(#123,#124,#125,#126));
#42=EDGE_LOOP('',(#127));
#43=EDGE_LOOP('',(#128));
#44=EDGE_LOOP('',(#129,#130,#131,#132));
#45=EDGE_LOOP('',(#133));
#46=EDGE_LOOP('',(#134,#135,#136,#137));
#47=EDGE_LOOP('',(#138,#139,#140,#141,#142));
#48=EDGE_LOOP('',(#143,#144,#145,#146));
#49=EDGE_LOOP('',(#147));
#50=EDGE_LOOP('',(#148));
#51=EDGE_LOOP('',(#149,#150,#151,#152));
#52=EDGE_LOOP('',(#153,#154,#155,#156));
#53=EDGE_LOOP('',(#157,#158,#159,#160));
#54=EDGE_LOOP('',(#161));
#55=EDGE_LOOP('',(#162));
#56=LINE('',#315,#61);
#57=LINE('',#327,#62);
#58=LINE('',#339,#63);
#59=LINE('',#343,#64);
#60=LINE('',#384,#65);
#61=VECTOR('',#251,53.13);
#62=VECTOR('',#268,34.13);
#63=VECTOR('',#283,9.20694846298164);
#64=VECTOR('',#288,8.92);
#65=VECTOR('',#307,58.8037621736452);
#66=CIRCLE('',#217,53.13);
#67=CIRCLE('',#218,53.13);
#68=CIRCLE('',#220,51.13);
#69=CIRCLE('',#221,1.99999999999999);
#70=CIRCLE('',#223,34.13);
#71=CIRCLE('',#225,34.13);
#72=CIRCLE('',#228,9.20694846298164);
#73=CIRCLE('',#229,9.20694846298164);
#74=CIRCLE('',#230,10.2);
#75=CIRCLE('',#232,8.92);
#76=CIRCLE('',#234,8.92);
#77=CIRCLE('',#236,36.5037928218458);
#78=CIRCLE('',#237,55.4472300571521);
#79=CIRCLE('',#238,185.939999999986);
#80=CIRCLE('',#240,58.8037621736452);
#81=CIRCLE('',#241,5.1);
#82=CIRCLE('',#243,59.4737534009422);
#83=VERTEX_POINT('',#312);
#84=VERTEX_POINT('',#314);
#85=VERTEX_POINT('',#318);
#86=VERTEX_POINT('',#322);
#87=VERTEX_POINT('',#325);
#88=VERTEX_POINT('',#330);
#89=VERTEX_POINT('',#331);
#90=VERTEX_POINT('',#334);
#91=VERTEX_POINT('',#337);
#92=VERTEX_POINT('',#341);
#93=VERTEX_POINT('',#345);
#94=VERTEX_POINT('',#374);
#95=VERTEX_POINT('',#378);
#96=VERTEX_POINT('',#382);
#97=EDGE_CURVE('',#83,#83,#66,.T.);
#98=EDGE_CURVE('',#83,#84,#56,.T.);
#99=EDGE_CURVE('',#84,#84,#67,.T.);
#100=EDGE_CURVE('',#85,#85,#68,.T.);
#101=EDGE_CURVE('',#85,#83,#69,.T.);
#102=EDGE_CURVE('',#86,#86,#70,.T.);
#103=EDGE_CURVE('',#87,#87,#71,.T.);
#104=EDGE_CURVE('',#87,#86,#57,.T.);
#105=EDGE_CURVE('',#88,#89,#72,.T.);
#106=EDGE_CURVE('',#89,#88,#73,.T.);
#107=EDGE_CURVE('',#89,#90,#74,.T.);
#108=EDGE_CURVE('',#91,#91,#75,.T.);
#109=EDGE_CURVE('',#91,#88,#58,.T.);
#110=EDGE_CURVE('',#92,#92,#76,.T.);
#111=EDGE_CURVE('',#92,#91,#59,.T.);
#112=EDGE_CURVE('',#93,#93,#77,.T.);
#113=EDGE_CURVE('',#94,#94,#78,.T.);
#114=EDGE_CURVE('',#94,#93,#79,.T.);
#115=EDGE_CURVE('',#95,#95,#80,.T.);
#116=EDGE_CURVE('',#95,#94,#81,.T.);
#117=EDGE_CURVE('',#96,#96,#82,.T.);
#118=EDGE_CURVE('',#96,#95,#60,.T.);
#119=ORIENTED_EDGE('',*,*,#97,.F.);
#120=ORIENTED_EDGE('',*,*,#98,.T.);
#121=ORIENTED_EDGE('',*,*,#99,.T.);
#122=ORIENTED_EDGE('',*,*,#98,.F.);
#123=ORIENTED_EDGE('',*,*,#100,.F.);
#124=ORIENTED_EDGE('',*,*,#101,.T.);
#125=ORIENTED_EDGE('',*,*,#97,.T.);
#126=ORIENTED_EDGE('',*,*,#101,.F.);
#127=ORIENTED_EDGE('',*,*,#100,.T.);
#128=ORIENTED_EDGE('',*,*,#102,.F.);
#129=ORIENTED_EDGE('',*,*,#103,.F.);
#130=ORIENTED_EDGE('',*,*,#104,.T.);
#131=ORIENTED_EDGE('',*,*,#102,.T.);
#132=ORIENTED_EDGE('',*,*,#104,.F.);
#133=ORIENTED_EDGE('',*,*,#103,.T.);
#134=ORIENTED_EDGE('',*,*,#105,.F.);
#135=ORIENTED_EDGE('',*,*,#106,.F.);
#136=ORIENTED_EDGE('',*,*,#107,.T.);
#137=ORIENTED_EDGE('',*,*,#107,.F.);
#138=ORIENTED_EDGE('',*,*,#108,.F.);
#139=ORIENTED_EDGE('',*,*,#109,.T.);
#140=ORIENTED_EDGE('',*,*,#105,.T.);
#141=ORIENTED_EDGE('',*,*,#106,.T.);
#142=ORIENTED_EDGE('',*,*,#109,.F.);
#143=ORIENTED_EDGE('',*,*,#110,.F.);
#144=ORIENTED_EDGE('',*,*,#111,.T.);
#145=ORIENTED_EDGE('',*,*,#108,.T.);
#146=ORIENTED_EDGE('',*,*,#111,.F.);
#147=ORIENTED_EDGE('',*,*,#112,.F.);
#148=ORIENTED_EDGE('',*,*,#110,.T.);
#149=ORIENTED_EDGE('',*,*,#113,.F.);
#150=ORIENTED_EDGE('',*,*,#114,.T.);
#151=ORIENTED_EDGE('',*,*,#112,.T.);
#152=ORIENTED_EDGE('',*,*,#114,.F.);
#153=ORIENTED_EDGE('',*,*,#115,.F.);
#154=ORIENTED_EDGE('',*,*,#116,.T.);
#155=ORIENTED_EDGE('',*,*,#113,.T.);
#156=ORIENTED_EDGE('',*,*,#116,.F.);
#157=ORIENTED_EDGE('',*,*,#117,.F.);
#158=ORIENTED_EDGE('',*,*,#118,.T.);
#159=ORIENTED_EDGE('',*,*,#115,.T.);
#160=ORIENTED_EDGE('',*,*,#118,.F.);
#161=ORIENTED_EDGE('',*,*,#117,.T.);
#162=ORIENTED_EDGE('',*,*,#99,.F.);
#163=CYLINDRICAL_SURFACE('',#216,53.13);
#164=CYLINDRICAL_SURFACE('',#224,34.13);
#165=CYLINDRICAL_SURFACE('',#233,8.92);
#166=STYLED_ITEM('',(#406),#180);
#167=STYLED_ITEM('',(#406),#181);
#168=STYLED_ITEM('',(#406),#182);
#169=STYLED_ITEM('',(#406),#183);
#170=STYLED_ITEM('',(#406),#184);
#171=STYLED_ITEM('',(#407),#185);
#172=STYLED_ITEM('',(#407),#186);
#173=STYLED_ITEM('',(#407),#187);
#174=STYLED_ITEM('',(#407),#188);
#175=STYLED_ITEM('',(#407),#189);
#176=STYLED_ITEM('',(#407),#190);
#177=STYLED_ITEM('',(#407),#191);
#178=STYLED_ITEM('',(#407),#192);
#179=STYLED_ITEM('',(#405),#13);
#180=ADVANCED_FACE('',(#27),#163,.T.);
#181=ADVANCED_FACE('',(#28),#25,.T.);
#182=ADVANCED_FACE('',(#29,#18),#21,.F.);
#183=ADVANCED_FACE('',(#30),#164,.F.);
#184=ADVANCED_FACE('',(#31),#22,.F.);
#185=ADVANCED_FACE('',(#32),#17,.F.);
#186=ADVANCED_FACE('',(#33),#15,.F.);
#187=ADVANCED_FACE('',(#34),#165,.F.);
#188=ADVANCED_FACE('',(#35,#19),#23,.F.);
#189=ADVANCED_FACE('',(#36),#14,.F.);
#190=ADVANCED_FACE('',(#37),#26,.T.);
#191=ADVANCED_FACE('',(#38),#16,.T.);
#192=ADVANCED_FACE('',(#39,#20),#24,.F.);
#193=CLOSED_SHELL('',(#180,#181,#182,#183,#184,#185,#186,#187,#188,#189,
#190,#191,#192));
#194=DERIVED_UNIT_ELEMENT(#197,1.);
#195=DERIVED_UNIT_ELEMENT(#391,-3.);
#196=DIMENSIONAL_EXPONENTS(0.,1.,0.,0.,0.,0.,0.);
#197=(
CONVERSION_BASED_UNIT('gram',#199)
MASS_UNIT()
NAMED_UNIT(#196)
);
#198=(
MASS_UNIT()
NAMED_UNIT(*)
SI_UNIT(.KILO.,.GRAM.)
);
#199=MASS_MEASURE_WITH_UNIT(MASS_MEASURE(0.001),#198);
#200=DERIVED_UNIT((#194,#195));
#201=MEASURE_REPRESENTATION_ITEM('density measure',
POSITIVE_RATIO_MEASURE(1.),#200);
#202=PROPERTY_DEFINITION_REPRESENTATION(#207,#204);
#203=PROPERTY_DEFINITION_REPRESENTATION(#208,#205);
#204=REPRESENTATION('material name',(#206),#388);
#205=REPRESENTATION('density',(#201),#388);
#206=DESCRIPTIVE_REPRESENTATION_ITEM('Generic','Generic');
#207=PROPERTY_DEFINITION('material property','material name',#398);
#208=PROPERTY_DEFINITION('material property','density of part',#398);
#209=DATE_TIME_ROLE('creation_date');
#210=APPLIED_DATE_AND_TIME_ASSIGNMENT(#211,#209,(#398));
#211=DATE_AND_TIME(#212,#213);
#212=CALENDAR_DATE(2022,14,7);
#213=LOCAL_TIME(16,37,13.,#214);
#214=COORDINATED_UNIVERSAL_TIME_OFFSET(0,0,.BEHIND.);
#215=AXIS2_PLACEMENT_3D('',#310,#245,#246);
#216=AXIS2_PLACEMENT_3D('',#311,#247,#248);
#217=AXIS2_PLACEMENT_3D('',#313,#249,#250);
#218=AXIS2_PLACEMENT_3D('',#316,#252,#253);
#219=AXIS2_PLACEMENT_3D('',#317,#254,#255);
#220=AXIS2_PLACEMENT_3D('',#319,#256,#257);
#221=AXIS2_PLACEMENT_3D('',#320,#258,#259);
#222=AXIS2_PLACEMENT_3D('',#321,#260,#261);
#223=AXIS2_PLACEMENT_3D('',#323,#262,#263);
#224=AXIS2_PLACEMENT_3D('',#324,#264,#265);
#225=AXIS2_PLACEMENT_3D('',#326,#266,#267);
#226=AXIS2_PLACEMENT_3D('',#328,#269,#270);
#227=AXIS2_PLACEMENT_3D('',#329,#271,#272);
#228=AXIS2_PLACEMENT_3D('',#332,#273,#274);
#229=AXIS2_PLACEMENT_3D('',#333,#275,#276);
#230=AXIS2_PLACEMENT_3D('',#335,#277,#278);
#231=AXIS2_PLACEMENT_3D('',#336,#279,#280);
#232=AXIS2_PLACEMENT_3D('',#338,#281,#282);
#233=AXIS2_PLACEMENT_3D('',#340,#284,#285);
#234=AXIS2_PLACEMENT_3D('',#342,#286,#287);
#235=AXIS2_PLACEMENT_3D('',#344,#289,#290);
#236=AXIS2_PLACEMENT_3D('',#346,#291,#292);
#237=AXIS2_PLACEMENT_3D('',#375,#293,#294);
#238=AXIS2_PLACEMENT_3D('',#376,#295,#296);
#239=AXIS2_PLACEMENT_3D('',#377,#297,#298);
#240=AXIS2_PLACEMENT_3D('',#379,#299,#300);
#241=AXIS2_PLACEMENT_3D('',#380,#301,#302);
#242=AXIS2_PLACEMENT_3D('',#381,#303,#304);
#243=AXIS2_PLACEMENT_3D('',#383,#305,#306);
#244=AXIS2_PLACEMENT_3D('',#385,#308,#309);
#245=DIRECTION('axis',(0.,0.,1.));
#246=DIRECTION('refdir',(1.,0.,0.));
#247=DIRECTION('center_axis',(0.,-1.,0.));
#248=DIRECTION('ref_axis',(0.,0.,-1.));
#249=DIRECTION('center_axis',(0.,-1.,0.));
#250=DIRECTION('ref_axis',(0.,0.,-1.));
#251=DIRECTION('',(0.,1.,0.));
#252=DIRECTION('center_axis',(0.,-1.,0.));
#253=DIRECTION('ref_axis',(0.,0.,-1.));
#254=DIRECTION('center_axis',(0.,-1.,0.));
#255=DIRECTION('ref_axis',(0.,0.,-1.));
#256=DIRECTION('center_axis',(0.,-1.,0.));
#257=DIRECTION('ref_axis',(0.,0.,-1.));
#258=DIRECTION('center_axis',(-1.,0.,-1.22464679914735E-16));
#259=DIRECTION('ref_axis',(-1.22464679914735E-16,0.,1.));
#260=DIRECTION('center_axis',(0.,1.,0.));
#261=DIRECTION('ref_axis',(0.,0.,1.));
#262=DIRECTION('center_axis',(0.,-1.,0.));
#263=DIRECTION('ref_axis',(0.,0.,-1.));
#264=DIRECTION('center_axis',(0.,-1.,0.));
#265=DIRECTION('ref_axis',(0.,0.,-1.));
#266=DIRECTION('center_axis',(0.,-1.,0.));
#267=DIRECTION('ref_axis',(0.,0.,-1.));
#268=DIRECTION('',(0.,-1.,0.));
#269=DIRECTION('center_axis',(0.,1.,0.));
#270=DIRECTION('ref_axis',(0.,0.,1.));
#271=DIRECTION('center_axis',(-6.12323399573676E-17,-1.,0.));
#272=DIRECTION('ref_axis',(-1.,0.,0.));
#273=DIRECTION('center_axis',(0.,-1.,0.));
#274=DIRECTION('ref_axis',(0.,0.,-1.));
#275=DIRECTION('center_axis',(0.,-1.,0.));
#276=DIRECTION('ref_axis',(0.,0.,-1.));
#277=DIRECTION('center_axis',(1.22464679914735E-16,0.,-1.));
#278=DIRECTION('ref_axis',(1.,0.,1.22464679914735E-16));
#279=DIRECTION('center_axis',(0.,-1.,0.));
#280=DIRECTION('ref_axis',(0.,0.,-1.));
#281=DIRECTION('center_axis',(0.,-1.,0.));
#282=DIRECTION('ref_axis',(0.,0.,-1.));
#283=DIRECTION('',(-1.51611810126262E-17,-0.99230713569525,0.12380043799716));
#284=DIRECTION('center_axis',(0.,-1.,0.));
#285=DIRECTION('ref_axis',(0.,0.,-1.));
#286=DIRECTION('center_axis',(0.,-1.,0.));
#287=DIRECTION('ref_axis',(0.,0.,-1.));
#288=DIRECTION('',(0.,-1.,0.));
#289=DIRECTION('center_axis',(0.,-1.,0.));
#290=DIRECTION('ref_axis',(0.,0.,-1.));
#291=DIRECTION('center_axis',(0.,-1.,0.));
#292=DIRECTION('ref_axis',(0.,0.,-1.));
#293=DIRECTION('center_axis',(0.,-1.,0.));
#294=DIRECTION('ref_axis',(0.,0.,-1.));
#295=DIRECTION('center_axis',(-1.,0.,-1.22464679914735E-16));
#296=DIRECTION('ref_axis',(-1.22464679914735E-16,0.,1.));
#297=DIRECTION('center_axis',(0.,-1.,0.));
#298=DIRECTION('ref_axis',(0.,0.,-1.));
#299=DIRECTION('center_axis',(0.,-1.,0.));
#300=DIRECTION('ref_axis',(0.,0.,-1.));
#301=DIRECTION('center_axis',(-1.,0.,-1.22464679914735E-16));
#302=DIRECTION('ref_axis',(-1.22464679914735E-16,0.,1.));
#303=DIRECTION('center_axis',(0.,-1.,0.));
#304=DIRECTION('ref_axis',(0.,0.,-1.));
#305=DIRECTION('center_axis',(0.,-1.,0.));
#306=DIRECTION('ref_axis',(0.,0.,-1.));
#307=DIRECTION('',(1.06735001383229E-17,0.996194698091746,-0.087155742747658));
#308=DIRECTION('center_axis',(0.,1.,0.));
#309=DIRECTION('ref_axis',(0.,0.,1.));
#310=CARTESIAN_POINT('',(0.,0.,0.));
#311=CARTESIAN_POINT('Origin',(0.,-2.,0.));
#312=CARTESIAN_POINT('',(-6.50654844386989E-15,-2.77555756156289E-16,53.13));
#313=CARTESIAN_POINT('Origin',(0.,0.,0.));
#314=CARTESIAN_POINT('',(-6.50654844386989E-15,0.3,53.13));
#315=CARTESIAN_POINT('',(-6.50654844386989E-15,-2.,53.13));
#316=CARTESIAN_POINT('Origin',(0.,0.3,0.));
#317=CARTESIAN_POINT('Origin',(0.,-1.73472347597681E-15,0.));
#318=CARTESIAN_POINT('',(-6.26161908404042E-15,-2.,51.13));
#319=CARTESIAN_POINT('Origin',(0.,-2.,0.));
#320=CARTESIAN_POINT('Origin',(-6.26161908404042E-15,-1.73472347597681E-15,
51.13));
#321=CARTESIAN_POINT('Origin',(51.13,-2.,0.));
#322=CARTESIAN_POINT('',(-4.17971952548992E-15,-2.,34.13));
#323=CARTESIAN_POINT('Origin',(0.,-2.,0.));
#324=CARTESIAN_POINT('Origin',(0.,-2.,0.));
#325=CARTESIAN_POINT('',(-4.17971952548992E-15,-1.6,34.13));
#326=CARTESIAN_POINT('Origin',(0.,-1.6,0.));
#327=CARTESIAN_POINT('',(-4.17971952548992E-15,-2.,34.13));
#328=CARTESIAN_POINT('Origin',(34.13,-1.6,0.));
#329=CARTESIAN_POINT('Origin',(-5.20417042793042E-15,19.2,0.));
#330=CARTESIAN_POINT('',(-1.12752599651051E-15,14.81,9.20694846298164));
#331=CARTESIAN_POINT('',(9.20694846298164,14.81,1.12752599651051E-15));
#332=CARTESIAN_POINT('Origin',(0.,14.81,0.));
#333=CARTESIAN_POINT('Origin',(0.,14.81,0.));
#334=CARTESIAN_POINT('',(-4.57960056036527E-15,9.,7.64877489157547E-32));
#335=CARTESIAN_POINT('Origin',(-5.20417042793042E-15,19.2,0.));
#336=CARTESIAN_POINT('Origin',(0.,14.81,0.));
#337=CARTESIAN_POINT('',(-1.09238494483944E-15,17.11,8.92));
#338=CARTESIAN_POINT('Origin',(0.,17.11,0.));
#339=CARTESIAN_POINT('',(-1.12752599651051E-15,14.81,9.20694846298164));
#340=CARTESIAN_POINT('Origin',(0.,0.,0.));
#341=CARTESIAN_POINT('',(-1.09238494483944E-15,18.,8.92));
#342=CARTESIAN_POINT('Origin',(0.,18.,0.));
#343=CARTESIAN_POINT('',(-1.09238494483944E-15,0.,8.92));
#344=CARTESIAN_POINT('Origin',(8.92,18.,0.));
#345=CARTESIAN_POINT('',(-4.47042530360116E-15,18.,36.5037928218458));
#346=CARTESIAN_POINT('Origin',(0.,18.,0.));
#347=CARTESIAN_POINT('Ctrl Pts',(0.,18.0000000000005,36.5037928218459));
#348=CARTESIAN_POINT('Ctrl Pts',(-36.5037928218459,18.0000000000005,36.5037928218459));
#349=CARTESIAN_POINT('Ctrl Pts',(-36.5037928218459,18.0000000000005,0.));
#350=CARTESIAN_POINT('Ctrl Pts',(-36.5037928218459,18.0000000000005,-36.5037928218459));
#351=CARTESIAN_POINT('Ctrl Pts',(0.,18.0000000000005,-36.5037928218459));
#352=CARTESIAN_POINT('Ctrl Pts',(36.5037928218459,18.0000000000005,-36.5037928218459));
#353=CARTESIAN_POINT('Ctrl Pts',(36.5037928218459,18.0000000000005,0.));
#354=CARTESIAN_POINT('Ctrl Pts',(36.5037928218459,18.0000000000005,36.5037928218459));
#355=CARTESIAN_POINT('Ctrl Pts',(0.,18.0000000000005,36.5037928218459));
#356=CARTESIAN_POINT('Ctrl Pts',(0.,15.6611171069095,46.1269506947742));
#357=CARTESIAN_POINT('Ctrl Pts',(-46.1269506947742,15.6611171069095,46.1269506947742));
#358=CARTESIAN_POINT('Ctrl Pts',(-46.1269506947742,15.6611171069095,0.));
#359=CARTESIAN_POINT('Ctrl Pts',(-46.1269506947742,15.6611171069096,-46.1269506947742));
#360=CARTESIAN_POINT('Ctrl Pts',(0.,15.6611171069096,-46.1269506947742));
#361=CARTESIAN_POINT('Ctrl Pts',(46.1269506947742,15.6611171069096,-46.1269506947742));
#362=CARTESIAN_POINT('Ctrl Pts',(46.1269506947742,15.6611171069095,0.));
#363=CARTESIAN_POINT('Ctrl Pts',(46.1269506947742,15.6611171069095,46.1269506947742));
#364=CARTESIAN_POINT('Ctrl Pts',(0.,15.6611171069095,46.1269506947742));
#365=CARTESIAN_POINT('Ctrl Pts',(0.,12.3132919558416,55.4472300571523));
#366=CARTESIAN_POINT('Ctrl Pts',(-55.4472300571523,12.3132919558416,55.4472300571523));
#367=CARTESIAN_POINT('Ctrl Pts',(-55.4472300571523,12.3132919558416,0.));
#368=CARTESIAN_POINT('Ctrl Pts',(-55.4472300571523,12.3132919558416,-55.4472300571523));
#369=CARTESIAN_POINT('Ctrl Pts',(0.,12.3132919558416,-55.4472300571523));
#370=CARTESIAN_POINT('Ctrl Pts',(55.4472300571523,12.3132919558416,-55.4472300571523));
#371=CARTESIAN_POINT('Ctrl Pts',(55.4472300571523,12.3132919558416,0.));
#372=CARTESIAN_POINT('Ctrl Pts',(55.4472300571523,12.3132919558416,55.4472300571523));
#373=CARTESIAN_POINT('Ctrl Pts',(0.,12.3132919558416,55.4472300571523));
#374=CARTESIAN_POINT('',(-6.79032728110782E-15,12.3132919558412,55.4472300571521));
#375=CARTESIAN_POINT('Origin',(0.,12.3132919558412,0.));
#376=CARTESIAN_POINT('Origin',(9.07463278167685E-16,-162.679999999986,-7.40999999999589));
#377=CARTESIAN_POINT('Origin',(0.,7.51354048238309,0.));
#378=CARTESIAN_POINT('',(-7.20138391237768E-15,7.95803477039618,58.8037621736452));
#379=CARTESIAN_POINT('Origin',(0.,7.95803477039618,0.));
#380=CARTESIAN_POINT('Origin',(-6.57919072172141E-15,7.51354048238309,53.7231692133773));
#381=CARTESIAN_POINT('Origin',(0.,7.95803477039618,0.));
#382=CARTESIAN_POINT('',(-7.28343417357429E-15,0.3,59.4737534009422));
#383=CARTESIAN_POINT('Origin',(0.,0.299999999999999,0.));
#384=CARTESIAN_POINT('',(-7.20138391237768E-15,7.95803477039618,58.8037621736452));
#385=CARTESIAN_POINT('Origin',(59.4737534009422,0.299999999999999,0.));
#386=UNCERTAINTY_MEASURE_WITH_UNIT(LENGTH_MEASURE(0.01),#390,
'DISTANCE_ACCURACY_VALUE',
'Maximum model space distance between geometric entities at asserted c
onnectivities');
#387=UNCERTAINTY_MEASURE_WITH_UNIT(LENGTH_MEASURE(0.01),#390,
'DISTANCE_ACCURACY_VALUE',
'Maximum model space distance between geometric entities at asserted c
onnectivities');
#388=(
GEOMETRIC_REPRESENTATION_CONTEXT(3)
GLOBAL_UNCERTAINTY_ASSIGNED_CONTEXT((#386))
GLOBAL_UNIT_ASSIGNED_CONTEXT((#390,#392,#393))
REPRESENTATION_CONTEXT('','3D')
);
#389=(
GEOMETRIC_REPRESENTATION_CONTEXT(3)
GLOBAL_UNCERTAINTY_ASSIGNED_CONTEXT((#387))
GLOBAL_UNIT_ASSIGNED_CONTEXT((#390,#392,#393))
REPRESENTATION_CONTEXT('','3D')
);
#390=(
LENGTH_UNIT()
NAMED_UNIT(*)
SI_UNIT(.MILLI.,.METRE.)
);
#391=(
LENGTH_UNIT()
NAMED_UNIT(*)
SI_UNIT(.CENTI.,.METRE.)
);
#392=(
NAMED_UNIT(*)
PLANE_ANGLE_UNIT()
SI_UNIT($,.RADIAN.)
);
#393=(
NAMED_UNIT(*)
SI_UNIT($,.STERADIAN.)
SOLID_ANGLE_UNIT()
);
#394=SHAPE_DEFINITION_REPRESENTATION(#395,#396);
#395=PRODUCT_DEFINITION_SHAPE('',$,#398);
#396=SHAPE_REPRESENTATION('',(#215),#388);
#397=PRODUCT_DEFINITION_CONTEXT('part definition',#402,'design');
#398=PRODUCT_DEFINITION('1011895','1011895',#399,#397);
#399=PRODUCT_DEFINITION_FORMATION('',$,#404);
#400=PRODUCT_RELATED_PRODUCT_CATEGORY('1011895','1011895',(#404));
#401=APPLICATION_PROTOCOL_DEFINITION('international standard',
'automotive_design',2009,#402);
#402=APPLICATION_CONTEXT(
'Core Data for Automotive Mechanical Design Process');
#403=PRODUCT_CONTEXT('part definition',#402,'mechanical');
#404=PRODUCT('1011895','1011895','STEP AP214',(#403));
#405=PRESENTATION_STYLE_ASSIGNMENT((#408));
#406=PRESENTATION_STYLE_ASSIGNMENT((#409));
#407=PRESENTATION_STYLE_ASSIGNMENT((#410));
#408=SURFACE_STYLE_USAGE(.BOTH.,#417);
#409=SURFACE_STYLE_USAGE(.BOTH.,#418);
#410=SURFACE_STYLE_USAGE(.BOTH.,#419);
#411=SURFACE_STYLE_RENDERING_WITH_PROPERTIES($,#429,(#414));
#412=SURFACE_STYLE_RENDERING_WITH_PROPERTIES($,#430,(#415));
#413=SURFACE_STYLE_RENDERING_WITH_PROPERTIES($,#431,(#416));
#414=SURFACE_STYLE_TRANSPARENT(0.);
#415=SURFACE_STYLE_TRANSPARENT(0.);
#416=SURFACE_STYLE_TRANSPARENT(0.);
#417=SURFACE_SIDE_STYLE('',(#420,#411));
#418=SURFACE_SIDE_STYLE('',(#421,#412));
#419=SURFACE_SIDE_STYLE('',(#422,#413));
#420=SURFACE_STYLE_FILL_AREA(#423);
#421=SURFACE_STYLE_FILL_AREA(#424);
#422=SURFACE_STYLE_FILL_AREA(#425);
#423=FILL_AREA_STYLE('',(#426));
#424=FILL_AREA_STYLE('',(#427));
#425=FILL_AREA_STYLE('',(#428));
#426=FILL_AREA_STYLE_COLOUR('',#429);
#427=FILL_AREA_STYLE_COLOUR('',#430);
#428=FILL_AREA_STYLE_COLOUR('',#431);
#429=COLOUR_RGB('',0.749019607843137,0.749019607843137,0.749019607843137);
#430=COLOUR_RGB('',0.0549019607843137,0.0549019607843137,0.0627450980392157);
#431=COLOUR_RGB('',0.729411764705882,0.768627450980392,0.784313725490196);
ENDSEC;
END-ISO-10303-21;
