ISO-10303-21;
HEADER;
/* Generated by software containing ST-Developer
 * from STEP Tools, Inc. (www.steptools.com) 
 */

FILE_DESCRIPTION(
/* description */ ('STEP AP214'),
/* implementation_level */ '2;1');

FILE_NAME(
/* name */ '1011901.stp',
/* time_stamp */ '2024-06-13T10:34:52+02:00',
/* author */ ('Bo'),
/* organization */ ('CADENAS'),
/* preprocessor_version */ 'ST-DEVELOPER v20',
/* originating_system */ 'Autodesk Inventor 2025',
/* authorisation */ '  ');

FILE_SCHEMA (('AUTOMOTIVE_DESIGN { 1 0 10303 214 3 1 1 }'));
ENDSEC;

DATA;
#10=MECHANICAL_DESIGN_GEOMETRIC_PRESENTATION_REPRESENTATION('',(#200,#201,
#202,#203,#204,#205,#206,#207,#208,#209,#210,#211,#212,#213,#214,#215,#216),
#464);
#11=SHAPE_REPRESENTATION_RELATIONSHIP('SRR','None',#471,#12);
#12=ADVANCED_BREP_SHAPE_REPRESENTATION('',(#13),#463);
#13=MANIFOLD_SOLID_BREP('Solid1',#233);
#14=(
BOUNDED_SURFACE()
B_SPLINE_SURFACE(2,2,((#415,#416,#417,#418,#419,#420,#421,#422,#423),(#424,
#425,#426,#427,#428,#429,#430,#431,#432),(#433,#434,#435,#436,#437,#438,
#439,#440,#441)),.UNSPECIFIED.,.F.,.T.,.F.)
B_SPLINE_SURFACE_WITH_KNOTS((3,3),(3,2,2,2,3),(-0.93857429786305,-0.712349141768271),
(-3.14159265358979,-1.5707963267949,0.,1.5707963267949,3.14159265358979),
 .UNSPECIFIED.)
GEOMETRIC_REPRESENTATION_ITEM()
RATIONAL_B_SPLINE_SURFACE(((1.,0.707106781186548,1.,0.707106781186548,1.,
0.707106781186548,1.,0.707106781186548,1.),(0.993609590189083,0.702588079074687,
0.993609590189083,0.702588079074687,0.993609590189083,0.702588079074687,
0.993609590189083,0.702588079074687,0.993609590189083),(1.,0.707106781186548,
1.,0.707106781186548,1.,0.707106781186548,1.,0.707106781186548,1.)))
REPRESENTATION_ITEM('')
SURFACE()
);
#15=CONICAL_SURFACE('',#271,7.6,0.244978663126864);
#16=CONICAL_SURFACE('',#286,24.1082638438437,0.0785398163397453);
#17=SPHERICAL_SURFACE('',#267,7.6);
#18=FACE_BOUND('',#50,.T.);
#19=FACE_BOUND('',#57,.T.);
#20=FACE_BOUND('',#63,.T.);
#21=FACE_BOUND('',#66,.T.);
#22=PLANE('',#262);
#23=PLANE('',#266);
#24=PLANE('',#276);
#25=PLANE('',#288);
#26=PLANE('',#292);
#27=TOROIDAL_SURFACE('',#259,18.,2.);
#28=TOROIDAL_SURFACE('',#273,7.50000000000001,0.500000000000005);
#29=TOROIDAL_SURFACE('',#278,10.002897090261,3.00000000000005);
#30=TOROIDAL_SURFACE('',#283,21.1175118426444,2.99999999999996);
#31=FACE_OUTER_BOUND('',#47,.T.);
#32=FACE_OUTER_BOUND('',#48,.T.);
#33=FACE_OUTER_BOUND('',#49,.T.);
#34=FACE_OUTER_BOUND('',#51,.T.);
#35=FACE_OUTER_BOUND('',#52,.T.);
#36=FACE_OUTER_BOUND('',#53,.T.);
#37=FACE_OUTER_BOUND('',#54,.T.);
#38=FACE_OUTER_BOUND('',#55,.T.);
#39=FACE_OUTER_BOUND('',#56,.T.);
#40=FACE_OUTER_BOUND('',#58,.T.);
#41=FACE_OUTER_BOUND('',#59,.T.);
#42=FACE_OUTER_BOUND('',#60,.T.);
#43=FACE_OUTER_BOUND('',#61,.T.);
#44=FACE_OUTER_BOUND('',#62,.T.);
#45=FACE_OUTER_BOUND('',#64,.T.);
#46=FACE_OUTER_BOUND('',#65,.T.);
#47=EDGE_LOOP('',(#143,#144,#145,#146));
#48=EDGE_LOOP('',(#147,#148,#149,#150));
#49=EDGE_LOOP('',(#151));
#50=EDGE_LOOP('',(#152));
#51=EDGE_LOOP('',(#153,#154,#155,#156));
#52=EDGE_LOOP('',(#157));
#53=EDGE_LOOP('',(#158,#159,#160,#161));
#54=EDGE_LOOP('',(#162,#163,#164,#165,#166));
#55=EDGE_LOOP('',(#167,#168,#169,#170));
#56=EDGE_LOOP('',(#171));
#57=EDGE_LOOP('',(#172));
#58=EDGE_LOOP('',(#173,#174,#175,#176));
#59=EDGE_LOOP('',(#177,#178,#179,#180));
#60=EDGE_LOOP('',(#181,#182,#183,#184));
#61=EDGE_LOOP('',(#185,#186,#187,#188));
#62=EDGE_LOOP('',(#189));
#63=EDGE_LOOP('',(#190));
#64=EDGE_LOOP('',(#191,#192,#193,#194));
#65=EDGE_LOOP('',(#195));
#66=EDGE_LOOP('',(#196));
#67=LINE('',#379,#72);
#68=LINE('',#391,#73);
#69=LINE('',#403,#74);
#70=LINE('',#452,#75);
#71=LINE('',#459,#76);
#72=VECTOR('',#299,20.);
#73=VECTOR('',#316,7.5);
#74=VECTOR('',#331,7.6);
#75=VECTOR('',#362,24.1082638438437);
#76=VECTOR('',#371,20.5);
#77=CIRCLE('',#257,20.);
#78=CIRCLE('',#258,20.);
#79=CIRCLE('',#260,18.);
#80=CIRCLE('',#261,2.);
#81=CIRCLE('',#263,7.5);
#82=CIRCLE('',#265,7.5);
#83=CIRCLE('',#268,7.6);
#84=CIRCLE('',#269,7.6);
#85=CIRCLE('',#270,7.6);
#86=CIRCLE('',#272,7.);
#87=CIRCLE('',#274,7.5);
#88=CIRCLE('',#275,0.500000000000005);
#89=CIRCLE('',#277,10.002897090261);
#90=CIRCLE('',#279,11.7757133778847);
#91=CIRCLE('',#280,3.00000000000005);
#92=CIRCLE('',#281,23.3879974475389);
#93=CIRCLE('',#282,69.9999999999999);
#94=CIRCLE('',#284,24.1082638438437);
#95=CIRCLE('',#285,2.99999999999996);
#96=CIRCLE('',#287,24.5);
#97=CIRCLE('',#289,20.5);
#98=CIRCLE('',#291,20.5);
#99=VERTEX_POINT('',#376);
#100=VERTEX_POINT('',#378);
#101=VERTEX_POINT('',#382);
#102=VERTEX_POINT('',#386);
#103=VERTEX_POINT('',#389);
#104=VERTEX_POINT('',#394);
#105=VERTEX_POINT('',#395);
#106=VERTEX_POINT('',#398);
#107=VERTEX_POINT('',#401);
#108=VERTEX_POINT('',#405);
#109=VERTEX_POINT('',#409);
#110=VERTEX_POINT('',#412);
#111=VERTEX_POINT('',#442);
#112=VERTEX_POINT('',#446);
#113=VERTEX_POINT('',#450);
#114=VERTEX_POINT('',#454);
#115=VERTEX_POINT('',#457);
#116=EDGE_CURVE('',#99,#99,#77,.T.);
#117=EDGE_CURVE('',#99,#100,#67,.T.);
#118=EDGE_CURVE('',#100,#100,#78,.T.);
#119=EDGE_CURVE('',#101,#101,#79,.T.);
#120=EDGE_CURVE('',#101,#99,#80,.T.);
#121=EDGE_CURVE('',#102,#102,#81,.T.);
#122=EDGE_CURVE('',#103,#103,#82,.T.);
#123=EDGE_CURVE('',#103,#102,#68,.T.);
#124=EDGE_CURVE('',#104,#105,#83,.T.);
#125=EDGE_CURVE('',#105,#104,#84,.T.);
#126=EDGE_CURVE('',#105,#106,#85,.T.);
#127=EDGE_CURVE('',#107,#107,#86,.T.);
#128=EDGE_CURVE('',#107,#104,#69,.T.);
#129=EDGE_CURVE('',#108,#108,#87,.T.);
#130=EDGE_CURVE('',#108,#107,#88,.T.);
#131=EDGE_CURVE('',#109,#109,#89,.T.);
#132=EDGE_CURVE('',#110,#110,#90,.T.);
#133=EDGE_CURVE('',#110,#109,#91,.T.);
#134=EDGE_CURVE('',#111,#111,#92,.T.);
#135=EDGE_CURVE('',#111,#110,#93,.T.);
#136=EDGE_CURVE('',#112,#112,#94,.T.);
#137=EDGE_CURVE('',#112,#111,#95,.T.);
#138=EDGE_CURVE('',#113,#113,#96,.T.);
#139=EDGE_CURVE('',#113,#112,#70,.T.);
#140=EDGE_CURVE('',#114,#114,#97,.T.);
#141=EDGE_CURVE('',#115,#115,#98,.T.);
#142=EDGE_CURVE('',#115,#114,#71,.T.);
#143=ORIENTED_EDGE('',*,*,#116,.F.);
#144=ORIENTED_EDGE('',*,*,#117,.T.);
#145=ORIENTED_EDGE('',*,*,#118,.T.);
#146=ORIENTED_EDGE('',*,*,#117,.F.);
#147=ORIENTED_EDGE('',*,*,#119,.F.);
#148=ORIENTED_EDGE('',*,*,#120,.T.);
#149=ORIENTED_EDGE('',*,*,#116,.T.);
#150=ORIENTED_EDGE('',*,*,#120,.F.);
#151=ORIENTED_EDGE('',*,*,#119,.T.);
#152=ORIENTED_EDGE('',*,*,#121,.F.);
#153=ORIENTED_EDGE('',*,*,#122,.F.);
#154=ORIENTED_EDGE('',*,*,#123,.T.);
#155=ORIENTED_EDGE('',*,*,#121,.T.);
#156=ORIENTED_EDGE('',*,*,#123,.F.);
#157=ORIENTED_EDGE('',*,*,#122,.T.);
#158=ORIENTED_EDGE('',*,*,#124,.F.);
#159=ORIENTED_EDGE('',*,*,#125,.F.);
#160=ORIENTED_EDGE('',*,*,#126,.T.);
#161=ORIENTED_EDGE('',*,*,#126,.F.);
#162=ORIENTED_EDGE('',*,*,#127,.F.);
#163=ORIENTED_EDGE('',*,*,#128,.T.);
#164=ORIENTED_EDGE('',*,*,#124,.T.);
#165=ORIENTED_EDGE('',*,*,#125,.T.);
#166=ORIENTED_EDGE('',*,*,#128,.F.);
#167=ORIENTED_EDGE('',*,*,#129,.F.);
#168=ORIENTED_EDGE('',*,*,#130,.T.);
#169=ORIENTED_EDGE('',*,*,#127,.T.);
#170=ORIENTED_EDGE('',*,*,#130,.F.);
#171=ORIENTED_EDGE('',*,*,#131,.F.);
#172=ORIENTED_EDGE('',*,*,#129,.T.);
#173=ORIENTED_EDGE('',*,*,#132,.F.);
#174=ORIENTED_EDGE('',*,*,#133,.T.);
#175=ORIENTED_EDGE('',*,*,#131,.T.);
#176=ORIENTED_EDGE('',*,*,#133,.F.);
#177=ORIENTED_EDGE('',*,*,#134,.F.);
#178=ORIENTED_EDGE('',*,*,#135,.T.);
#179=ORIENTED_EDGE('',*,*,#132,.T.);
#180=ORIENTED_EDGE('',*,*,#135,.F.);
#181=ORIENTED_EDGE('',*,*,#136,.F.);
#182=ORIENTED_EDGE('',*,*,#137,.T.);
#183=ORIENTED_EDGE('',*,*,#134,.T.);
#184=ORIENTED_EDGE('',*,*,#137,.F.);
#185=ORIENTED_EDGE('',*,*,#138,.F.);
#186=ORIENTED_EDGE('',*,*,#139,.T.);
#187=ORIENTED_EDGE('',*,*,#136,.T.);
#188=ORIENTED_EDGE('',*,*,#139,.F.);
#189=ORIENTED_EDGE('',*,*,#138,.T.);
#190=ORIENTED_EDGE('',*,*,#140,.F.);
#191=ORIENTED_EDGE('',*,*,#141,.F.);
#192=ORIENTED_EDGE('',*,*,#142,.T.);
#193=ORIENTED_EDGE('',*,*,#140,.T.);
#194=ORIENTED_EDGE('',*,*,#142,.F.);
#195=ORIENTED_EDGE('',*,*,#141,.T.);
#196=ORIENTED_EDGE('',*,*,#118,.F.);
#197=CYLINDRICAL_SURFACE('',#256,20.);
#198=CYLINDRICAL_SURFACE('',#264,7.5);
#199=CYLINDRICAL_SURFACE('',#290,20.5);
#200=STYLED_ITEM('',(#481),#217);
#201=STYLED_ITEM('',(#481),#218);
#202=STYLED_ITEM('',(#481),#219);
#203=STYLED_ITEM('',(#481),#220);
#204=STYLED_ITEM('',(#481),#221);
#205=STYLED_ITEM('',(#482),#222);
#206=STYLED_ITEM('',(#482),#223);
#207=STYLED_ITEM('',(#482),#224);
#208=STYLED_ITEM('',(#482),#225);
#209=STYLED_ITEM('',(#482),#226);
#210=STYLED_ITEM('',(#482),#227);
#211=STYLED_ITEM('',(#482),#228);
#212=STYLED_ITEM('',(#482),#229);
#213=STYLED_ITEM('',(#482),#230);
#214=STYLED_ITEM('',(#482),#231);
#215=STYLED_ITEM('',(#482),#232);
#216=STYLED_ITEM('',(#480),#13);
#217=ADVANCED_FACE('',(#31),#197,.T.);
#218=ADVANCED_FACE('',(#32),#27,.T.);
#219=ADVANCED_FACE('',(#33,#18),#22,.F.);
#220=ADVANCED_FACE('',(#34),#198,.F.);
#221=ADVANCED_FACE('',(#35),#23,.F.);
#222=ADVANCED_FACE('',(#36),#17,.F.);
#223=ADVANCED_FACE('',(#37),#15,.F.);
#224=ADVANCED_FACE('',(#38),#28,.T.);
#225=ADVANCED_FACE('',(#39,#19),#24,.F.);
#226=ADVANCED_FACE('',(#40),#29,.T.);
#227=ADVANCED_FACE('',(#41),#14,.F.);
#228=ADVANCED_FACE('',(#42),#30,.T.);
#229=ADVANCED_FACE('',(#43),#16,.T.);
#230=ADVANCED_FACE('',(#44,#20),#25,.F.);
#231=ADVANCED_FACE('',(#45),#199,.F.);
#232=ADVANCED_FACE('',(#46,#21),#26,.F.);
#233=CLOSED_SHELL('',(#217,#218,#219,#220,#221,#222,#223,#224,#225,#226,
#227,#228,#229,#230,#231,#232));
#234=DERIVED_UNIT_ELEMENT(#237,1.);
#235=DERIVED_UNIT_ELEMENT(#466,-3.);
#236=DIMENSIONAL_EXPONENTS(0.,1.,0.,0.,0.,0.,0.);
#237=(
CONVERSION_BASED_UNIT('gram',#239)
MASS_UNIT()
NAMED_UNIT(#236)
);
#238=(
MASS_UNIT()
NAMED_UNIT(*)
SI_UNIT(.KILO.,.GRAM.)
);
#239=MASS_MEASURE_WITH_UNIT(MASS_MEASURE(0.001),#238);
#240=DERIVED_UNIT((#234,#235));
#241=MEASURE_REPRESENTATION_ITEM('density measure',
POSITIVE_RATIO_MEASURE(1.),#240);
#242=PROPERTY_DEFINITION_REPRESENTATION(#247,#244);
#243=PROPERTY_DEFINITION_REPRESENTATION(#248,#245);
#244=REPRESENTATION('material name',(#246),#463);
#245=REPRESENTATION('density',(#241),#463);
#246=DESCRIPTIVE_REPRESENTATION_ITEM('Generic','Generic');
#247=PROPERTY_DEFINITION('material property','material name',#473);
#248=PROPERTY_DEFINITION('material property','density of part',#473);
#249=DATE_TIME_ROLE('creation_date');
#250=APPLIED_DATE_AND_TIME_ASSIGNMENT(#251,#249,(#473));
#251=DATE_AND_TIME(#252,#253);
#252=CALENDAR_DATE(2022,14,7);
#253=LOCAL_TIME(16,38,9.,#254);
#254=COORDINATED_UNIVERSAL_TIME_OFFSET(0,0,.BEHIND.);
#255=AXIS2_PLACEMENT_3D('',#374,#293,#294);
#256=AXIS2_PLACEMENT_3D('',#375,#295,#296);
#257=AXIS2_PLACEMENT_3D('',#377,#297,#298);
#258=AXIS2_PLACEMENT_3D('',#380,#300,#301);
#259=AXIS2_PLACEMENT_3D('',#381,#302,#303);
#260=AXIS2_PLACEMENT_3D('',#383,#304,#305);
#261=AXIS2_PLACEMENT_3D('',#384,#306,#307);
#262=AXIS2_PLACEMENT_3D('',#385,#308,#309);
#263=AXIS2_PLACEMENT_3D('',#387,#310,#311);
#264=AXIS2_PLACEMENT_3D('',#388,#312,#313);
#265=AXIS2_PLACEMENT_3D('',#390,#314,#315);
#266=AXIS2_PLACEMENT_3D('',#392,#317,#318);
#267=AXIS2_PLACEMENT_3D('',#393,#319,#320);
#268=AXIS2_PLACEMENT_3D('',#396,#321,#322);
#269=AXIS2_PLACEMENT_3D('',#397,#323,#324);
#270=AXIS2_PLACEMENT_3D('',#399,#325,#326);
#271=AXIS2_PLACEMENT_3D('',#400,#327,#328);
#272=AXIS2_PLACEMENT_3D('',#402,#329,#330);
#273=AXIS2_PLACEMENT_3D('',#404,#332,#333);
#274=AXIS2_PLACEMENT_3D('',#406,#334,#335);
#275=AXIS2_PLACEMENT_3D('',#407,#336,#337);
#276=AXIS2_PLACEMENT_3D('',#408,#338,#339);
#277=AXIS2_PLACEMENT_3D('',#410,#340,#341);
#278=AXIS2_PLACEMENT_3D('',#411,#342,#343);
#279=AXIS2_PLACEMENT_3D('',#413,#344,#345);
#280=AXIS2_PLACEMENT_3D('',#414,#346,#347);
#281=AXIS2_PLACEMENT_3D('',#443,#348,#349);
#282=AXIS2_PLACEMENT_3D('',#444,#350,#351);
#283=AXIS2_PLACEMENT_3D('',#445,#352,#353);
#284=AXIS2_PLACEMENT_3D('',#447,#354,#355);
#285=AXIS2_PLACEMENT_3D('',#448,#356,#357);
#286=AXIS2_PLACEMENT_3D('',#449,#358,#359);
#287=AXIS2_PLACEMENT_3D('',#451,#360,#361);
#288=AXIS2_PLACEMENT_3D('',#453,#363,#364);
#289=AXIS2_PLACEMENT_3D('',#455,#365,#366);
#290=AXIS2_PLACEMENT_3D('',#456,#367,#368);
#291=AXIS2_PLACEMENT_3D('',#458,#369,#370);
#292=AXIS2_PLACEMENT_3D('',#460,#372,#373);
#293=DIRECTION('axis',(0.,0.,1.));
#294=DIRECTION('refdir',(1.,0.,0.));
#295=DIRECTION('center_axis',(0.,-1.,0.));
#296=DIRECTION('ref_axis',(0.,0.,-1.));
#297=DIRECTION('center_axis',(0.,-1.,0.));
#298=DIRECTION('ref_axis',(0.,0.,-1.));
#299=DIRECTION('',(0.,1.,0.));
#300=DIRECTION('center_axis',(0.,-1.,0.));
#301=DIRECTION('ref_axis',(0.,0.,-1.));
#302=DIRECTION('center_axis',(0.,-1.,0.));
#303=DIRECTION('ref_axis',(0.,0.,-1.));
#304=DIRECTION('center_axis',(0.,-1.,0.));
#305=DIRECTION('ref_axis',(0.,0.,-1.));
#306=DIRECTION('center_axis',(-1.,0.,-1.22464679914735E-16));
#307=DIRECTION('ref_axis',(-1.22464679914735E-16,0.,1.));
#308=DIRECTION('center_axis',(0.,1.,0.));
#309=DIRECTION('ref_axis',(0.,0.,1.));
#310=DIRECTION('center_axis',(0.,-1.,0.));
#311=DIRECTION('ref_axis',(0.,0.,-1.));
#312=DIRECTION('center_axis',(0.,-1.,0.));
#313=DIRECTION('ref_axis',(0.,0.,-1.));
#314=DIRECTION('center_axis',(0.,-1.,0.));
#315=DIRECTION('ref_axis',(0.,0.,-1.));
#316=DIRECTION('',(0.,-1.,0.));
#317=DIRECTION('center_axis',(0.,1.,0.));
#318=DIRECTION('ref_axis',(0.,0.,1.));
#319=DIRECTION('center_axis',(-6.12323399573677E-17,-1.,0.));
#320=DIRECTION('ref_axis',(-1.,0.,0.));
#321=DIRECTION('center_axis',(0.,-1.,0.));
#322=DIRECTION('ref_axis',(0.,0.,-1.));
#323=DIRECTION('center_axis',(0.,-1.,0.));
#324=DIRECTION('ref_axis',(0.,0.,-1.));
#325=DIRECTION('center_axis',(1.22464679914735E-16,0.,-1.));
#326=DIRECTION('ref_axis',(1.,0.,1.22464679914735E-16));
#327=DIRECTION('center_axis',(0.,-1.,0.));
#328=DIRECTION('ref_axis',(0.,0.,-1.));
#329=DIRECTION('center_axis',(0.,-1.,0.));
#330=DIRECTION('ref_axis',(0.,0.,-1.));
#331=DIRECTION('',(-2.97020476879948E-17,-0.970142500145332,0.242535625036333));
#332=DIRECTION('center_axis',(0.,-1.,0.));
#333=DIRECTION('ref_axis',(0.,0.,-1.));
#334=DIRECTION('center_axis',(0.,-1.,0.));
#335=DIRECTION('ref_axis',(0.,0.,-1.));
#336=DIRECTION('center_axis',(-1.,0.,-1.22464679914735E-16));
#337=DIRECTION('ref_axis',(-1.22464679914735E-16,0.,1.));
#338=DIRECTION('center_axis',(0.,-1.,0.));
#339=DIRECTION('ref_axis',(0.,0.,-1.));
#340=DIRECTION('center_axis',(0.,-1.,0.));
#341=DIRECTION('ref_axis',(0.,0.,-1.));
#342=DIRECTION('center_axis',(0.,-1.,0.));
#343=DIRECTION('ref_axis',(0.,0.,-1.));
#344=DIRECTION('center_axis',(0.,-1.,0.));
#345=DIRECTION('ref_axis',(0.,0.,-1.));
#346=DIRECTION('center_axis',(-1.,0.,-1.22464679914735E-16));
#347=DIRECTION('ref_axis',(-1.22464679914735E-16,0.,1.));
#348=DIRECTION('center_axis',(0.,-1.,0.));
#349=DIRECTION('ref_axis',(0.,0.,-1.));
#350=DIRECTION('center_axis',(-1.,0.,-1.22464679914735E-16));
#351=DIRECTION('ref_axis',(-1.22464679914735E-16,0.,1.));
#352=DIRECTION('center_axis',(0.,-1.,0.));
#353=DIRECTION('ref_axis',(0.,0.,-1.));
#354=DIRECTION('center_axis',(0.,-1.,0.));
#355=DIRECTION('ref_axis',(0.,0.,-1.));
#356=DIRECTION('center_axis',(-1.,0.,-1.22464679914735E-16));
#357=DIRECTION('ref_axis',(-1.22464679914735E-16,0.,1.));
#358=DIRECTION('center_axis',(0.,-1.,0.));
#359=DIRECTION('ref_axis',(0.,0.,-1.));
#360=DIRECTION('center_axis',(0.,-1.,0.));
#361=DIRECTION('ref_axis',(0.,0.,-1.));
#362=DIRECTION('',(9.60846804471017E-18,0.996917333733128,-0.0784590957278454));
#363=DIRECTION('center_axis',(0.,1.,0.));
#364=DIRECTION('ref_axis',(0.,0.,1.));
#365=DIRECTION('center_axis',(0.,-1.,0.));
#366=DIRECTION('ref_axis',(0.,0.,-1.));
#367=DIRECTION('center_axis',(0.,-1.,0.));
#368=DIRECTION('ref_axis',(0.,0.,-1.));
#369=DIRECTION('center_axis',(0.,-1.,0.));
#370=DIRECTION('ref_axis',(0.,0.,-1.));
#371=DIRECTION('',(0.,-1.,0.));
#372=DIRECTION('center_axis',(0.,1.,0.));
#373=DIRECTION('ref_axis',(0.,0.,1.));
#374=CARTESIAN_POINT('',(0.,0.,0.));
#375=CARTESIAN_POINT('Origin',(0.,-2.,0.));
#376=CARTESIAN_POINT('',(-2.44929359829471E-15,0.,20.));
#377=CARTESIAN_POINT('Origin',(0.,0.,0.));
#378=CARTESIAN_POINT('',(-2.44929359829471E-15,5.,20.));
#379=CARTESIAN_POINT('',(-2.44929359829471E-15,-2.,20.));
#380=CARTESIAN_POINT('Origin',(0.,5.,0.));
#381=CARTESIAN_POINT('Origin',(0.,-1.0842021724855E-15,0.));
#382=CARTESIAN_POINT('',(-2.20436423846524E-15,-2.,18.));
#383=CARTESIAN_POINT('Origin',(0.,-2.,0.));
#384=CARTESIAN_POINT('Origin',(-2.20436423846524E-15,-1.0842021724855E-15,
18.));
#385=CARTESIAN_POINT('Origin',(18.,-2.,0.));
#386=CARTESIAN_POINT('',(-9.18485099360515E-16,-2.,7.5));
#387=CARTESIAN_POINT('Origin',(0.,-2.,0.));
#388=CARTESIAN_POINT('Origin',(0.,-2.,0.));
#389=CARTESIAN_POINT('',(-9.18485099360515E-16,-1.6,7.5));
#390=CARTESIAN_POINT('Origin',(0.,-1.6,0.));
#391=CARTESIAN_POINT('',(-9.18485099360515E-16,-2.,7.5));
#392=CARTESIAN_POINT('Origin',(7.5,-1.6,0.));
#393=CARTESIAN_POINT('Origin',(-1.30104260698261E-15,15.1,0.));
#394=CARTESIAN_POINT('',(-9.30731567351989E-16,15.1,7.6));
#395=CARTESIAN_POINT('',(7.6,15.1,9.30731567351989E-16));
#396=CARTESIAN_POINT('Origin',(0.,15.1,0.));
#397=CARTESIAN_POINT('Origin',(0.,15.1,0.));
#398=CARTESIAN_POINT('',(-8.35676823306616E-16,7.5,5.69908717411506E-32));
#399=CARTESIAN_POINT('Origin',(-1.30104260698261E-15,15.1,0.));
#400=CARTESIAN_POINT('Origin',(0.,15.1,0.));
#401=CARTESIAN_POINT('',(-8.57252759403147E-16,17.5,7.));
#402=CARTESIAN_POINT('Origin',(0.,17.5,0.));
#403=CARTESIAN_POINT('',(-9.30731567351989E-16,15.1,7.6));
#404=CARTESIAN_POINT('Origin',(0.,17.5,0.));
#405=CARTESIAN_POINT('',(-9.18485099360515E-16,18.,7.5));
#406=CARTESIAN_POINT('Origin',(0.,18.,0.));
#407=CARTESIAN_POINT('Origin',(-9.18485099360516E-16,17.5,7.50000000000001));
#408=CARTESIAN_POINT('Origin',(7.5,18.,0.));
#409=CARTESIAN_POINT('',(-1.22500159037885E-15,18.,10.002897090261));
#410=CARTESIAN_POINT('Origin',(0.,18.,0.));
#411=CARTESIAN_POINT('Origin',(0.,15.,0.));
#412=CARTESIAN_POINT('',(-1.44210896959032E-15,17.4201492537313,11.7757133778847));
#413=CARTESIAN_POINT('Origin',(0.,17.4201492537313,0.));
#414=CARTESIAN_POINT('Origin',(-1.22500159037885E-15,15.,10.002897090261));
#415=CARTESIAN_POINT('Ctrl Pts',(0.,17.4201492537313,11.7757133778847));
#416=CARTESIAN_POINT('Ctrl Pts',(-11.7757133778847,17.4201492537313,11.7757133778847));
#417=CARTESIAN_POINT('Ctrl Pts',(-11.7757133778847,17.4201492537313,0.));
#418=CARTESIAN_POINT('Ctrl Pts',(-11.7757133778847,17.4201492537313,-11.7757133778847));
#419=CARTESIAN_POINT('Ctrl Pts',(0.,17.4201492537313,-11.7757133778847));
#420=CARTESIAN_POINT('Ctrl Pts',(11.7757133778847,17.4201492537313,-11.7757133778847));
#421=CARTESIAN_POINT('Ctrl Pts',(11.7757133778847,17.4201492537313,0.));
#422=CARTESIAN_POINT('Ctrl Pts',(11.7757133778847,17.4201492537313,11.7757133778847));
#423=CARTESIAN_POINT('Ctrl Pts',(0.,17.4201492537313,11.7757133778847));
#424=CARTESIAN_POINT('Ctrl Pts',(0.,12.721109102996,18.1905791445456));
#425=CARTESIAN_POINT('Ctrl Pts',(-18.1905791445456,12.721109102996,18.1905791445456));
#426=CARTESIAN_POINT('Ctrl Pts',(-18.1905791445456,12.721109102996,0.));
#427=CARTESIAN_POINT('Ctrl Pts',(-18.1905791445456,12.721109102996,-18.1905791445456));
#428=CARTESIAN_POINT('Ctrl Pts',(0.,12.721109102996,-18.1905791445456));
#429=CARTESIAN_POINT('Ctrl Pts',(18.1905791445456,12.721109102996,-18.1905791445456));
#430=CARTESIAN_POINT('Ctrl Pts',(18.1905791445456,12.721109102996,0.));
#431=CARTESIAN_POINT('Ctrl Pts',(18.1905791445456,12.721109102996,18.1905791445456));
#432=CARTESIAN_POINT('Ctrl Pts',(0.,12.721109102996,18.1905791445456));
#433=CARTESIAN_POINT('Ctrl Pts',(0.,6.70294292664207,23.3879974475389));
#434=CARTESIAN_POINT('Ctrl Pts',(-23.3879974475389,6.70294292664207,23.3879974475389));
#435=CARTESIAN_POINT('Ctrl Pts',(-23.3879974475389,6.70294292664207,0.));
#436=CARTESIAN_POINT('Ctrl Pts',(-23.3879974475389,6.70294292664207,-23.3879974475389));
#437=CARTESIAN_POINT('Ctrl Pts',(0.,6.70294292664207,-23.3879974475389));
#438=CARTESIAN_POINT('Ctrl Pts',(23.3879974475389,6.70294292664207,-23.3879974475389));
#439=CARTESIAN_POINT('Ctrl Pts',(23.3879974475389,6.70294292664207,0.));
#440=CARTESIAN_POINT('Ctrl Pts',(23.3879974475389,6.70294292664207,23.3879974475389));
#441=CARTESIAN_POINT('Ctrl Pts',(0.,6.70294292664207,23.3879974475389));
#442=CARTESIAN_POINT('',(-2.8642036212595E-15,6.70294292664207,23.3879974475389));
#443=CARTESIAN_POINT('Origin',(0.,6.70294292664207,0.));
#444=CARTESIAN_POINT('Origin',(3.62372987867701E-15,-39.0499999999999,-29.5899999999999));
#445=CARTESIAN_POINT('Origin',(0.,4.74210251550028,0.));
#446=CARTESIAN_POINT('',(-2.95241081493631E-15,4.9774798026838,24.1082638438437));
#447=CARTESIAN_POINT('Origin',(0.,4.9774798026838,0.));
#448=CARTESIAN_POINT('Origin',(-2.58614932840508E-15,4.74210251550028,21.1175118426444));
#449=CARTESIAN_POINT('Origin',(0.,4.9774798026838,0.));
#450=CARTESIAN_POINT('',(-3.00038465791101E-15,-1.11022302462516E-15,24.5));
#451=CARTESIAN_POINT('Origin',(0.,0.,0.));
#452=CARTESIAN_POINT('',(-2.95241081493631E-15,4.9774798026838,24.1082638438437));
#453=CARTESIAN_POINT('Origin',(24.5,0.,0.));
#454=CARTESIAN_POINT('',(-2.51052593825207E-15,0.,20.5));
#455=CARTESIAN_POINT('Origin',(0.,0.,0.));
#456=CARTESIAN_POINT('Origin',(0.,0.,0.));
#457=CARTESIAN_POINT('',(-2.51052593825207E-15,5.,20.5));
#458=CARTESIAN_POINT('Origin',(0.,5.,0.));
#459=CARTESIAN_POINT('',(-2.51052593825207E-15,0.,20.5));
#460=CARTESIAN_POINT('Origin',(20.5,5.,0.));
#461=UNCERTAINTY_MEASURE_WITH_UNIT(LENGTH_MEASURE(0.01),#465,
'DISTANCE_ACCURACY_VALUE',
'Maximum model space distance between geometric entities at asserted c
onnectivities');
#462=UNCERTAINTY_MEASURE_WITH_UNIT(LENGTH_MEASURE(0.01),#465,
'DISTANCE_ACCURACY_VALUE',
'Maximum model space distance between geometric entities at asserted c
onnectivities');
#463=(
GEOMETRIC_REPRESENTATION_CONTEXT(3)
GLOBAL_UNCERTAINTY_ASSIGNED_CONTEXT((#461))
GLOBAL_UNIT_ASSIGNED_CONTEXT((#465,#467,#468))
REPRESENTATION_CONTEXT('','3D')
);
#464=(
GEOMETRIC_REPRESENTATION_CONTEXT(3)
GLOBAL_UNCERTAINTY_ASSIGNED_CONTEXT((#462))
GLOBAL_UNIT_ASSIGNED_CONTEXT((#465,#467,#468))
REPRESENTATION_CONTEXT('','3D')
);
#465=(
LENGTH_UNIT()
NAMED_UNIT(*)
SI_UNIT(.MILLI.,.METRE.)
);
#466=(
LENGTH_UNIT()
NAMED_UNIT(*)
SI_UNIT(.CENTI.,.METRE.)
);
#467=(
NAMED_UNIT(*)
PLANE_ANGLE_UNIT()
SI_UNIT($,.RADIAN.)
);
#468=(
NAMED_UNIT(*)
SI_UNIT($,.STERADIAN.)
SOLID_ANGLE_UNIT()
);
#469=SHAPE_DEFINITION_REPRESENTATION(#470,#471);
#470=PRODUCT_DEFINITION_SHAPE('',$,#473);
#471=SHAPE_REPRESENTATION('',(#255),#463);
#472=PRODUCT_DEFINITION_CONTEXT('part definition',#477,'design');
#473=PRODUCT_DEFINITION('1011901','1011901',#474,#472);
#474=PRODUCT_DEFINITION_FORMATION('',$,#479);
#475=PRODUCT_RELATED_PRODUCT_CATEGORY('1011901','1011901',(#479));
#476=APPLICATION_PROTOCOL_DEFINITION('international standard',
'automotive_design',2009,#477);
#477=APPLICATION_CONTEXT(
'Core Data for Automotive Mechanical Design Process');
#478=PRODUCT_CONTEXT('part definition',#477,'mechanical');
#479=PRODUCT('1011901','1011901','STEP AP214',(#478));
#480=PRESENTATION_STYLE_ASSIGNMENT((#483));
#481=PRESENTATION_STYLE_ASSIGNMENT((#484));
#482=PRESENTATION_STYLE_ASSIGNMENT((#485));
#483=SURFACE_STYLE_USAGE(.BOTH.,#492);
#484=SURFACE_STYLE_USAGE(.BOTH.,#493);
#485=SURFACE_STYLE_USAGE(.BOTH.,#494);
#486=SURFACE_STYLE_RENDERING_WITH_PROPERTIES($,#504,(#489));
#487=SURFACE_STYLE_RENDERING_WITH_PROPERTIES($,#505,(#490));
#488=SURFACE_STYLE_RENDERING_WITH_PROPERTIES($,#506,(#491));
#489=SURFACE_STYLE_TRANSPARENT(0.);
#490=SURFACE_STYLE_TRANSPARENT(0.);
#491=SURFACE_STYLE_TRANSPARENT(0.);
#492=SURFACE_SIDE_STYLE('',(#495,#486));
#493=SURFACE_SIDE_STYLE('',(#496,#487));
#494=SURFACE_SIDE_STYLE('',(#497,#488));
#495=SURFACE_STYLE_FILL_AREA(#498);
#496=SURFACE_STYLE_FILL_AREA(#499);
#497=SURFACE_STYLE_FILL_AREA(#500);
#498=FILL_AREA_STYLE('',(#501));
#499=FILL_AREA_STYLE('',(#502));
#500=FILL_AREA_STYLE('',(#503));
#501=FILL_AREA_STYLE_COLOUR('',#504);
#502=FILL_AREA_STYLE_COLOUR('',#505);
#503=FILL_AREA_STYLE_COLOUR('',#506);
#504=COLOUR_RGB('',0.749019607843137,0.749019607843137,0.749019607843137);
#505=COLOUR_RGB('',0.0549019607843137,0.0549019607843137,0.0627450980392157);
#506=COLOUR_RGB('',1.,1.,1.);
ENDSEC;
END-ISO-10303-21;
